  0
SECTION
  2
HEADER
  9
$ACADVER
  1
AC1009
  9
$INSBASE
 10
580.0523772844654786
 20
25.2726574324106892
 30
0.0
  9
$EXTMIN
 10
575.0468627131047015
 20
25.2703442555437903
 30
-0.0000000000112498
  9
$EXTMAX
 10
583.6481582438680107
 20
36.658188213571151
 30
0.0000000000002956
  9
$LIMMIN
 10
0.0
 20
0.0
  9
$LIMMAX
 10
11.6929133858000007
 20
8.2677165353999982
  9
$ORTHOMODE
 70
     1
  9
$REGENMODE
 70
     1
  9
$FILLMODE
 70
     1
  9
$QTEXTMODE
 70
     0
  9
$MIRRTEXT
 70
     0
  9
$DRAGMODE
 70
     2
  9
$LTSCALE
 40
0.6431102362
  9
$OSMODE
 70
     7
  9
$ATTMODE
 70
     1
  9
$TEXTSIZE
 40
0.2
  9
$TRACEWID
 40
0.05
  9
$TEXTSTYLE
  7
STANDARD
  9
$CLAYER
  8
0
  9
$CELTYPE
  6
BYLAYER
  9
$CECOLOR
 62
   256
  9
$DIMSCALE
 40
1.0
  9
$DIMASZ
 40
0.1875
  9
$DIMEXO
 40
0.0625
  9
$DIMDLI
 40
0.4443307087
  9
$DIMRND
 40
0.0
  9
$DIMDLE
 40
0.0
  9
$DIMEXE
 40
0.125
  9
$DIMTP
 40
0.01
  9
$DIMTM
 40
0.01
  9
$DIMTXT
 40
2.0
  9
$DIMCEN
 40
0.1052362205
  9
$DIMTSZ
 40
0.0
  9
$DIMTOL
 70
     1
  9
$DIMLIM
 70
     0
  9
$DIMTIH
 70
     1
  9
$DIMTOH
 70
     1
  9
$DIMSE1
 70
     0
  9
$DIMSE2
 70
     0
  9
$DIMTAD
 70
     0
  9
$DIMZIN
 70
     0
  9
$DIMBLK
  1

  9
$DIMASO
 70
     1
  9
$DIMSHO
 70
     1
  9
$DIMPOST
  1
\X
  9
$DIMAPOST
  1

  9
$DIMALT
 70
     1
  9
$DIMALTD
 70
     2
  9
$DIMALTF
 40
25.3999999999999986
  9
$DIMLFAC
 40
1.0
  9
$DIMTOFL
 70
     0
  9
$DIMTVP
 40
0.0
  9
$DIMTIX
 70
     0
  9
$DIMSOXD
 70
     0
  9
$DIMSAH
 70
     0
  9
$DIMBLK1
  1

  9
$DIMBLK2
  1

  9
$DIMSTYLE
  2
STANDARD
  9
$DIMCLRD
 70
     0
  9
$DIMCLRE
 70
     0
  9
$DIMCLRT
 70
     0
  9
$DIMTFAC
 40
1.0
  9
$DIMGAP
 40
0.09
  9
$LUNITS
 70
     2
  9
$LUPREC
 70
     4
  9
$SKETCHINC
 40
0.1
  9
$FILLETRAD
 40
0.0
  9
$AUNITS
 70
     0
  9
$AUPREC
 70
     0
  9
$MENU
  1
.
  9
$ELEVATION
 40
0.0
  9
$PELEVATION
 40
0.0
  9
$THICKNESS
 40
0.0
  9
$LIMCHECK
 70
     0
  9
$BLIPMODE
 70
     0
  9
$CHAMFERA
 40
0.0
  9
$CHAMFERB
 40
0.0
  9
$SKPOLY
 70
     0
  9
$TDCREATE
 40
2458106.4931018520146608
  9
$TDUPDATE
 40
2459636.4969675932079554
  9
$TDINDWG
 40
0.2058781944
  9
$TDUSRTIMER
 40
0.2058781944
  9
$USRTIMER
 70
     1
  9
$ANGBASE
 50
0.0
  9
$ANGDIR
 70
     0
  9
$PDMODE
 70
     0
  9
$PDSIZE
 40
0.3125
  9
$PLINEWID
 40
0.0
  9
$COORDS
 70
     1
  9
$SPLFRAME
 70
     0
  9
$SPLINETYPE
 70
     6
  9
$SPLINESEGS
 70
     8
  9
$ATTDIA
 70
     1
  9
$ATTREQ
 70
     1
  9
$HANDLING
 70
     1
  9
$HANDSEED
  5
2786
  9
$SURFTAB1
 70
     6
  9
$SURFTAB2
 70
     6
  9
$SURFTYPE
 70
     6
  9
$SURFU
 70
     6
  9
$SURFV
 70
     6
  9
$UCSNAME
  2

  9
$UCSORG
 10
0.0
 20
0.0
 30
0.0
  9
$UCSXDIR
 10
1.0
 20
0.0
 30
0.0
  9
$UCSYDIR
 10
0.0
 20
1.0
 30
0.0
  9
$PUCSNAME
  2

  9
$PUCSORG
 10
0.0
 20
0.0
 30
0.0
  9
$PUCSXDIR
 10
1.0
 20
0.0
 30
0.0
  9
$PUCSYDIR
 10
0.0
 20
1.0
 30
0.0
  9
$USERI1
 70
     0
  9
$USERI2
 70
     0
  9
$USERI3
 70
     0
  9
$USERI4
 70
     0
  9
$USERI5
 70
     0
  9
$USERR1
 40
0.0
  9
$USERR2
 40
0.0
  9
$USERR3
 40
0.0
  9
$USERR4
 40
0.0
  9
$USERR5
 40
0.0
  9
$WORLDVIEW
 70
     1
  9
$SHADEDGE
 70
     3
  9
$SHADEDIF
 70
    70
  9
$TILEMODE
 70
     1
  9
$MAXACTVP
 70
    64
  9
$PLIMCHECK
 70
     0
  9
$PEXTMIN
 10
1.0000000000000000E+20
 20
1.0000000000000000E+20
 30
1.0000000000000000E+20
  9
$PEXTMAX
 10
-1.0000000000000000E+20
 20
-1.0000000000000000E+20
 30
-1.0000000000000000E+20
  9
$PLIMMIN
 10
0.0
 20
0.0
  9
$PLIMMAX
 10
12.0
 20
9.0
  9
$UNITMODE
 70
     0
  9
$VISRETAIN
 70
     1
  9
$PLINEGEN
 70
     0
  9
$PSLTSCALE
 70
     1
  0
ENDSEC
  0
SECTION
  2
TABLES
  0
TABLE
  2
VPORT
 70
     1
  0
VPORT
  2
*ACTIVE
 70
     0
 10
0.0
 20
0.0
 11
1.0
 21
1.0
 12
305.7733089219731824
 22
48.5702269685789503
 13
0.0
 23
0.0
 14
1.0
 24
1.0
 15
0.0
 25
0.0
 16
-0.0000000000000568
 26
0.0
 36
193.9250709296327955
 17
273.5742015565131169
 27
-17.6059607340214797
 37
0.0
 40
11.4693798336218293
 41
2.2831541218637992
 42
50.0
 43
0.0
 44
0.0
 50
0.0
 51
0.0
 71
     0
 72
   100
 73
     1
 74
     1
 75
     0
 76
     0
 77
     0
 78
     0
  0
ENDTAB
  0
TABLE
  2
LTYPE
 70
     2
  0
LTYPE
  2
CONTINUOUS
 70
     0
  3
Solid line
 72
    65
 73
     0
 40
0.0
  0
LTYPE
  2
PHANTOM2
 70
     0
  3
___ _ _ ___ _ _ ___ _ _ ___ _ _
 72
    65
 73
     6
 40
1.25
 49
0.625
 49
-0.125
 49
0.125
 49
-0.125
 49
0.125
 49
-0.125
  0
ENDTAB
  0
TABLE
  2
LAYER
 70
     2
  0
LAYER
  2
0
 70
     0
 62
   255
  6
CONTINUOUS
  0
LAYER
  2
DEFPOINTS
 70
     0
 62
     7
  6
CONTINUOUS
  0
ENDTAB
  0
TABLE
  2
STYLE
 70
     1
  0
STYLE
  2
STANDARD
 70
     0
 40
0.0
 41
0.8
 50
0.0
 71
     0
 42
0.2
  3
txt
  4

  0
ENDTAB
  0
TABLE
  2
VIEW
 70
     0
  0
ENDTAB
  0
TABLE
  2
UCS
 70
     0
  0
ENDTAB
  0
TABLE
  2
APPID
 70
     9
  0
APPID
  2
ACAD
 70
     0
  0
APPID
  2
ACAD_MLEADERVER
 70
     0
  0
APPID
  2
ACAD_EXEMPT_FROM_CAD_STANDARDS
 70
     0
  0
APPID
  2
ACAD_NAV_VCDISPLAY
 70
     0
  0
APPID
  2
ACAD_DSTYLE_DIMJAG
 70
     0
  0
APPID
  2
ACAD_DSTYLE_DIMTALN
 70
     0
  0
APPID
  2
ACAECLAYERSTANDARD
 70
     0
  0
APPID
  2
ACCMTRANSPARENCY
 70
     0
  0
APPID
  2
ACDBATTR
 70
     0
  0
ENDTAB
  0
TABLE
  2
DIMSTYLE
 70
     1
  0
DIMSTYLE
  2
STANDARD
 70
     0
  3

  4

  5

  6

  7

 40
1.0
 41
0.1875
 42
0.0625
 43
0.38
 44
0.125
 45
0.0
 46
0.0
 47
0.01
 48
0.01
140
0.15625
141
0.09
142
0.0
143
25.3999999999999986
144
1.0
145
0.0
146
1.0
147
0.09
 71
     1
 72
     0
 73
     1
 74
     1
 75
     0
 76
     0
 77
     0
 78
     4
170
     0
171
     2
172
     0
173
     0
174
     0
175
     0
176
     0
177
     0
178
     0
  0
ENDTAB
  0
ENDSEC
  0
SECTION
  2
BLOCKS
  0
BLOCK
  8
0
  2
$MODEL_SPACE
 70
     0
 10
0.0
 20
0.0
 30
0.0
  3
$MODEL_SPACE
  1

  0
ENDBLK
  5
21
  8
0
  0
BLOCK
 67
     1
  8
0
  2
$PAPER_SPACE
 70
     0
 10
0.0
 20
0.0
 30
0.0
  3
$PAPER_SPACE
  1

  0
ENDBLK
  5
1D
 67
     1
  8
0
  0
ENDSEC
  0
SECTION
  2
ENTITIES
  0
ATTDEF
  5
FAA
  8
DEFPOINTS
 10
580.0525501252947151
 20
25.2761976365529684
 30
0.0
 40
0.001
  1
K-7508
  3

  2
MODELNUMBER
 70
     0
1001
ACDBATTR
1070
     0
1070
     1
  0
ATTDEF
  5
FAB
  8
DEFPOINTS
 10
580.0525501252947151
 20
25.2745309698863103
 30
0.0
 40
0.001
  1
PURIST
  3

  2
TRADENAME
 70
     0
1001
ACDBATTR
1070
     0
1070
     1
  0
ATTDEF
  5
FAC
  8
DEFPOINTS
 10
580.0525501252947151
 20
25.2728643032196416
 30
0.0
 40
0.001
  1
KITCHEN SINK FAUCET
  3

  2
PRODUCT
 70
     0
1001
ACDBATTR
1070
     0
1070
     1
  0
LINE
  5
22F9
  8
0
 10
579.5523772844655923
 20
28.9976574324107013
 30
0.0
 11
579.5523772844655923
 21
29.0826574324106986
 31
0.0
  0
LINE
  5
22FA
  8
0
 10
579.5523772844655923
 20
29.1459417025107008
 30
0.0
 11
579.5523772844655923
 21
36.1576574324106801
 31
0.0
  0
LINE
  5
22FB
  8
0
 10
579.6173772844655332
 20
29.117657429910679
 30
0.0
 11
579.6173772844655332
 21
29.1126574324106997
 31
0.0
  0
LINE
  5
22FC
  8
0
 10
582.6632476639525748
 20
27.0408696186609916
 30
0.0
 11
582.6632347276638484
 21
28.4541457141586811
 31
0.0
  0
LINE
  5
22FD
  8
0
 10
583.1100629919656058
 20
30.7375208952106895
 30
0.0
 11
583.1100629919656058
 21
27.9855208952106906
 31
0.0
  0
LINE
  5
22FE
  8
0
 10
583.1100629919656058
 20
27.5095208952106915
 30
0.0
 11
583.1100629919656058
 21
27.0075208952107104
 31
0.0
  0
LINE
  5
22FF
  8
0
 10
583.6400629919655785
 20
27.0075208952107104
 30
0.0
 11
583.6400629919655785
 21
30.7375208952106895
 31
0.0
  0
LINE
  5
2300
  8
0
 10
582.1606701743655776
 20
27.0218710726106899
 30
0.0
 11
581.867548472557246
 21
27.7471986936445987
 31
0.0
  0
LINE
  5
2301
  8
0
 10
582.6337401160603804
 20
27.0108745083745809
 30
0.0
 11
582.5727486282222571
 21
27.0098098924996002
 31
0.0
  0
LINE
  5
2302
  8
0
 10
582.3527497925656462
 20
27.0059697985106908
 30
0.0
 11
582.1890101190655287
 21
27.0031117119106803
 31
0.0
  0
LINE
  5
2303
  8
0
 10
580.9273772715655468
 20
26.9826574324107007
 30
0.0
 11
581.787377284465606
 21
26.9826574324107007
 31
0.0
  0
LINE
  5
2304
  8
0
 10
583.120062991965483
 20
26.9975208952106911
 30
0.0
 11
583.6300629919654739
 21
26.9975208952106911
 31
0.0
  0
LINE
  5
2305
  8
0
 10
581.8274560245655493
 20
27.0800078261106911
 30
0.0
 11
581.817377284465465
 21
27.0800078261106911
 31
0.0
  0
LINE
  5
2306
  8
0
 10
583.1196726033437017
 20
27.5193604728532186
 30
0.0
 11
582.908780138465545
 21
27.515661749010679
 31
0.0
  0
LINE
  5
2307
  8
0
 10
581.8274560245655493
 20
28.4150078261106884
 30
0.0
 11
581.817377284465465
 21
28.4150078261106884
 31
0.0
  0
LINE
  5
2308
  8
0
 10
580.9274727712620461
 20
28.5126574143691087
 30
0.0
 11
581.787377284465606
 21
28.5126574324106983
 31
0.0
  0
LINE
  5
2309
  8
0
 10
580.5223772844653922
 20
29.1126574324106997
 30
0.0
 11
579.5823772844654513
 21
29.1126574324106997
 31
0.0
  0
LINE
  5
230A
  8
0
 10
580.5323772847655164
 20
29.1176574312106915
 30
0.0
 11
579.5723772837654906
 21
29.117657429910679
 31
0.0
  0
LINE
  5
230B
  8
0
 10
582.6337402215655175
 20
28.4841411474106891
 30
0.0
 11
581.8980420498655803
 21
28.4969828069106903
 31
0.0
  0
LINE
  5
230C
  8
0
 10
583.1193523199827951
 20
27.9756869349810913
 30
0.0
 11
582.908780138465545
 21
27.9793800415106908
 31
0.0
  0
LINE
  5
230D
  8
0
 10
583.6300629919654739
 20
30.7475208952106911
 30
0.0
 11
583.120062991965483
 21
30.7475208952106911
 31
0.0
  0
LINE
  5
230E
  8
0
 10
579.5823772844654513
 20
34.1526574324106917
 30
0.0
 11
580.5223772843654615
 21
34.1526574324106917
 31
0.0
  0
ARC
  5
230F
  8
0
 10
579.3123818809890508
 20
28.9976528358870311
 30
0.0
 40
0.2399954035204027
 50
269.9989026397989278
 51
0.0010973602125273
  0
ARC
  5
2310
  8
0
 10
579.5823772844654513
 20
29.0826574324106986
 30
0.0
 40
0.03
 50
90.0
 51
180.0
  0
ARC
  5
2311
  8
0
 10
579.582377288575799
 20
29.1459417038171082
 30
0.0
 40
0.0300000041103199
 50
180.0000024950631996
 51
250.5287723967105933
  0
ARC
  5
2312
  8
0
 10
579.5823772836546368
 20
34.1826574315997505
 30
0.0
 40
0.0299999991890445
 50
179.9999984512137132
 51
270.0000015488130884
  0
ARC
  5
2313
  8
0
 10
580.7923763435248929
 20
28.9976564914701704
 30
0.0
 40
0.2399990590613583
 50
179.9997753661126012
 51
270.0002246338702889
  0
ARC
  5
2314
  8
0
 10
581.787377284465606
 20
27.0126574324106983
 30
0.0
 40
0.03
 50
270.0
 51
0.0
  0
ARC
  5
2315
  8
0
 10
581.7637607327648084
 20
27.6677174476042396
 30
0.0
 40
0.7500000000064996
 50
82.0457412011993341
 51
85.128169693876913
  0
ARC
  5
2316
  8
0
 10
581.7637607327656042
 20
27.827298204610841
 30
0.0
 40
0.7500000000001461
 50
274.8718303062015025
 51
297.0698293440387943
  0
ARC
  5
2317
  8
0
 10
581.787377284465606
 20
28.4826574324107007
 30
0.0
 40
0.03
 50
0.0
 51
90.0
  0
ARC
  5
2318
  8
0
 10
581.8974989885258537
 20
28.4670362293123702
 30
0.0
 40
0.0299515012223234
 50
88.9610928806068273
 51
179.9066605613558067
  0
ARC
  5
2319
  8
0
 10
582.9131743316472694
 20
28.2293659135787998
 30
0.0
 40
0.2500244892165353
 50
181.5115632421729117
 51
268.9929718917734931
  0
ARC
  5
231A
  8
0
 10
582.9131562675655687
 20
27.2657186570678682
 30
0.0
 40
0.2499813988208727
 50
91.003060784173627
 51
178.6374562042396121
  0
ARC
  5
231B
  8
0
 10
582.633161738417698
 20
27.0409549951348005
 30
0.0
 40
0.0300860466733306
 50
271.1015282487247191
 51
359.837409074315417
  0
ARC
  5
231C
  8
0
 10
582.6332347181931937
 20
28.454145397133761
 30
0.0
 40
0.0300000094722446
 50
0.0006054728063347
 51
89.0345142881704419
  0
ARC
  5
231D
  8
0
 10
583.6300629919654739
 20
30.7375208952106895
 30
0.0
 40
0.01
 50
0.0
 51
90.0
  0
ARC
  5
231E
  8
0
 10
583.120062991965483
 20
30.7375208952106895
 30
0.0
 40
0.01
 50
90.0
 51
180.0
  0
ARC
  5
231F
  8
0
 10
583.120062991965483
 20
27.0075208952107104
 30
0.0
 40
0.01
 50
180.0
 51
270.0
  0
ARC
  5
2320
  8
0
 10
583.6300629919654739
 20
27.0075208952107104
 30
0.0
 40
0.01
 50
270.0
 51
0.0
  0
ARC
  5
2321
  8
0
 10
579.2523565342163465
 20
28.7276781826694894
 30
0.0
 40
0.0299792569320012
 50
89.9603158235544669
 51
180.0396574989742078
  0
LINE
  5
2322
  8
0
 10
579.2523772984337711
 20
28.7576574324106318
 30
0.0
 11
580.8523772844655468
 21
28.7576574324106318
 31
0.0
  0
LINE
  5
2323
  8
0
 10
579.2223772844655514
 20
28.7276574324106306
 30
0.0
 11
579.2223772844655514
 21
25.5776574324106285
 31
0.0
  0
ARC
  5
2324
  8
0
 10
579.0973772844655514
 20
25.5776574324106285
 30
0.0
 40
0.125
 50
270.0
 51
0.0
  0
LINE
  5
2325
  8
0
 10
581.0223772844655059
 20
25.4526574324106285
 30
0.0
 11
579.0823772844654513
 21
25.4526574324106285
 31
0.0
  0
ARC
  5
2326
  8
0
 10
579.0823772844654513
 20
25.4226574324106309
 30
0.0
 40
0.0300000000000002
 50
90.0
 51
179.9999999999996021
  0
LINE
  5
2327
  8
0
 10
579.0523772844655923
 20
25.4226574324106309
 30
0.0
 11
579.0523772844655923
 21
25.3026574324106406
 31
0.0
  0
ARC
  5
2328
  8
0
 10
579.0823772844654513
 20
25.3026574324106406
 30
0.0
 40
0.0299999999999994
 50
180.000000000000199
 51
270.0
  0
LINE
  5
2329
  8
0
 10
579.0823772844654513
 20
25.2726574324106394
 30
0.0
 11
581.0223772844655059
 21
25.2726574324107496
 31
0.0
  0
ARC
  5
232A
  8
0
 10
580.8524197328018772
 20
28.7276998807483217
 30
0.0
 40
0.0299575817358744
 50
359.9188165984450052
 51
90.0811851689738035
  0
LINE
  5
232B
  8
0
 10
580.8823772844655196
 20
28.7276574333360593
 30
0.0
 11
580.8823772844655196
 21
28.5576578503247482
 31
0.0
  0
LINE
  5
232C
  8
0
 10
580.8823772844655196
 20
26.9376570145106413
 30
0.0
 11
580.8823772844655196
 21
25.5776430184810089
 31
0.0
  0
ARC
  5
232D
  8
0
 10
581.007419832841606
 20
25.5776999925237511
 30
0.0
 40
0.1250425613558143
 50
180.0261060895452943
 51
269.9919222229761999
  0
ARC
  5
232E
  8
0
 10
581.0224021862226209
 20
25.4226574251027202
 30
0.0
 40
0.0300000176428705
 50
0.0000139570808363
 51
90.0475588303555554
  0
LINE
  5
232F
  8
0
 10
581.0524022038655403
 20
25.4226574324106309
 30
0.0
 11
581.0524022038655403
 21
25.3026574324106406
 31
0.0
  0
ARC
  5
2330
  8
0
 10
581.0224021862228483
 20
25.3026574397184696
 30
0.0
 40
0.0300000176426772
 50
269.952441169273186
 51
359.999986043067679
  0
ARC
  5
2331
  8
0
 10
580.9273178263508726
 20
28.5575977293608609
 30
0.0
 40
0.04494058209995
 50
179.9233503804838961
 51
270.1975432145931109
  0
ARC
  5
2332
  8
0
 10
580.9287897270459098
 20
26.9362450033499314
 30
0.0
 40
0.0464339165029224
 50
91.7431272090583292
 51
178.257421300068188
  0
ARC
  5
2333
  8
0
 10
585.2585369976250149
 20
24.6426956600324196
 30
0.0
 40
5.8717716905971722
 50
138.1838233758691956
 51
144.2354720001885084
  0
ARC
  5
2334
  8
0
 10
581.0657664915347596
 20
27.6626729070915403
 30
0.0
 40
0.7046073725698602
 50
144.2354720001885084
 51
173.0725729414037062
  0
ARC
  5
2335
  8
0
 10
580.8870969754511862
 20
27.7762718425750315
 30
0.0
 40
0.5215795462672462
 50
183.1449288523623977
 51
211.4121801753121872
  0
ARC
  5
2336
  8
0
 10
584.0453395243083605
 20
29.8499766620681299
 30
0.0
 40
4.299527399636089
 50
213.0613066455258036
 51
222.6375378761973138
  0
ARC
  5
2337
  8
0
 10
582.4753654496029185
 20
26.2851059906366196
 30
0.0
 40
0.7312176343971755
 50
82.3466392607640927
 51
99.653360754007565
  0
ARC
  5
2338
  8
0
 10
582.5170186669944314
 20
28.0983171487641705
 30
0.0
 40
0.8356928859210498
 50
315.2059461483183895
 51
329.8561006707647039
  0
ARC
  5
2339
  8
0
 10
583.1235497153051028
 20
27.7474407253653297
 30
0.0
 40
0.1349890377704011
 50
329.364808445009885
 51
30.1384813925707888
  0
ARC
  5
233A
  8
0
 10
582.4118372642393524
 20
27.3166604508179915
 30
0.0
 40
0.9668988886806777
 50
31.0392336642776598
 51
43.7694644740197703
  0
LINE
  5
233B
  8
0
 10
575.4996673307159654
 20
26.302657432410701
 30
0.0
 11
576.6050869408326207
 21
26.302657432410701
 31
0.0
  0
LINE
  5
233C
  8
0
 10
575.5770589698015556
 20
30.4322716543106893
 30
0.0
 11
575.6141796664076082
 21
30.4322716543106893
 31
0.0
  0
LINE
  5
233D
  8
0
 10
576.4905749024577517
 20
30.4322716543106893
 30
0.0
 11
576.527695599063577
 21
30.4322716543106893
 31
0.0
  0
LINE
  5
233E
  8
0
 10
576.5276955990422039
 20
30.6370432106106882
 30
0.0
 11
576.4905749024343322
 21
30.6370432106106882
 31
0.0
  0
LINE
  5
233F
  8
0
 10
575.614179666430914
 20
30.6370432106106882
 30
0.0
 11
575.5770589698230424
 21
30.6370432106106882
 31
0.0
  0
LINE
  5
2340
  8
0
 10
575.8873772844325458
 20
28.0741632862106911
 30
0.0
 11
575.8873772844325458
 21
28.1039747059107015
 31
0.0
  0
LINE
  5
2341
  8
0
 10
575.8873772844325458
 20
28.5453439651106784
 30
0.0
 11
575.8873772844325458
 21
28.5749820250106907
 31
0.0
  0
LINE
  5
2342
  8
0
 10
575.9499915062326636
 20
31.0099757470202206
 30
0.0
 11
575.9499915062326636
 21
30.9728550504124094
 31
0.0
  0
LINE
  5
2343
  8
0
 10
575.9499915062326636
 20
30.0964598144089699
 30
0.0
 11
575.9499915062326636
 21
30.0593391178011302
 31
0.0
  0
LINE
  5
2344
  8
0
 10
576.0323772844326413
 20
27.1173798803106898
 30
0.0
 11
576.0323772844326413
 21
27.141844428210689
 31
0.0
  0
LINE
  5
2345
  8
0
 10
576.0323772844326413
 20
27.71593291581069
 30
0.0
 11
576.0323772844326413
 21
27.6914535529107013
 31
0.0
  0
LINE
  5
2346
  8
0
 10
576.0723772844324913
 20
27.7159350048106816
 30
0.0
 11
576.0723772844324913
 21
27.6914704367107092
 31
0.0
  0
LINE
  5
2347
  8
0
 10
576.0723772844324913
 20
27.1418613120106897
 30
0.0
 11
576.0723772844324913
 21
27.1173819603106914
 31
0.0
  0
LINE
  5
2348
  8
0
 10
576.1547630626326963
 20
30.0593391178011302
 30
0.0
 11
576.1547630626326963
 21
30.0964598144089699
 31
0.0
  0
LINE
  5
2349
  8
0
 10
576.1547630626326963
 20
30.9728550504124094
 30
0.0
 11
576.1547630626326963
 21
31.0099757470202206
 31
0.0
  0
LINE
  5
234A
  8
0
 10
576.2173772844325867
 20
28.5751517426107
 30
0.0
 11
576.2173772844325867
 21
28.5453401590106886
 31
0.0
  0
LINE
  5
234B
  8
0
 10
576.2173772844325867
 20
28.103970899810701
 30
0.0
 11
576.2173772844325867
 21
28.0743327792106889
 31
0.0
  0
ARC
  5
234C
  8
0
 10
575.2697791688623283
 20
25.6825473043624797
 30
0.0
 40
0.229889897958104
 50
269.9727468476528998
 51
359.7773278665428052
  0
ARC
  5
234D
  8
0
 10
575.5353323007292374
 20
26.266687207625921
 30
0.0
 40
0.0361025144626145
 50
94.9064184883416857
 51
171.070655234157897
  0
CIRCLE
  5
234E
  8
0
 10
575.9858700323326275
 20
30.1574760630106802
 30
0.0
 40
0.0193141621
  0
CIRCLE
  5
234F
  8
0
 10
576.0523772844326231
 20
27.4166574324107017
 30
0.0
 40
0.3
  0
CIRCLE
  5
2350
  8
0
 10
576.0523772844326231
 20
27.4166574324107017
 30
0.0
 40
0.2755905512
  0
CIRCLE
  5
2351
  8
0
 10
576.0523772844326231
 20
28.3246574324106817
 30
0.0
 40
0.3
  0
CIRCLE
  5
2352
  8
0
 10
576.0523772844326231
 20
28.3246574324106817
 30
0.0
 40
0.2755905512
  0
CIRCLE
  5
2353
  8
0
 10
576.0523772844326231
 20
30.5346574324106896
 30
0.0
 40
0.5195433051000001
  0
CIRCLE
  5
2354
  8
0
 10
576.0523772844326231
 20
30.5346574324106896
 30
0.0
 40
0.4862204724000002
  0
CIRCLE
  5
2355
  8
0
 10
576.0523772844326231
 20
30.5346574324106896
 30
0.0
 40
0.45
  0
CIRCLE
  5
2356
  8
0
 10
576.0523772844326231
 20
30.5346574324106896
 30
0.0
 40
0.315
  0
CIRCLE
  5
2357
  8
0
 10
576.0523772844326231
 20
30.5346574324106896
 30
0.0
 40
0.2750355339
  0
CIRCLE
  5
2358
  8
0
 10
575.860877284432604
 20
30.2029697028106803
 30
0.0
 40
0.0193141621
  0
CIRCLE
  5
2359
  8
0
 10
575.7589822627326157
 20
30.2884697779106915
 30
0.0
 40
0.0193141621
  0
CIRCLE
  5
235A
  8
0
 10
575.6924750106326201
 20
30.4036637175106783
 30
0.0
 40
0.0193141621
  0
CIRCLE
  5
235B
  8
0
 10
575.6693772844326986
 20
30.5346574324106896
 30
0.0
 40
0.0193141621
  0
CIRCLE
  5
235C
  8
0
 10
575.6924750106326201
 20
30.665651147310701
 30
0.0
 40
0.0193141621
  0
CIRCLE
  5
235D
  8
0
 10
575.7589822627326157
 20
30.7808450870106682
 30
0.0
 40
0.0193141621
  0
CIRCLE
  5
235E
  8
0
 10
575.860877284432604
 20
30.8663451621106901
 30
0.0
 40
0.0193141621
  0
CIRCLE
  5
235F
  8
0
 10
575.9858700323326275
 20
30.9118388018106813
 30
0.0
 40
0.0193141621
  0
CIRCLE
  5
2360
  8
0
 10
576.1188845364325744
 20
30.9118388018106813
 30
0.0
 40
0.0193141621
  0
CIRCLE
  5
2361
  8
0
 10
576.2438772844326422
 20
30.8663451621106901
 30
0.0
 40
0.0193141621
  0
CIRCLE
  5
2362
  8
0
 10
576.3457723061326305
 20
30.7808450870106682
 30
0.0
 40
0.0193141621
  0
CIRCLE
  5
2363
  8
0
 10
576.4122795582326262
 20
30.665651147310701
 30
0.0
 40
0.0193141621
  0
CIRCLE
  5
2364
  8
0
 10
576.4353772844326613
 20
30.5346574324106896
 30
0.0
 40
0.0193141621
  0
CIRCLE
  5
2365
  8
0
 10
576.4122795582326262
 20
30.4036637175106783
 30
0.0
 40
0.0193141621
  0
CIRCLE
  5
2366
  8
0
 10
576.3457723061326305
 20
30.2884697779106915
 30
0.0
 40
0.0193141621
  0
CIRCLE
  5
2367
  8
0
 10
576.2438772844326422
 20
30.2029697028106803
 30
0.0
 40
0.0193141621
  0
CIRCLE
  5
2368
  8
0
 10
576.1188845364325744
 20
30.1574760630106802
 30
0.0
 40
0.0193141621
  0
ARC
  5
2369
  8
0
 10
582.188662270994314
 20
27.0333726069224412
 30
0.0
 40
0.0302628941972372
 50
202.3370282375508964
 51
270.6585842434022879
  0
LINE
  5
236A
  8
0
 10
577.0223772844327641
 20
25.4526574324106285
 30
0.0
 11
575.0823772844325958
 21
25.4526574324106285
 31
0.0
  0
ARC
  5
236B
  8
0
 10
575.0823772844325958
 20
25.4226574324106309
 30
0.0
 40
0.0300000000000002
 50
90.0
 51
179.9999999999996021
  0
ARC
  5
236C
  8
0
 10
575.0823772844325958
 20
25.3026574324106406
 30
0.0
 40
0.0299999999999994
 50
180.000000000000199
 51
270.0
  0
LINE
  5
236D
  8
0
 10
575.0823772844325958
 20
25.2726574324106394
 30
0.0
 11
577.0223772844327641
 21
25.2726574324107496
 31
0.0
  0
ARC
  5
236E
  8
0
 10
577.0224197466887972
 20
25.4226998946667209
 30
0.0
 40
0.0299575678372103
 50
359.9187881709884209
 51
90.0812118290259036
  0
LINE
  5
236F
  8
0
 10
577.0523772844328505
 20
25.4226574324106309
 30
0.0
 11
577.0523772844328505
 21
25.3026574324106406
 31
0.0
  0
ARC
  5
2370
  8
0
 10
577.0224197466890246
 20
25.3026149701544583
 30
0.0
 40
0.0299575678370188
 50
269.9187881705638006
 51
0.0812118291748813
  0
LINE
  5
2371
  8
0
 10
575.0523772844328505
 20
25.3026574324106406
 30
0.0
 11
575.0523772844328505
 21
25.4226574324106309
 31
0.0
  0
LINE
  5
2372
  8
0
 10
581.8173772844653513
 20
28.4826574324107007
 30
0.0
 11
581.8173772844653513
 21
27.0126574324106983
 31
0.0
  0
LINE
  5
2373
  8
0
 10
575.9838799031655299
 20
30.6412878891106892
 30
0.0
 11
575.9711509214655507
 21
30.6633351321437111
 31
0.0
  0
LINE
  5
2374
  8
0
 10
575.9711509214655507
 20
30.6633351321437111
 30
0.0
 11
575.9456929580655924
 21
30.6633351321437111
 31
0.0
  0
LINE
  5
2375
  8
0
 10
575.9456929580655924
 20
30.6633351321437111
 30
0.0
 11
575.9329639763654995
 21
30.6412878891106892
 31
0.0
  0
LINE
  5
2376
  8
0
 10
575.9329639763654995
 20
30.6412878891106892
 30
0.0
 11
575.9456929580655924
 21
30.6192406460776816
 31
0.0
  0
LINE
  5
2377
  8
0
 10
575.9456929580655924
 20
30.6192406460776816
 30
0.0
 11
575.9711509214655507
 21
30.6192406460776816
 31
0.0
  0
LINE
  5
2378
  8
0
 10
575.9711509214655507
 20
30.6192406460776816
 30
0.0
 11
575.9838799031655299
 21
30.6412878891106892
 31
0.0
  0
LINE
  5
2379
  8
0
 10
575.9739922127805585
 20
30.6682563930606911
 30
0.0
 11
575.9711509214655507
 21
30.6633351321437111
 31
0.0
  0
LINE
  5
237A
  8
0
 10
575.9456929580655924
 20
30.6192406460776816
 30
0.0
 11
575.9428516667503573
 21
30.614319385160691
 31
0.0
  0
LINE
  5
237B
  8
0
 10
575.9428516667503573
 20
30.6682563930606911
 30
0.0
 11
575.9456929580655924
 21
30.6633351321437111
 31
0.0
  0
LINE
  5
237C
  8
0
 10
575.9711509214655507
 20
30.6192406460776816
 30
0.0
 11
575.9739922127517957
 21
30.6143193852106883
 31
0.0
  0
LINE
  5
237D
  8
0
 10
575.9272813961096062
 20
30.6412878891106892
 30
0.0
 11
575.9329639763654995
 21
30.6412878891106892
 31
0.0
  0
LINE
  5
237E
  8
0
 10
575.9838799031655299
 20
30.6412878891106892
 30
0.0
 11
575.9895624835213539
 21
30.6412878891106892
 31
0.0
  0
CIRCLE
  5
237F
  8
0
 10
576.0518401948654628
 20
30.5334138734106908
 30
0.0
 40
0.2391695427
  0
LINE
  5
2380
  8
0
 10
575.9838799031942926
 20
30.6952248969606991
 30
0.0
 11
575.9711509214944272
 21
30.7172721399937103
 31
0.0
  0
LINE
  5
2381
  8
0
 10
575.9711509214944272
 20
30.7172721399937103
 30
0.0
 11
575.9456929580943552
 21
30.7172721399937103
 31
0.0
  0
LINE
  5
2382
  8
0
 10
575.9456929580943552
 20
30.7172721399937103
 30
0.0
 11
575.932963976394376
 21
30.6952248969606991
 31
0.0
  0
LINE
  5
2383
  8
0
 10
575.932963976394376
 20
30.6952248969606991
 30
0.0
 11
575.9456929580943552
 21
30.6731776539276808
 31
0.0
  0
LINE
  5
2384
  8
0
 10
575.9456929580943552
 20
30.6731776539276808
 30
0.0
 11
575.9711509214944272
 21
30.6731776539276808
 31
0.0
  0
LINE
  5
2385
  8
0
 10
575.9711509214944272
 20
30.6731776539276808
 30
0.0
 11
575.9838799031942926
 21
30.6952248969606991
 31
0.0
  0
LINE
  5
2386
  8
0
 10
575.9739922128095486
 20
30.7221934009107009
 30
0.0
 11
575.9711509214944272
 21
30.7172721399937103
 31
0.0
  0
LINE
  5
2387
  8
0
 10
575.9456929580943552
 20
30.6731776539276808
 30
0.0
 11
575.9428516667792337
 21
30.6682563930106902
 31
0.0
  0
LINE
  5
2388
  8
0
 10
575.9428516667792337
 20
30.7221934009107009
 30
0.0
 11
575.9456929580943552
 21
30.7172721399937103
 31
0.0
  0
LINE
  5
2389
  8
0
 10
575.9711509214944272
 20
30.6731776539276808
 30
0.0
 11
575.9739922127805585
 21
30.6682563930606911
 31
0.0
  0
LINE
  5
238A
  8
0
 10
575.927281396138369
 20
30.6952248969606991
 30
0.0
 11
575.932963976394376
 21
30.6952248969606991
 31
0.0
  0
LINE
  5
238B
  8
0
 10
575.9838799031942926
 20
30.6952248969606991
 30
0.0
 11
575.989562483550344
 21
30.6952248969606991
 31
0.0
  0
LINE
  5
238C
  8
0
 10
575.9838799032231691
 20
30.7491619048106983
 30
0.0
 11
575.9772454272173263
 21
30.7606531543346406
 31
0.0
  0
LINE
  5
238D
  8
0
 10
575.9365452460491497
 20
30.7429589638631811
 30
0.0
 11
575.9456929581232316
 21
30.72711466177768
 31
0.0
  0
LINE
  5
238E
  8
0
 10
575.9456929581232316
 20
30.72711466177768
 30
0.0
 11
575.9711509215231899
 21
30.72711466177768
 31
0.0
  0
LINE
  5
238F
  8
0
 10
575.9711509215231899
 20
30.72711466177768
 30
0.0
 11
575.9838799032231691
 21
30.7491619048106983
 31
0.0
  0
LINE
  5
2390
  8
0
 10
575.9456929581232316
 20
30.72711466177768
 30
0.0
 11
575.9428516668081102
 21
30.7221934008607001
 31
0.0
  0
LINE
  5
2391
  8
0
 10
575.9711509215231899
 20
30.72711466177768
 30
0.0
 11
575.9739922128095486
 21
30.7221934009107009
 31
0.0
  0
LINE
  5
2392
  8
0
 10
575.9838799032231691
 20
30.7491619048106983
 30
0.0
 11
575.9895624835792205
 21
30.7491619048106983
 31
0.0
  0
LINE
  5
2393
  8
0
 10
575.9838799031366534
 20
30.58735088126069
 30
0.0
 11
575.9711509214365606
 21
30.6093981242937083
 31
0.0
  0
LINE
  5
2394
  8
0
 10
575.9711509214365606
 20
30.6093981242937083
 30
0.0
 11
575.9456929580367159
 21
30.6093981242937083
 31
0.0
  0
LINE
  5
2395
  8
0
 10
575.9456929580367159
 20
30.6093981242937083
 30
0.0
 11
575.9329639763365094
 21
30.58735088126069
 31
0.0
  0
LINE
  5
2396
  8
0
 10
575.9329639763365094
 20
30.58735088126069
 30
0.0
 11
575.9456929580367159
 21
30.5653036382276788
 31
0.0
  0
LINE
  5
2397
  8
0
 10
575.9456929580367159
 20
30.5653036382276788
 30
0.0
 11
575.9711509214365606
 21
30.5653036382276788
 31
0.0
  0
LINE
  5
2398
  8
0
 10
575.9711509214365606
 20
30.5653036382276788
 30
0.0
 11
575.9838799031366534
 21
30.58735088126069
 31
0.0
  0
LINE
  5
2399
  8
0
 10
575.9739922127517957
 20
30.6143193852106883
 30
0.0
 11
575.9711509214365606
 21
30.6093981242937083
 31
0.0
  0
LINE
  5
239A
  8
0
 10
575.9456929580367159
 20
30.5653036382276788
 30
0.0
 11
575.9428516667213671
 21
30.5603823773106917
 31
0.0
  0
LINE
  5
239B
  8
0
 10
575.9428516667213671
 20
30.6143193852106883
 30
0.0
 11
575.9456929580367159
 21
30.6093981242937083
 31
0.0
  0
LINE
  5
239C
  8
0
 10
575.9711509214365606
 20
30.5653036382276788
 30
0.0
 11
575.9739922127230329
 21
30.5603823773606997
 31
0.0
  0
LINE
  5
239D
  8
0
 10
575.9272813960807298
 20
30.58735088126069
 30
0.0
 11
575.9329639763365094
 21
30.58735088126069
 31
0.0
  0
LINE
  5
239E
  8
0
 10
575.9838799031366534
 20
30.58735088126069
 30
0.0
 11
575.9895624834925911
 21
30.58735088126069
 31
0.0
  0
LINE
  5
239F
  8
0
 10
575.9838799031076633
 20
30.5334138734106908
 30
0.0
 11
575.9711509214077978
 21
30.5554611164437091
 31
0.0
  0
LINE
  5
23A0
  8
0
 10
575.9711509214077978
 20
30.5554611164437091
 30
0.0
 11
575.9456929580078395
 21
30.5554611164437091
 31
0.0
  0
LINE
  5
23A1
  8
0
 10
575.9456929580078395
 20
30.5554611164437091
 30
0.0
 11
575.9329639763078603
 21
30.5334138734106908
 31
0.0
  0
LINE
  5
23A2
  8
0
 10
575.9329639763078603
 20
30.5334138734106908
 30
0.0
 11
575.9456929580078395
 21
30.5113666303776796
 31
0.0
  0
LINE
  5
23A3
  8
0
 10
575.9456929580078395
 20
30.5113666303776796
 30
0.0
 11
575.9711509214077978
 21
30.5113666303776796
 31
0.0
  0
LINE
  5
23A4
  8
0
 10
575.9711509214077978
 20
30.5113666303776796
 30
0.0
 11
575.9838799031076633
 21
30.5334138734106908
 31
0.0
  0
LINE
  5
23A5
  8
0
 10
575.9739922127230329
 20
30.5603823773606997
 30
0.0
 11
575.9711509214077978
 21
30.5554611164437091
 31
0.0
  0
LINE
  5
23A6
  8
0
 10
575.9456929580078395
 20
30.5113666303776796
 30
0.0
 11
575.9428516666924907
 21
30.506445369460689
 31
0.0
  0
LINE
  5
23A7
  8
0
 10
575.9428516666924907
 20
30.5603823773606997
 30
0.0
 11
575.9456929580078395
 21
30.5554611164437091
 31
0.0
  0
LINE
  5
23A8
  8
0
 10
575.9711509214077978
 20
30.5113666303776796
 30
0.0
 11
575.9739922126941565
 21
30.5064453695106899
 31
0.0
  0
LINE
  5
23A9
  8
0
 10
575.9272813960518533
 20
30.5334138734106908
 30
0.0
 11
575.9329639763078603
 21
30.5334138734106908
 31
0.0
  0
LINE
  5
23AA
  8
0
 10
575.9838799031076633
 20
30.5334138734106908
 30
0.0
 11
575.9895624834637147
 21
30.5334138734106908
 31
0.0
  0
LINE
  5
23AB
  8
0
 10
575.9838799030789005
 20
30.4794768655606916
 30
0.0
 11
575.9711509213789213
 21
30.5015241085937099
 31
0.0
  0
LINE
  5
23AC
  8
0
 10
575.9711509213789213
 20
30.5015241085937099
 30
0.0
 11
575.945692957978963
 21
30.5015241085937099
 31
0.0
  0
LINE
  5
23AD
  8
0
 10
575.945692957978963
 20
30.5015241085937099
 30
0.0
 11
575.9329639762788702
 21
30.4794768655606916
 31
0.0
  0
LINE
  5
23AE
  8
0
 10
575.9329639762788702
 20
30.4794768655606916
 30
0.0
 11
575.945692957978963
 21
30.4574296225276804
 31
0.0
  0
LINE
  5
23AF
  8
0
 10
575.945692957978963
 20
30.4574296225276804
 30
0.0
 11
575.9711509213789213
 21
30.4574296225276804
 31
0.0
  0
LINE
  5
23B0
  8
0
 10
575.9711509213789213
 20
30.4574296225276804
 30
0.0
 11
575.9838799030789005
 21
30.4794768655606916
 31
0.0
  0
LINE
  5
23B1
  8
0
 10
575.9739922126941565
 20
30.5064453695106899
 30
0.0
 11
575.9711509213789213
 21
30.5015241085937099
 31
0.0
  0
LINE
  5
23B2
  8
0
 10
575.945692957978963
 20
30.4574296225276804
 30
0.0
 11
575.9428516666637279
 21
30.4525083616106897
 31
0.0
  0
LINE
  5
23B3
  8
0
 10
575.9428516666637279
 20
30.5064453695106899
 30
0.0
 11
575.945692957978963
 21
30.5015241085937099
 31
0.0
  0
LINE
  5
23B4
  8
0
 10
575.9711509213789213
 20
30.4574296225276804
 30
0.0
 11
575.9739922126651663
 21
30.4525083616606906
 31
0.0
  0
LINE
  5
23B5
  8
0
 10
575.9272813960229769
 20
30.4794768655606916
 30
0.0
 11
575.9329639762788702
 21
30.4794768655606916
 31
0.0
  0
LINE
  5
23B6
  8
0
 10
575.9838799030789005
 20
30.4794768655606916
 30
0.0
 11
575.9895624834349519
 21
30.4794768655606916
 31
0.0
  0
LINE
  5
23B7
  8
0
 10
575.983879903050024
 20
30.4255398577106995
 30
0.0
 11
575.9711509213500449
 21
30.4475871007437107
 31
0.0
  0
LINE
  5
23B8
  8
0
 10
575.9711509213500449
 20
30.4475871007437107
 30
0.0
 11
575.9456929579499729
 21
30.4475871007437107
 31
0.0
  0
LINE
  5
23B9
  8
0
 10
575.9456929579499729
 20
30.4475871007437107
 30
0.0
 11
575.9329639762499937
 21
30.4255398577106995
 31
0.0
  0
LINE
  5
23BA
  8
0
 10
575.9329639762499937
 20
30.4255398577106995
 30
0.0
 11
575.9456929579499729
 21
30.4034926146776812
 31
0.0
  0
LINE
  5
23BB
  8
0
 10
575.9456929579499729
 20
30.4034926146776812
 30
0.0
 11
575.9711509213500449
 21
30.4034926146776812
 31
0.0
  0
LINE
  5
23BC
  8
0
 10
575.9711509213500449
 20
30.4034926146776812
 30
0.0
 11
575.983879903050024
 21
30.4255398577106995
 31
0.0
  0
LINE
  5
23BD
  8
0
 10
575.9739922126651663
 20
30.4525083616606906
 30
0.0
 11
575.9711509213500449
 21
30.4475871007437107
 31
0.0
  0
LINE
  5
23BE
  8
0
 10
575.9456929579499729
 20
30.4034926146776812
 30
0.0
 11
575.9428516666348514
 21
30.3985713537606905
 31
0.0
  0
LINE
  5
23BF
  8
0
 10
575.9428516666348514
 20
30.4525083616606906
 30
0.0
 11
575.9456929579499729
 21
30.4475871007437107
 31
0.0
  0
LINE
  5
23C0
  8
0
 10
575.9711509213500449
 20
30.4034926146776812
 30
0.0
 11
575.9739922126364036
 21
30.3985713538106914
 31
0.0
  0
LINE
  5
23C1
  8
0
 10
575.9272813959941004
 20
30.4255398577106995
 30
0.0
 11
575.9329639762499937
 21
30.4255398577106995
 31
0.0
  0
LINE
  5
23C2
  8
0
 10
575.983879903050024
 20
30.4255398577106995
 30
0.0
 11
575.9895624834060754
 21
30.4255398577106995
 31
0.0
  0
LINE
  5
23C3
  8
0
 10
575.9838799030211476
 20
30.3716028498606896
 30
0.0
 11
575.9711509213210547
 21
30.3936500928937114
 31
0.0
  0
LINE
  5
23C4
  8
0
 10
575.9711509213210547
 20
30.3936500928937114
 30
0.0
 11
575.9456929579210964
 21
30.3936500928937114
 31
0.0
  0
LINE
  5
23C5
  8
0
 10
575.9456929579210964
 20
30.3936500928937114
 30
0.0
 11
575.932963976221231
 21
30.3716028498606896
 31
0.0
  0
LINE
  5
23C6
  8
0
 10
575.932963976221231
 20
30.3716028498606896
 30
0.0
 11
575.9456929579210964
 21
30.3495556068276784
 31
0.0
  0
LINE
  5
23C7
  8
0
 10
575.9456929579210964
 20
30.3495556068276784
 30
0.0
 11
575.9711509213210547
 21
30.3495556068276784
 31
0.0
  0
LINE
  5
23C8
  8
0
 10
575.9711509213210547
 20
30.3495556068276784
 30
0.0
 11
575.9838799030211476
 21
30.3716028498606896
 31
0.0
  0
LINE
  5
23C9
  8
0
 10
575.9739922126364036
 20
30.3985713538106914
 30
0.0
 11
575.9711509213210547
 21
30.3936500928937114
 31
0.0
  0
LINE
  5
23CA
  8
0
 10
575.9456929579210964
 20
30.3495556068276784
 30
0.0
 11
575.942851666605975
 21
30.3446343459106913
 31
0.0
  0
LINE
  5
23CB
  8
0
 10
575.942851666605975
 20
30.3985713538106914
 30
0.0
 11
575.9456929579210964
 21
30.3936500928937114
 31
0.0
  0
LINE
  5
23CC
  8
0
 10
575.9711509213210547
 20
30.3495556068276784
 30
0.0
 11
575.9739922126075271
 21
30.3446343459606886
 31
0.0
  0
LINE
  5
23CD
  8
0
 10
575.927281395965224
 20
30.3716028498606896
 30
0.0
 11
575.932963976221231
 21
30.3716028498606896
 31
0.0
  0
LINE
  5
23CE
  8
0
 10
575.9838799030211476
 20
30.3716028498606896
 30
0.0
 11
575.989562483377199
 21
30.3716028498606896
 31
0.0
  0
LINE
  5
23CF
  8
0
 10
575.9838799029923848
 20
30.3176658420106904
 30
0.0
 11
575.9711509212921783
 21
30.3397130850437087
 31
0.0
  0
LINE
  5
23D0
  8
0
 10
575.9711509212921783
 20
30.3397130850437087
 30
0.0
 11
575.9456929578923337
 21
30.3397130850437087
 31
0.0
  0
LINE
  5
23D1
  8
0
 10
575.9456929578923337
 20
30.3397130850437087
 30
0.0
 11
575.9365452458738446
 21
30.3238687830546496
 31
0.0
  0
LINE
  5
23D2
  8
0
 10
575.9772454270231492
 20
30.3061745925504802
 30
0.0
 11
575.9838799029923848
 21
30.3176658420106904
 31
0.0
  0
LINE
  5
23D3
  8
0
 10
575.9739922126075271
 20
30.3446343459606886
 30
0.0
 11
575.9711509212921783
 21
30.3397130850437087
 31
0.0
  0
LINE
  5
23D4
  8
0
 10
575.9428516665772122
 20
30.3446343459606886
 30
0.0
 11
575.9456929578923337
 21
30.3397130850437087
 31
0.0
  0
LINE
  5
23D5
  8
0
 10
575.9838799029923848
 20
30.3176658420106904
 30
0.0
 11
575.9895624833482088
 21
30.3176658420106904
 31
0.0
  0
LINE
  5
23D6
  8
0
 10
575.9371690863655431
 20
30.6143193852106883
 30
0.0
 11
575.9244401046655639
 21
30.6363666282437102
 31
0.0
  0
LINE
  5
23D7
  8
0
 10
575.9244401046655639
 20
30.6363666282437102
 30
0.0
 11
575.8989821412653782
 21
30.6363666282437102
 31
0.0
  0
LINE
  5
23D8
  8
0
 10
575.8989821412653782
 20
30.6363666282437102
 30
0.0
 11
575.8862531595655128
 21
30.6143193852106883
 31
0.0
  0
LINE
  5
23D9
  8
0
 10
575.8862531595655128
 20
30.6143193852106883
 30
0.0
 11
575.8989821412653782
 21
30.5922721421776806
 31
0.0
  0
LINE
  5
23DA
  8
0
 10
575.8989821412653782
 20
30.5922721421776806
 30
0.0
 11
575.9244401046655639
 21
30.5922721421776806
 31
0.0
  0
LINE
  5
23DB
  8
0
 10
575.9244401046655639
 20
30.5922721421776806
 30
0.0
 11
575.9371690863655431
 21
30.6143193852106883
 31
0.0
  0
LINE
  5
23DC
  8
0
 10
575.9272813959806854
 20
30.6412878891606901
 30
0.0
 11
575.9244401046655639
 21
30.6363666282437102
 31
0.0
  0
LINE
  5
23DD
  8
0
 10
575.8989821412653782
 20
30.5922721421776806
 30
0.0
 11
575.8961408499502568
 21
30.58735088126069
 31
0.0
  0
LINE
  5
23DE
  8
0
 10
575.8961408499502568
 20
30.6412878891606901
 30
0.0
 11
575.8989821412653782
 21
30.6363666282437102
 31
0.0
  0
LINE
  5
23DF
  8
0
 10
575.9244401046655639
 20
30.5922721421776806
 30
0.0
 11
575.9272813959518089
 21
30.5873508813106909
 31
0.0
  0
LINE
  5
23E0
  8
0
 10
575.8805705793096195
 20
30.6143193852106883
 30
0.0
 11
575.8862531595655128
 21
30.6143193852106883
 31
0.0
  0
LINE
  5
23E1
  8
0
 10
575.9371690863655431
 20
30.6143193852106883
 30
0.0
 11
575.9428516667213671
 21
30.6143193852106883
 31
0.0
  0
LINE
  5
23E2
  8
0
 10
575.9371690863944195
 20
30.6682563930606911
 30
0.0
 11
575.9244401046944404
 21
30.6903036360937094
 31
0.0
  0
LINE
  5
23E3
  8
0
 10
575.9244401046944404
 20
30.6903036360937094
 30
0.0
 11
575.8989821412942547
 21
30.6903036360937094
 31
0.0
  0
LINE
  5
23E4
  8
0
 10
575.8989821412942547
 20
30.6903036360937094
 30
0.0
 11
575.8862531595942755
 21
30.6682563930606911
 31
0.0
  0
LINE
  5
23E5
  8
0
 10
575.8862531595942755
 20
30.6682563930606911
 30
0.0
 11
575.8989821412942547
 21
30.6462091500276799
 31
0.0
  0
LINE
  5
23E6
  8
0
 10
575.8989821412942547
 20
30.6462091500276799
 30
0.0
 11
575.9244401046944404
 21
30.6462091500276799
 31
0.0
  0
LINE
  5
23E7
  8
0
 10
575.9244401046944404
 20
30.6462091500276799
 30
0.0
 11
575.9371690863944195
 21
30.6682563930606911
 31
0.0
  0
LINE
  5
23E8
  8
0
 10
575.9272813960094481
 20
30.6952248970107
 30
0.0
 11
575.9244401046944404
 21
30.6903036360937094
 31
0.0
  0
LINE
  5
23E9
  8
0
 10
575.8989821412942547
 20
30.6462091500276799
 30
0.0
 11
575.8961408499792469
 21
30.6412878891106892
 31
0.0
  0
LINE
  5
23EA
  8
0
 10
575.8961408499792469
 20
30.6952248970107
 30
0.0
 11
575.8989821412942547
 21
30.6903036360937094
 31
0.0
  0
LINE
  5
23EB
  8
0
 10
575.9244401046944404
 20
30.6462091500276799
 30
0.0
 11
575.9272813959806854
 21
30.6412878891606901
 31
0.0
  0
LINE
  5
23EC
  8
0
 10
575.8805705793384959
 20
30.6682563930606911
 30
0.0
 11
575.8862531595942755
 21
30.6682563930606911
 31
0.0
  0
LINE
  5
23ED
  8
0
 10
575.9371690863944195
 20
30.6682563930606911
 30
0.0
 11
575.9428516667503573
 21
30.6682563930606911
 31
0.0
  0
LINE
  5
23EE
  8
0
 10
575.937169086423296
 20
30.7221934009107009
 30
0.0
 11
575.9280213134933319
 21
30.7380378084013799
 31
0.0
  0
LINE
  5
23EF
  8
0
 10
575.8923470511325604
 20
30.7116384712008994
 30
0.0
 11
575.8989821413232448
 21
30.7001461578776791
 31
0.0
  0
LINE
  5
23F0
  8
0
 10
575.8989821413232448
 20
30.7001461578776791
 30
0.0
 11
575.9244401047233168
 21
30.7001461578776791
 31
0.0
  0
LINE
  5
23F1
  8
0
 10
575.9244401047233168
 20
30.7001461578776791
 30
0.0
 11
575.937169086423296
 21
30.7221934009107009
 31
0.0
  0
LINE
  5
23F2
  8
0
 10
575.8989821413232448
 20
30.7001461578776791
 30
0.0
 11
575.8961408500081234
 21
30.6952248969606991
 31
0.0
  0
LINE
  5
23F3
  8
0
 10
575.9244401047233168
 20
30.7001461578776791
 30
0.0
 11
575.9272813960094481
 21
30.6952248970107
 31
0.0
  0
LINE
  5
23F4
  8
0
 10
575.937169086423296
 20
30.7221934009107009
 30
0.0
 11
575.9428516667792337
 21
30.7221934009107009
 31
0.0
  0
LINE
  5
23F5
  8
0
 10
575.9371690863366666
 20
30.5603823773606997
 30
0.0
 11
575.9244401046365738
 21
30.5824296203937109
 31
0.0
  0
LINE
  5
23F6
  8
0
 10
575.9244401046365738
 20
30.5824296203937109
 30
0.0
 11
575.8989821412367291
 21
30.5824296203937109
 31
0.0
  0
LINE
  5
23F7
  8
0
 10
575.8989821412367291
 20
30.5824296203937109
 30
0.0
 11
575.8862531595366363
 21
30.5603823773606997
 31
0.0
  0
LINE
  5
23F8
  8
0
 10
575.8862531595366363
 20
30.5603823773606997
 30
0.0
 11
575.8989821412367291
 21
30.5383351343276814
 31
0.0
  0
LINE
  5
23F9
  8
0
 10
575.8989821412367291
 20
30.5383351343276814
 30
0.0
 11
575.9244401046365738
 21
30.5383351343276814
 31
0.0
  0
LINE
  5
23FA
  8
0
 10
575.9244401046365738
 20
30.5383351343276814
 30
0.0
 11
575.9371690863366666
 21
30.5603823773606997
 31
0.0
  0
LINE
  5
23FB
  8
0
 10
575.9272813959518089
 20
30.5873508813106909
 30
0.0
 11
575.9244401046365738
 21
30.5824296203937109
 31
0.0
  0
LINE
  5
23FC
  8
0
 10
575.8989821412367291
 20
30.5383351343276814
 30
0.0
 11
575.896140849921494
 21
30.5334138734106908
 31
0.0
  0
LINE
  5
23FD
  8
0
 10
575.896140849921494
 20
30.5873508813106909
 30
0.0
 11
575.8989821412367291
 21
30.5824296203937109
 31
0.0
  0
LINE
  5
23FE
  8
0
 10
575.9244401046365738
 20
30.5383351343276814
 30
0.0
 11
575.9272813959229325
 21
30.5334138734606917
 31
0.0
  0
LINE
  5
23FF
  8
0
 10
575.880570579280743
 20
30.5603823773606997
 30
0.0
 11
575.8862531595366363
 21
30.5603823773606997
 31
0.0
  0
LINE
  5
2400
  8
0
 10
575.9371690863366666
 20
30.5603823773606997
 30
0.0
 11
575.9428516666924907
 21
30.5603823773606997
 31
0.0
  0
LINE
  5
2401
  8
0
 10
575.9371690862788
 20
30.4525083616606906
 30
0.0
 11
575.9244401045789346
 21
30.4745556046937089
 31
0.0
  0
LINE
  5
2402
  8
0
 10
575.9244401045789346
 20
30.4745556046937089
 30
0.0
 11
575.8989821411788625
 21
30.4745556046937089
 31
0.0
  0
LINE
  5
2403
  8
0
 10
575.8989821411788625
 20
30.4745556046937089
 30
0.0
 11
575.8862531594789971
 21
30.4525083616606906
 31
0.0
  0
LINE
  5
2404
  8
0
 10
575.8862531594789971
 20
30.4525083616606906
 30
0.0
 11
575.8989821411788625
 21
30.4304611186276794
 31
0.0
  0
LINE
  5
2405
  8
0
 10
575.8989821411788625
 20
30.4304611186276794
 30
0.0
 11
575.9244401045789346
 21
30.4304611186276794
 31
0.0
  0
LINE
  5
2406
  8
0
 10
575.9244401045789346
 20
30.4304611186276794
 30
0.0
 11
575.9371690862788
 21
30.4525083616606906
 31
0.0
  0
LINE
  5
2407
  8
0
 10
575.9272813958941697
 20
30.4794768656106889
 30
0.0
 11
575.9244401045789346
 21
30.4745556046937089
 31
0.0
  0
LINE
  5
2408
  8
0
 10
575.8989821411788625
 20
30.4304611186276794
 30
0.0
 11
575.8961408498637411
 21
30.4255398577106995
 31
0.0
  0
LINE
  5
2409
  8
0
 10
575.8961408498637411
 20
30.4794768656106889
 30
0.0
 11
575.8989821411788625
 21
30.4745556046937089
 31
0.0
  0
LINE
  5
240A
  8
0
 10
575.9244401045789346
 20
30.4304611186276794
 30
0.0
 11
575.9272813958651795
 21
30.4255398577606897
 31
0.0
  0
LINE
  5
240B
  8
0
 10
575.8805705792228764
 20
30.4525083616606906
 30
0.0
 11
575.8862531594789971
 21
30.4525083616606906
 31
0.0
  0
LINE
  5
240C
  8
0
 10
575.9371690862788
 20
30.4525083616606906
 30
0.0
 11
575.9428516666348514
 21
30.4525083616606906
 31
0.0
  0
LINE
  5
240D
  8
0
 10
575.9371690862500373
 20
30.3985713538106914
 30
0.0
 11
575.9244401045499444
 21
30.4206185968437097
 31
0.0
  0
LINE
  5
240E
  8
0
 10
575.9244401045499444
 20
30.4206185968437097
 30
0.0
 11
575.8989821411500998
 21
30.4206185968437097
 31
0.0
  0
LINE
  5
240F
  8
0
 10
575.8989821411500998
 20
30.4206185968437097
 30
0.0
 11
575.8862531594501206
 21
30.3985713538106914
 31
0.0
  0
LINE
  5
2410
  8
0
 10
575.8862531594501206
 20
30.3985713538106914
 30
0.0
 11
575.8989821411500998
 21
30.3765241107776802
 31
0.0
  0
LINE
  5
2411
  8
0
 10
575.8989821411500998
 20
30.3765241107776802
 30
0.0
 11
575.9244401045499444
 21
30.3765241107776802
 31
0.0
  0
LINE
  5
2412
  8
0
 10
575.9244401045499444
 20
30.3765241107776802
 30
0.0
 11
575.9371690862500373
 21
30.3985713538106914
 31
0.0
  0
LINE
  5
2413
  8
0
 10
575.9272813958651795
 20
30.4255398577606897
 30
0.0
 11
575.9244401045499444
 21
30.4206185968437097
 31
0.0
  0
LINE
  5
2414
  8
0
 10
575.8989821411500998
 20
30.3765241107776802
 30
0.0
 11
575.8961408498348646
 21
30.3716028498606896
 31
0.0
  0
LINE
  5
2415
  8
0
 10
575.8961408498348646
 20
30.4255398577606897
 30
0.0
 11
575.8989821411500998
 21
30.4206185968437097
 31
0.0
  0
LINE
  5
2416
  8
0
 10
575.9244401045499444
 20
30.3765241107776802
 30
0.0
 11
575.9272813958363031
 21
30.3716028499106905
 31
0.0
  0
LINE
  5
2417
  8
0
 10
575.8805705791941136
 20
30.3985713538106914
 30
0.0
 11
575.8862531594501206
 21
30.3985713538106914
 31
0.0
  0
LINE
  5
2418
  8
0
 10
575.9371690862500373
 20
30.3985713538106914
 30
0.0
 11
575.942851666605975
 21
30.3985713538106914
 31
0.0
  0
LINE
  5
2419
  8
0
 10
575.9371690862210471
 20
30.3446343459606886
 30
0.0
 11
575.924440104521068
 21
30.3666815889937105
 31
0.0
  0
LINE
  5
241A
  8
0
 10
575.924440104521068
 20
30.3666815889937105
 30
0.0
 11
575.8989821411212233
 21
30.3666815889937105
 31
0.0
  0
LINE
  5
241B
  8
0
 10
575.8989821411212233
 20
30.3666815889937105
 30
0.0
 11
575.89234705098022
 21
30.3551892757567501
 31
0.0
  0
LINE
  5
241C
  8
0
 10
575.9280213133222333
 20
30.3287899385235704
 30
0.0
 11
575.9371690862210471
 21
30.3446343459606886
 31
0.0
  0
LINE
  5
241D
  8
0
 10
575.9272813958363031
 20
30.3716028499106905
 30
0.0
 11
575.924440104521068
 21
30.3666815889937105
 31
0.0
  0
LINE
  5
241E
  8
0
 10
575.8961408498058745
 20
30.3716028499106905
 30
0.0
 11
575.8989821411212233
 21
30.3666815889937105
 31
0.0
  0
LINE
  5
241F
  8
0
 10
575.9371690862210471
 20
30.3446343459606886
 30
0.0
 11
575.9428516665772122
 21
30.3446343459606886
 31
0.0
  0
LINE
  5
2420
  8
0
 10
575.8904582695655563
 20
30.5334138734106908
 30
0.0
 11
575.8777292878654634
 21
30.5554611164437091
 31
0.0
  0
LINE
  5
2421
  8
0
 10
575.8777292878654634
 20
30.5554611164437091
 30
0.0
 11
575.8522713244655051
 21
30.5554611164437091
 31
0.0
  0
LINE
  5
2422
  8
0
 10
575.8522713244655051
 20
30.5554611164437091
 30
0.0
 11
575.839542342765526
 21
30.5334138734106908
 31
0.0
  0
LINE
  5
2423
  8
0
 10
575.839542342765526
 20
30.5334138734106908
 30
0.0
 11
575.8522713244655051
 21
30.5113666303776796
 31
0.0
  0
LINE
  5
2424
  8
0
 10
575.8522713244655051
 20
30.5113666303776796
 30
0.0
 11
575.8777292878654634
 21
30.5113666303776796
 31
0.0
  0
LINE
  5
2425
  8
0
 10
575.8777292878654634
 20
30.5113666303776796
 30
0.0
 11
575.8904582695655563
 21
30.5334138734106908
 31
0.0
  0
LINE
  5
2426
  8
0
 10
575.8805705791805849
 20
30.5603823773606997
 30
0.0
 11
575.8777292878654634
 21
30.5554611164437091
 31
0.0
  0
LINE
  5
2427
  8
0
 10
575.8522713244655051
 20
30.5113666303776796
 30
0.0
 11
575.8494300331503837
 21
30.506445369460689
 31
0.0
  0
LINE
  5
2428
  8
0
 10
575.8494300331503837
 20
30.5603823773606997
 30
0.0
 11
575.8522713244655051
 21
30.5554611164437091
 31
0.0
  0
LINE
  5
2429
  8
0
 10
575.8777292878654634
 20
30.5113666303776796
 30
0.0
 11
575.8805705791518221
 21
30.5064453695106899
 31
0.0
  0
LINE
  5
242A
  8
0
 10
575.8338597625096327
 20
30.5334138734106908
 30
0.0
 11
575.839542342765526
 21
30.5334138734106908
 31
0.0
  0
LINE
  5
242B
  8
0
 10
575.8904582695655563
 20
30.5334138734106908
 30
0.0
 11
575.896140849921494
 21
30.5334138734106908
 31
0.0
  0
LINE
  5
242C
  8
0
 10
575.8904582695944327
 20
30.58735088126069
 30
0.0
 11
575.8777292878944536
 21
30.6093981242937083
 31
0.0
  0
LINE
  5
242D
  8
0
 10
575.8777292878944536
 20
30.6093981242937083
 30
0.0
 11
575.8522713244943816
 21
30.6093981242937083
 31
0.0
  0
LINE
  5
242E
  8
0
 10
575.8522713244943816
 20
30.6093981242937083
 30
0.0
 11
575.8395423427944024
 21
30.58735088126069
 31
0.0
  0
LINE
  5
242F
  8
0
 10
575.8395423427944024
 20
30.58735088126069
 30
0.0
 11
575.8522713244943816
 21
30.5653036382276788
 31
0.0
  0
LINE
  5
2430
  8
0
 10
575.8522713244943816
 20
30.5653036382276788
 30
0.0
 11
575.8777292878944536
 21
30.5653036382276788
 31
0.0
  0
LINE
  5
2431
  8
0
 10
575.8777292878944536
 20
30.5653036382276788
 30
0.0
 11
575.8904582695944327
 21
30.58735088126069
 31
0.0
  0
LINE
  5
2432
  8
0
 10
575.8805705792094614
 20
30.6143193852106883
 30
0.0
 11
575.8777292878944536
 21
30.6093981242937083
 31
0.0
  0
LINE
  5
2433
  8
0
 10
575.8522713244943816
 20
30.5653036382276788
 30
0.0
 11
575.8494300331791464
 21
30.5603823773106917
 31
0.0
  0
LINE
  5
2434
  8
0
 10
575.8494300331791464
 20
30.6143193852106883
 30
0.0
 11
575.8522713244943816
 21
30.6093981242937083
 31
0.0
  0
LINE
  5
2435
  8
0
 10
575.8777292878944536
 20
30.5653036382276788
 30
0.0
 11
575.8805705791805849
 21
30.5603823773606997
 31
0.0
  0
LINE
  5
2436
  8
0
 10
575.8338597625383954
 20
30.58735088126069
 30
0.0
 11
575.8395423427944024
 21
30.58735088126069
 31
0.0
  0
LINE
  5
2437
  8
0
 10
575.8904582695944327
 20
30.58735088126069
 30
0.0
 11
575.8961408499502568
 21
30.58735088126069
 31
0.0
  0
LINE
  5
2438
  8
0
 10
575.8904582696231955
 20
30.6412878891106892
 30
0.0
 11
575.87772928792333
 21
30.6633351321437111
 31
0.0
  0
LINE
  5
2439
  8
0
 10
575.87772928792333
 20
30.6633351321437111
 30
0.0
 11
575.8522713245231444
 21
30.6633351321437111
 31
0.0
  0
LINE
  5
243A
  8
0
 10
575.8522713245231444
 20
30.6633351321437111
 30
0.0
 11
575.8395423428232789
 21
30.6412878891106892
 31
0.0
  0
LINE
  5
243B
  8
0
 10
575.8395423428232789
 20
30.6412878891106892
 30
0.0
 11
575.8522713245231444
 21
30.6192406460776816
 31
0.0
  0
LINE
  5
243C
  8
0
 10
575.8522713245231444
 20
30.6192406460776816
 30
0.0
 11
575.87772928792333
 21
30.6192406460776816
 31
0.0
  0
LINE
  5
243D
  8
0
 10
575.87772928792333
 20
30.6192406460776816
 30
0.0
 11
575.8904582696231955
 21
30.6412878891106892
 31
0.0
  0
LINE
  5
243E
  8
0
 10
575.8805705792384515
 20
30.6682563930606911
 30
0.0
 11
575.87772928792333
 21
30.6633351321437111
 31
0.0
  0
LINE
  5
243F
  8
0
 10
575.8522713245231444
 20
30.6192406460776816
 30
0.0
 11
575.8494300332081366
 21
30.614319385160691
 31
0.0
  0
LINE
  5
2440
  8
0
 10
575.8516902445478536
 20
30.6643415921841402
 30
0.0
 11
575.8522713245231444
 21
30.6633351321437111
 31
0.0
  0
LINE
  5
2441
  8
0
 10
575.87772928792333
 20
30.6192406460776816
 30
0.0
 11
575.8805705792094614
 21
30.6143193852106883
 31
0.0
  0
LINE
  5
2442
  8
0
 10
575.8383799716573321
 20
30.6412878891106892
 30
0.0
 11
575.8395423428232789
 21
30.6412878891106892
 31
0.0
  0
LINE
  5
2443
  8
0
 10
575.8904582696231955
 20
30.6412878891106892
 30
0.0
 11
575.8961408499792469
 21
30.6412878891106892
 31
0.0
  0
LINE
  5
2444
  8
0
 10
575.8904582695365661
 20
30.4794768655606916
 30
0.0
 11
575.8777292878367007
 21
30.5015241085937099
 31
0.0
  0
LINE
  5
2445
  8
0
 10
575.8777292878367007
 20
30.5015241085937099
 30
0.0
 11
575.8522713244366287
 21
30.5015241085937099
 31
0.0
  0
LINE
  5
2446
  8
0
 10
575.8522713244366287
 20
30.5015241085937099
 30
0.0
 11
575.8395423427366495
 21
30.4794768655606916
 31
0.0
  0
LINE
  5
2447
  8
0
 10
575.8395423427366495
 20
30.4794768655606916
 30
0.0
 11
575.8522713244366287
 21
30.4574296225276804
 31
0.0
  0
LINE
  5
2448
  8
0
 10
575.8522713244366287
 20
30.4574296225276804
 30
0.0
 11
575.8777292878367007
 21
30.4574296225276804
 31
0.0
  0
LINE
  5
2449
  8
0
 10
575.8777292878367007
 20
30.4574296225276804
 30
0.0
 11
575.8904582695365661
 21
30.4794768655606916
 31
0.0
  0
LINE
  5
244A
  8
0
 10
575.8805705791518221
 20
30.5064453695106899
 30
0.0
 11
575.8777292878367007
 21
30.5015241085937099
 31
0.0
  0
LINE
  5
244B
  8
0
 10
575.8522713244366287
 20
30.4574296225276804
 30
0.0
 11
575.8494300331213935
 21
30.4525083616106897
 31
0.0
  0
LINE
  5
244C
  8
0
 10
575.8494300331213935
 20
30.5064453695106899
 30
0.0
 11
575.8522713244366287
 21
30.5015241085937099
 31
0.0
  0
LINE
  5
244D
  8
0
 10
575.8777292878367007
 20
30.4574296225276804
 30
0.0
 11
575.8805705791229457
 21
30.4525083616606906
 31
0.0
  0
LINE
  5
244E
  8
0
 10
575.8338597624807562
 20
30.4794768655606916
 30
0.0
 11
575.8395423427366495
 21
30.4794768655606916
 31
0.0
  0
LINE
  5
244F
  8
0
 10
575.8904582695365661
 20
30.4794768655606916
 30
0.0
 11
575.8961408498926176
 21
30.4794768655606916
 31
0.0
  0
LINE
  5
2450
  8
0
 10
575.8904582695078034
 20
30.4255398577106995
 30
0.0
 11
575.8777292878078242
 21
30.4475871007437107
 31
0.0
  0
LINE
  5
2451
  8
0
 10
575.8777292878078242
 20
30.4475871007437107
 30
0.0
 11
575.8522713244078659
 21
30.4475871007437107
 31
0.0
  0
LINE
  5
2452
  8
0
 10
575.8522713244078659
 20
30.4475871007437107
 30
0.0
 11
575.8395423427076594
 21
30.4255398577106995
 31
0.0
  0
LINE
  5
2453
  8
0
 10
575.8395423427076594
 20
30.4255398577106995
 30
0.0
 11
575.8522713244078659
 21
30.4034926146776812
 31
0.0
  0
LINE
  5
2454
  8
0
 10
575.8522713244078659
 20
30.4034926146776812
 30
0.0
 11
575.8777292878078242
 21
30.4034926146776812
 31
0.0
  0
LINE
  5
2455
  8
0
 10
575.8777292878078242
 20
30.4034926146776812
 30
0.0
 11
575.8904582695078034
 21
30.4255398577106995
 31
0.0
  0
LINE
  5
2456
  8
0
 10
575.8805705791229457
 20
30.4525083616606906
 30
0.0
 11
575.8777292878078242
 21
30.4475871007437107
 31
0.0
  0
LINE
  5
2457
  8
0
 10
575.8522713244078659
 20
30.4034926146776812
 30
0.0
 11
575.8516902444865764
 21
30.4024861547310188
 31
0.0
  0
LINE
  5
2458
  8
0
 10
575.8494300330926308
 20
30.4525083616606906
 30
0.0
 11
575.8522713244078659
 21
30.4475871007437107
 31
0.0
  0
LINE
  5
2459
  8
0
 10
575.8777292878078242
 20
30.4034926146776812
 30
0.0
 11
575.8805705790939555
 21
30.3985713538106914
 31
0.0
  0
LINE
  5
245A
  8
0
 10
575.8383799716573321
 20
30.4255398577106995
 30
0.0
 11
575.8395423427076594
 21
30.4255398577106995
 31
0.0
  0
LINE
  5
245B
  8
0
 10
575.8904582695078034
 20
30.4255398577106995
 30
0.0
 11
575.8961408498637411
 21
30.4255398577106995
 31
0.0
  0
LINE
  5
245C
  8
0
 10
575.8904582694789269
 20
30.3716028498606896
 30
0.0
 11
575.8777292877789478
 21
30.3936500928937114
 31
0.0
  0
LINE
  5
245D
  8
0
 10
575.8777292877789478
 20
30.3936500928937114
 30
0.0
 11
575.8577573367587092
 21
30.3936500928937114
 31
0.0
  0
LINE
  5
245E
  8
0
 10
575.8849625597438262
 20
30.3620840013757807
 30
0.0
 11
575.8904582694789269
 21
30.3716028498606896
 31
0.0
  0
LINE
  5
245F
  8
0
 10
575.8805705790939555
 20
30.3985713538106914
 30
0.0
 11
575.8777292877789478
 21
30.3936500928937114
 31
0.0
  0
LINE
  5
2460
  8
0
 10
575.8904582694789269
 20
30.3716028498606896
 30
0.0
 11
575.8961408498348646
 21
30.3716028498606896
 31
0.0
  0
LINE
  5
2461
  8
0
 10
575.8437474527655695
 20
30.5064453695106899
 30
0.0
 11
575.8310184710655903
 21
30.5284926125437117
 31
0.0
  0
LINE
  5
2462
  8
0
 10
575.8310184710655903
 20
30.5284926125437117
 30
0.0
 11
575.8127212885724475
 21
30.5284926125437117
 31
0.0
  0
LINE
  5
2463
  8
0
 10
575.817747207555044
 20
30.4843981264776787
 30
0.0
 11
575.8310184710655903
 21
30.4843981264776787
 31
0.0
  0
LINE
  5
2464
  8
0
 10
575.8310184710655903
 20
30.4843981264776787
 30
0.0
 11
575.8437474527655695
 21
30.5064453695106899
 31
0.0
  0
LINE
  5
2465
  8
0
 10
575.8338597623807118
 20
30.5334138734606917
 30
0.0
 11
575.8310184710655903
 21
30.5284926125437117
 31
0.0
  0
LINE
  5
2466
  8
0
 10
575.8310184710655903
 20
30.4843981264776787
 30
0.0
 11
575.8338597623518353
 21
30.4794768656106889
 31
0.0
  0
LINE
  5
2467
  8
0
 10
575.8437474527655695
 20
30.5064453695106899
 30
0.0
 11
575.8494300331213935
 21
30.5064453695106899
 31
0.0
  0
LINE
  5
2468
  8
0
 10
575.843747452794446
 20
30.5603823773606997
 30
0.0
 11
575.8310184710944668
 21
30.5824296203937109
 31
0.0
  0
LINE
  5
2469
  8
0
 10
575.8310184710944668
 20
30.5824296203937109
 30
0.0
 11
575.8177472075656169
 21
30.5824296203937109
 31
0.0
  0
LINE
  5
246A
  8
0
 10
575.812721288573357
 20
30.5383351343276814
 30
0.0
 11
575.8310184710944668
 21
30.5383351343276814
 31
0.0
  0
LINE
  5
246B
  8
0
 10
575.8310184710944668
 20
30.5383351343276814
 30
0.0
 11
575.843747452794446
 21
30.5603823773606997
 31
0.0
  0
LINE
  5
246C
  8
0
 10
575.8338597624095883
 20
30.5873508813106909
 30
0.0
 11
575.8310184710944668
 21
30.5824296203937109
 31
0.0
  0
LINE
  5
246D
  8
0
 10
575.8310184710944668
 20
30.5383351343276814
 30
0.0
 11
575.8338597623807118
 21
30.5334138734606917
 31
0.0
  0
LINE
  5
246E
  8
0
 10
575.843747452794446
 20
30.5603823773606997
 30
0.0
 11
575.8494300331503837
 21
30.5603823773606997
 31
0.0
  0
LINE
  5
246F
  8
0
 10
575.8437474528233224
 20
30.6143193852106883
 30
0.0
 11
575.8337612666098266
 21
30.6316159671061889
 31
0.0
  0
LINE
  5
2470
  8
0
 10
575.8200261004858476
 20
30.5922721421776806
 30
0.0
 11
575.8310184711232296
 21
30.5922721421776806
 31
0.0
  0
LINE
  5
2471
  8
0
 10
575.8310184711232296
 20
30.5922721421776806
 30
0.0
 11
575.8437474528233224
 21
30.6143193852106883
 31
0.0
  0
LINE
  5
2472
  8
0
 10
575.8310184711232296
 20
30.5922721421776806
 30
0.0
 11
575.8338597624095883
 21
30.5873508813106909
 31
0.0
  0
LINE
  5
2473
  8
0
 10
575.8437474528233224
 20
30.6143193852106883
 30
0.0
 11
575.8494300331791464
 21
30.6143193852106883
 31
0.0
  0
LINE
  5
2474
  8
0
 10
575.843747452736693
 20
30.4525083616606906
 30
0.0
 11
575.8310184710366002
 21
30.4745556046937089
 31
0.0
  0
LINE
  5
2475
  8
0
 10
575.8310184710366002
 20
30.4745556046937089
 30
0.0
 11
575.8200261004731146
 21
30.4745556046937089
 31
0.0
  0
LINE
  5
2476
  8
0
 10
575.833761266559236
 20
30.4352117798275614
 30
0.0
 11
575.843747452736693
 21
30.4525083616606906
 31
0.0
  0
LINE
  5
2477
  8
0
 10
575.8338597623518353
 20
30.4794768656106889
 30
0.0
 11
575.8310184710366002
 21
30.4745556046937089
 31
0.0
  0
LINE
  5
2478
  8
0
 10
575.843747452736693
 20
30.4525083616606906
 30
0.0
 11
575.8494300330926308
 21
30.4525083616606906
 31
0.0
  0
LINE
  5
2479
  8
0
 10
576.0305907198365958
 20
30.6682563930606911
 30
0.0
 11
576.0178617381367303
 21
30.6903036360937094
 31
0.0
  0
LINE
  5
247A
  8
0
 10
576.0178617381367303
 20
30.6903036360937094
 30
0.0
 11
575.9924037747365446
 21
30.6903036360937094
 31
0.0
  0
LINE
  5
247B
  8
0
 10
575.9924037747365446
 20
30.6903036360937094
 30
0.0
 11
575.9796747930366791
 21
30.6682563930606911
 31
0.0
  0
LINE
  5
247C
  8
0
 10
575.9796747930366791
 20
30.6682563930606911
 30
0.0
 11
575.9924037747365446
 21
30.6462091500276799
 31
0.0
  0
LINE
  5
247D
  8
0
 10
575.9924037747365446
 20
30.6462091500276799
 30
0.0
 11
576.0178617381367303
 21
30.6462091500276799
 31
0.0
  0
LINE
  5
247E
  8
0
 10
576.0178617381367303
 20
30.6462091500276799
 30
0.0
 11
576.0305907198365958
 21
30.6682563930606911
 31
0.0
  0
LINE
  5
247F
  8
0
 10
576.0207030294518518
 20
30.6952248970107
 30
0.0
 11
576.0178617381367303
 21
30.6903036360937094
 31
0.0
  0
LINE
  5
2480
  8
0
 10
575.9924037747365446
 20
30.6462091500276799
 30
0.0
 11
575.9895624834215369
 21
30.6412878891106892
 31
0.0
  0
LINE
  5
2481
  8
0
 10
575.9895624834215369
 20
30.6952248970107
 30
0.0
 11
575.9924037747365446
 21
30.6903036360937094
 31
0.0
  0
LINE
  5
2482
  8
0
 10
576.0178617381367303
 20
30.6462091500276799
 30
0.0
 11
576.0207030294228616
 21
30.6412878891606901
 31
0.0
  0
LINE
  5
2483
  8
0
 10
575.9739922127805585
 20
30.6682563930606911
 30
0.0
 11
575.9796747930366791
 21
30.6682563930606911
 31
0.0
  0
LINE
  5
2484
  8
0
 10
576.0305907198365958
 20
30.6682563930606911
 30
0.0
 11
576.0362733001926472
 21
30.6682563930606911
 31
0.0
  0
LINE
  5
2485
  8
0
 10
576.0305907198654722
 20
30.7221934009107009
 30
0.0
 11
576.0178617381653794
 21
30.7442406439437086
 31
0.0
  0
LINE
  5
2486
  8
0
 10
576.0178617381653794
 20
30.7442406439437086
 30
0.0
 11
575.9924037747655348
 21
30.7442406439437086
 31
0.0
  0
LINE
  5
2487
  8
0
 10
575.9924037747655348
 20
30.7442406439437086
 30
0.0
 11
575.9796747930655556
 21
30.7221934009107009
 31
0.0
  0
LINE
  5
2488
  8
0
 10
575.9796747930655556
 20
30.7221934009107009
 30
0.0
 11
575.9924037747655348
 21
30.7001461578776791
 31
0.0
  0
LINE
  5
2489
  8
0
 10
575.9924037747655348
 20
30.7001461578776791
 30
0.0
 11
576.0178617381653794
 21
30.7001461578776791
 31
0.0
  0
LINE
  5
248A
  8
0
 10
576.0178617381653794
 20
30.7001461578776791
 30
0.0
 11
576.0305907198654722
 21
30.7221934009107009
 31
0.0
  0
LINE
  5
248B
  8
0
 10
576.0207030294806145
 20
30.7491619048606992
 30
0.0
 11
576.0178617381653794
 21
30.7442406439437086
 31
0.0
  0
LINE
  5
248C
  8
0
 10
575.9924037747655348
 20
30.7001461578776791
 30
0.0
 11
575.9895624834504133
 21
30.6952248969606991
 31
0.0
  0
LINE
  5
248D
  8
0
 10
575.9895624834504133
 20
30.7491619048606992
 30
0.0
 11
575.9924037747655348
 21
30.7442406439437086
 31
0.0
  0
LINE
  5
248E
  8
0
 10
576.0178617381653794
 20
30.7001461578776791
 30
0.0
 11
576.0207030294518518
 21
30.6952248970107
 31
0.0
  0
LINE
  5
248F
  8
0
 10
575.9739922128095486
 20
30.7221934009107009
 30
0.0
 11
575.9796747930655556
 21
30.7221934009107009
 31
0.0
  0
LINE
  5
2490
  8
0
 10
576.0305907198654722
 20
30.7221934009107009
 30
0.0
 11
576.0362733002215236
 21
30.7221934009107009
 31
0.0
  0
LINE
  5
2491
  8
0
 10
575.9869088107985817
 20
30.7636007225539387
 30
0.0
 11
575.9924037747944112
 21
30.7540831657276783
 31
0.0
  0
LINE
  5
2492
  8
0
 10
575.9924037747944112
 20
30.7540831657276783
 30
0.0
 11
576.0178617381942558
 21
30.7540831657276783
 31
0.0
  0
LINE
  5
2493
  8
0
 10
576.0178617381942558
 20
30.7540831657276783
 30
0.0
 11
576.0278462290619927
 21
30.7713768111979604
 31
0.0
  0
LINE
  5
2494
  8
0
 10
575.9924037747944112
 20
30.7540831657276783
 30
0.0
 11
575.9895624834792898
 21
30.7491619048106983
 31
0.0
  0
LINE
  5
2495
  8
0
 10
576.0178617381942558
 20
30.7540831657276783
 30
0.0
 11
576.0207030294806145
 21
30.7491619048606992
 31
0.0
  0
LINE
  5
2496
  8
0
 10
576.030590719807833
 20
30.6143193852106883
 30
0.0
 11
576.0178617381078539
 21
30.6363666282437102
 31
0.0
  0
LINE
  5
2497
  8
0
 10
576.0178617381078539
 20
30.6363666282437102
 30
0.0
 11
575.9924037747077818
 21
30.6363666282437102
 31
0.0
  0
LINE
  5
2498
  8
0
 10
575.9924037747077818
 20
30.6363666282437102
 30
0.0
 11
575.9796747930078027
 21
30.6143193852106883
 31
0.0
  0
LINE
  5
2499
  8
0
 10
575.9796747930078027
 20
30.6143193852106883
 30
0.0
 11
575.9924037747077818
 21
30.5922721421776806
 31
0.0
  0
LINE
  5
249A
  8
0
 10
575.9924037747077818
 20
30.5922721421776806
 30
0.0
 11
576.0178617381078539
 21
30.5922721421776806
 31
0.0
  0
LINE
  5
249B
  8
0
 10
576.0178617381078539
 20
30.5922721421776806
 30
0.0
 11
576.030590719807833
 21
30.6143193852106883
 31
0.0
  0
LINE
  5
249C
  8
0
 10
576.0207030294228616
 20
30.6412878891606901
 30
0.0
 11
576.0178617381078539
 21
30.6363666282437102
 31
0.0
  0
LINE
  5
249D
  8
0
 10
575.9924037747077818
 20
30.5922721421776806
 30
0.0
 11
575.9895624833926604
 21
30.58735088126069
 31
0.0
  0
LINE
  5
249E
  8
0
 10
575.9895624833926604
 20
30.6412878891606901
 30
0.0
 11
575.9924037747077818
 21
30.6363666282437102
 31
0.0
  0
LINE
  5
249F
  8
0
 10
576.0178617381078539
 20
30.5922721421776806
 30
0.0
 11
576.0207030293939852
 21
30.5873508813106909
 31
0.0
  0
LINE
  5
24A0
  8
0
 10
575.9739922127517957
 20
30.6143193852106883
 30
0.0
 11
575.9796747930078027
 21
30.6143193852106883
 31
0.0
  0
LINE
  5
24A1
  8
0
 10
576.030590719807833
 20
30.6143193852106883
 30
0.0
 11
576.036273300163657
 21
30.6143193852106883
 31
0.0
  0
LINE
  5
24A2
  8
0
 10
576.0305907197789566
 20
30.5603823773606997
 30
0.0
 11
576.0178617380788637
 21
30.5824296203937109
 31
0.0
  0
LINE
  5
24A3
  8
0
 10
576.0178617380788637
 20
30.5824296203937109
 30
0.0
 11
575.9924037746789054
 21
30.5824296203937109
 31
0.0
  0
LINE
  5
24A4
  8
0
 10
575.9924037746789054
 20
30.5824296203937109
 30
0.0
 11
575.9796747929789262
 21
30.5603823773606997
 31
0.0
  0
LINE
  5
24A5
  8
0
 10
575.9796747929789262
 20
30.5603823773606997
 30
0.0
 11
575.9924037746789054
 21
30.5383351343276814
 31
0.0
  0
LINE
  5
24A6
  8
0
 10
575.9924037746789054
 20
30.5383351343276814
 30
0.0
 11
576.0178617380788637
 21
30.5383351343276814
 31
0.0
  0
LINE
  5
24A7
  8
0
 10
576.0178617380788637
 20
30.5383351343276814
 30
0.0
 11
576.0305907197789566
 21
30.5603823773606997
 31
0.0
  0
LINE
  5
24A8
  8
0
 10
576.0207030293939852
 20
30.5873508813106909
 30
0.0
 11
576.0178617380788637
 21
30.5824296203937109
 31
0.0
  0
LINE
  5
24A9
  8
0
 10
575.9924037746789054
 20
30.5383351343276814
 30
0.0
 11
575.9895624833637839
 21
30.5334138734106908
 31
0.0
  0
LINE
  5
24AA
  8
0
 10
575.9895624833637839
 20
30.5873508813106909
 30
0.0
 11
575.9924037746789054
 21
30.5824296203937109
 31
0.0
  0
LINE
  5
24AB
  8
0
 10
576.0178617380788637
 20
30.5383351343276814
 30
0.0
 11
576.0207030293652224
 21
30.5334138734606917
 31
0.0
  0
LINE
  5
24AC
  8
0
 10
575.9739922127230329
 20
30.5603823773606997
 30
0.0
 11
575.9796747929789262
 21
30.5603823773606997
 31
0.0
  0
LINE
  5
24AD
  8
0
 10
576.0305907197789566
 20
30.5603823773606997
 30
0.0
 11
576.0362733001348943
 21
30.5603823773606997
 31
0.0
  0
LINE
  5
24AE
  8
0
 10
576.0305907197499664
 20
30.5064453695106899
 30
0.0
 11
576.0178617380501009
 21
30.5284926125437117
 31
0.0
  0
LINE
  5
24AF
  8
0
 10
576.0178617380501009
 20
30.5284926125437117
 30
0.0
 11
575.9924037746499152
 21
30.5284926125437117
 31
0.0
  0
LINE
  5
24B0
  8
0
 10
575.9924037746499152
 20
30.5284926125437117
 30
0.0
 11
575.9796747929500498
 21
30.5064453695106899
 31
0.0
  0
LINE
  5
24B1
  8
0
 10
575.9796747929500498
 20
30.5064453695106899
 30
0.0
 11
575.9924037746499152
 21
30.4843981264776787
 31
0.0
  0
LINE
  5
24B2
  8
0
 10
575.9924037746499152
 20
30.4843981264776787
 30
0.0
 11
576.0178617380501009
 21
30.4843981264776787
 31
0.0
  0
LINE
  5
24B3
  8
0
 10
576.0178617380501009
 20
30.4843981264776787
 30
0.0
 11
576.0305907197499664
 21
30.5064453695106899
 31
0.0
  0
LINE
  5
24B4
  8
0
 10
576.0207030293652224
 20
30.5334138734606917
 30
0.0
 11
576.0178617380501009
 21
30.5284926125437117
 31
0.0
  0
LINE
  5
24B5
  8
0
 10
575.9924037746499152
 20
30.4843981264776787
 30
0.0
 11
575.9895624833347938
 21
30.4794768655606916
 31
0.0
  0
LINE
  5
24B6
  8
0
 10
575.9895624833347938
 20
30.5334138734606917
 30
0.0
 11
575.9924037746499152
 21
30.5284926125437117
 31
0.0
  0
LINE
  5
24B7
  8
0
 10
576.0178617380501009
 20
30.4843981264776787
 30
0.0
 11
576.0207030293363459
 21
30.4794768656106889
 31
0.0
  0
LINE
  5
24B8
  8
0
 10
575.9739922126941565
 20
30.5064453695106899
 30
0.0
 11
575.9796747929500498
 21
30.5064453695106899
 31
0.0
  0
LINE
  5
24B9
  8
0
 10
576.0305907197499664
 20
30.5064453695106899
 30
0.0
 11
576.0362733001060178
 21
30.5064453695106899
 31
0.0
  0
LINE
  5
24BA
  8
0
 10
576.0305907197212036
 20
30.4525083616606906
 30
0.0
 11
576.0178617380212245
 21
30.4745556046937089
 31
0.0
  0
LINE
  5
24BB
  8
0
 10
576.0178617380212245
 20
30.4745556046937089
 30
0.0
 11
575.9924037746212662
 21
30.4745556046937089
 31
0.0
  0
LINE
  5
24BC
  8
0
 10
575.9924037746212662
 20
30.4745556046937089
 30
0.0
 11
575.9796747929210596
 21
30.4525083616606906
 31
0.0
  0
LINE
  5
24BD
  8
0
 10
575.9796747929210596
 20
30.4525083616606906
 30
0.0
 11
575.9924037746212662
 21
30.4304611186276794
 31
0.0
  0
LINE
  5
24BE
  8
0
 10
575.9924037746212662
 20
30.4304611186276794
 30
0.0
 11
576.0178617380212245
 21
30.4304611186276794
 31
0.0
  0
LINE
  5
24BF
  8
0
 10
576.0178617380212245
 20
30.4304611186276794
 30
0.0
 11
576.0305907197212036
 21
30.4525083616606906
 31
0.0
  0
LINE
  5
24C0
  8
0
 10
576.0207030293363459
 20
30.4794768656106889
 30
0.0
 11
576.0178617380212245
 21
30.4745556046937089
 31
0.0
  0
LINE
  5
24C1
  8
0
 10
575.9924037746212662
 20
30.4304611186276794
 30
0.0
 11
575.989562483306031
 21
30.4255398577106995
 31
0.0
  0
LINE
  5
24C2
  8
0
 10
575.989562483306031
 20
30.4794768656106889
 30
0.0
 11
575.9924037746212662
 21
30.4745556046937089
 31
0.0
  0
LINE
  5
24C3
  8
0
 10
576.0178617380212245
 20
30.4304611186276794
 30
0.0
 11
576.0207030293074695
 21
30.4255398577606897
 31
0.0
  0
LINE
  5
24C4
  8
0
 10
575.9739922126651663
 20
30.4525083616606906
 30
0.0
 11
575.9796747929210596
 21
30.4525083616606906
 31
0.0
  0
LINE
  5
24C5
  8
0
 10
576.0305907197212036
 20
30.4525083616606906
 30
0.0
 11
576.0362733000771414
 21
30.4525083616606906
 31
0.0
  0
LINE
  5
24C6
  8
0
 10
576.0305907196923272
 20
30.3985713538106914
 30
0.0
 11
576.017861737992348
 21
30.4206185968437097
 31
0.0
  0
LINE
  5
24C7
  8
0
 10
576.017861737992348
 20
30.4206185968437097
 30
0.0
 11
575.9924037745923897
 21
30.4206185968437097
 31
0.0
  0
LINE
  5
24C8
  8
0
 10
575.9924037745923897
 20
30.4206185968437097
 30
0.0
 11
575.9796747928921832
 21
30.3985713538106914
 31
0.0
  0
LINE
  5
24C9
  8
0
 10
575.9796747928921832
 20
30.3985713538106914
 30
0.0
 11
575.9924037745923897
 21
30.3765241107776802
 31
0.0
  0
LINE
  5
24CA
  8
0
 10
575.9924037745923897
 20
30.3765241107776802
 30
0.0
 11
576.017861737992348
 21
30.3765241107776802
 31
0.0
  0
LINE
  5
24CB
  8
0
 10
576.017861737992348
 20
30.3765241107776802
 30
0.0
 11
576.0305907196923272
 21
30.3985713538106914
 31
0.0
  0
LINE
  5
24CC
  8
0
 10
576.0207030293074695
 20
30.4255398577606897
 30
0.0
 11
576.017861737992348
 21
30.4206185968437097
 31
0.0
  0
LINE
  5
24CD
  8
0
 10
575.9924037745923897
 20
30.3765241107776802
 30
0.0
 11
575.9895624832771546
 21
30.3716028498606896
 31
0.0
  0
LINE
  5
24CE
  8
0
 10
575.9895624832771546
 20
30.4255398577606897
 30
0.0
 11
575.9924037745923897
 21
30.4206185968437097
 31
0.0
  0
LINE
  5
24CF
  8
0
 10
576.017861737992348
 20
30.3765241107776802
 30
0.0
 11
576.020703029278593
 21
30.3716028499106905
 31
0.0
  0
LINE
  5
24D0
  8
0
 10
575.9739922126364036
 20
30.3985713538106914
 30
0.0
 11
575.9796747928921832
 21
30.3985713538106914
 31
0.0
  0
LINE
  5
24D1
  8
0
 10
576.0305907196923272
 20
30.3985713538106914
 30
0.0
 11
576.0362733000482649
 21
30.3985713538106914
 31
0.0
  0
LINE
  5
24D2
  8
0
 10
576.0305907196634507
 20
30.3446343459606886
 30
0.0
 11
576.0178617379634716
 21
30.3666815889937105
 31
0.0
  0
LINE
  5
24D3
  8
0
 10
576.0178617379634716
 20
30.3666815889937105
 30
0.0
 11
575.9924037745633996
 21
30.3666815889937105
 31
0.0
  0
LINE
  5
24D4
  8
0
 10
575.9924037745633996
 20
30.3666815889937105
 30
0.0
 11
575.9796747928634204
 21
30.3446343459606886
 31
0.0
  0
LINE
  5
24D5
  8
0
 10
575.9796747928634204
 20
30.3446343459606886
 30
0.0
 11
575.9924037745633996
 21
30.322587102927681
 31
0.0
  0
LINE
  5
24D6
  8
0
 10
575.9924037745633996
 20
30.322587102927681
 30
0.0
 11
576.0178617379634716
 21
30.322587102927681
 31
0.0
  0
LINE
  5
24D7
  8
0
 10
576.0178617379634716
 20
30.322587102927681
 30
0.0
 11
576.0305907196634507
 21
30.3446343459606886
 31
0.0
  0
LINE
  5
24D8
  8
0
 10
576.020703029278593
 20
30.3716028499106905
 30
0.0
 11
576.0178617379634716
 21
30.3666815889937105
 31
0.0
  0
LINE
  5
24D9
  8
0
 10
575.9924037745633996
 20
30.322587102927681
 30
0.0
 11
575.9895624832481644
 21
30.3176658420106904
 31
0.0
  0
LINE
  5
24DA
  8
0
 10
575.9895624832481644
 20
30.3716028499106905
 30
0.0
 11
575.9924037745633996
 21
30.3666815889937105
 31
0.0
  0
LINE
  5
24DB
  8
0
 10
576.0178617379634716
 20
30.322587102927681
 30
0.0
 11
576.0207030292498303
 21
30.3176658420606913
 31
0.0
  0
LINE
  5
24DC
  8
0
 10
575.9739922126075271
 20
30.3446343459606886
 30
0.0
 11
575.9796747928634204
 21
30.3446343459606886
 31
0.0
  0
LINE
  5
24DD
  8
0
 10
576.0305907196634507
 20
30.3446343459606886
 30
0.0
 11
576.0362733000192748
 21
30.3446343459606886
 31
0.0
  0
LINE
  5
24DE
  8
0
 10
576.0278462288167702
 20
30.2954509356481587
 30
0.0
 11
576.0178617379634716
 21
30.3127445810937104
 31
0.0
  0
LINE
  5
24DF
  8
0
 10
576.0178617379634716
 20
30.3127445810937104
 30
0.0
 11
575.9924037745633996
 21
30.3127445810937104
 31
0.0
  0
LINE
  5
24E0
  8
0
 10
575.9924037745633996
 20
30.3127445810937104
 30
0.0
 11
575.9869088106000845
 21
30.3032270243234692
 31
0.0
  0
LINE
  5
24E1
  8
0
 10
576.020703029278593
 20
30.3176658420106904
 30
0.0
 11
576.0178617379634716
 21
30.3127445810937104
 31
0.0
  0
LINE
  5
24E2
  8
0
 10
575.9895624832481644
 20
30.3176658420106904
 30
0.0
 11
575.9924037745633996
 21
30.3127445810937104
 31
0.0
  0
LINE
  5
24E3
  8
0
 10
576.0645725547789198
 20
30.6633351321937084
 30
0.0
 11
576.0391145913788478
 21
30.6633351321937084
 31
0.0
  0
LINE
  5
24E4
  8
0
 10
576.0391145913788478
 20
30.6633351321937084
 30
0.0
 11
576.0263856096789823
 21
30.6412878891606901
 31
0.0
  0
LINE
  5
24E5
  8
0
 10
576.0263856096789823
 20
30.6412878891606901
 30
0.0
 11
576.0391145913788478
 21
30.6192406461276789
 31
0.0
  0
LINE
  5
24E6
  8
0
 10
576.0391145913788478
 20
30.6192406461276789
 30
0.0
 11
576.0645725547789198
 21
30.6192406461276789
 31
0.0
  0
LINE
  5
24E7
  8
0
 10
576.0391145913788478
 20
30.6192406461276789
 30
0.0
 11
576.0362733000637263
 21
30.6143193852106883
 31
0.0
  0
LINE
  5
24E8
  8
0
 10
576.0362733000637263
 20
30.6682563931106884
 30
0.0
 11
576.0391145913788478
 21
30.6633351321937084
 31
0.0
  0
LINE
  5
24E9
  8
0
 10
576.0207030294228616
 20
30.6412878891606901
 30
0.0
 11
576.0263856096789823
 21
30.6412878891606901
 31
0.0
  0
LINE
  5
24EA
  8
0
 10
576.0645725548076825
 20
30.7172721400437112
 30
0.0
 11
576.0391145914078379
 21
30.7172721400437112
 31
0.0
  0
LINE
  5
24EB
  8
0
 10
576.0391145914078379
 20
30.7172721400437112
 30
0.0
 11
576.0263856097077451
 21
30.6952248970107
 31
0.0
  0
LINE
  5
24EC
  8
0
 10
576.0263856097077451
 20
30.6952248970107
 30
0.0
 11
576.0391145914078379
 21
30.6731776539776817
 31
0.0
  0
LINE
  5
24ED
  8
0
 10
576.0391145914078379
 20
30.6731776539776817
 30
0.0
 11
576.0645725548076825
 21
30.6731776539776817
 31
0.0
  0
LINE
  5
24EE
  8
0
 10
576.0391145914078379
 20
30.6731776539776817
 30
0.0
 11
576.0362733000926028
 21
30.6682563930606911
 31
0.0
  0
LINE
  5
24EF
  8
0
 10
576.0362733000926028
 20
30.7221934009606983
 30
0.0
 11
576.0391145914078379
 21
30.7172721400437112
 31
0.0
  0
LINE
  5
24F0
  8
0
 10
576.0207030294518518
 20
30.6952248970107
 30
0.0
 11
576.0263856097077451
 21
30.6952248970107
 31
0.0
  0
LINE
  5
24F1
  8
0
 10
576.064572554836559
 20
30.7712091478937104
 30
0.0
 11
576.0391145914367144
 21
30.7712091478937104
 31
0.0
  0
LINE
  5
24F2
  8
0
 10
576.0391145914367144
 20
30.7712091478937104
 30
0.0
 11
576.0263856097367352
 21
30.7491619048606992
 31
0.0
  0
LINE
  5
24F3
  8
0
 10
576.0263856097367352
 20
30.7491619048606992
 30
0.0
 11
576.0391145914367144
 21
30.7271146618276809
 31
0.0
  0
LINE
  5
24F4
  8
0
 10
576.0391145914367144
 20
30.7271146618276809
 30
0.0
 11
576.064572554836559
 21
30.7271146618276809
 31
0.0
  0
LINE
  5
24F5
  8
0
 10
576.0391145914367144
 20
30.7271146618276809
 30
0.0
 11
576.0362733001214792
 21
30.7221934009107009
 31
0.0
  0
LINE
  5
24F6
  8
0
 10
576.0385349942660014
 20
30.7722130396411018
 30
0.0
 11
576.0391145914367144
 21
30.7712091478937104
 31
0.0
  0
LINE
  5
24F7
  8
0
 10
576.0207030294806145
 20
30.7491619048606992
 30
0.0
 11
576.0263856097367352
 21
30.7491619048606992
 31
0.0
  0
LINE
  5
24F8
  8
0
 10
576.0645725547500433
 20
30.6093981243437092
 30
0.0
 11
576.039114591350085
 21
30.6093981243437092
 31
0.0
  0
LINE
  5
24F9
  8
0
 10
576.039114591350085
 20
30.6093981243437092
 30
0.0
 11
576.0263856096501058
 21
30.5873508813106909
 31
0.0
  0
LINE
  5
24FA
  8
0
 10
576.0263856096501058
 20
30.5873508813106909
 30
0.0
 11
576.039114591350085
 21
30.5653036382776797
 31
0.0
  0
LINE
  5
24FB
  8
0
 10
576.039114591350085
 20
30.5653036382776797
 30
0.0
 11
576.0645725547500433
 21
30.5653036382776797
 31
0.0
  0
LINE
  5
24FC
  8
0
 10
576.039114591350085
 20
30.5653036382776797
 30
0.0
 11
576.0362733000348499
 21
30.5603823773606997
 31
0.0
  0
LINE
  5
24FD
  8
0
 10
576.0362733000348499
 20
30.6143193852606892
 30
0.0
 11
576.039114591350085
 21
30.6093981243437092
 31
0.0
  0
LINE
  5
24FE
  8
0
 10
576.0207030293939852
 20
30.5873508813106909
 30
0.0
 11
576.0263856096501058
 21
30.5873508813106909
 31
0.0
  0
LINE
  5
24FF
  8
0
 10
576.0645725546922904
 20
30.5015241086437108
 30
0.0
 11
576.0391145912923321
 21
30.5015241086437108
 31
0.0
  0
LINE
  5
2500
  8
0
 10
576.0391145912923321
 20
30.5015241086437108
 30
0.0
 11
576.0263856095923529
 21
30.4794768656106889
 31
0.0
  0
LINE
  5
2501
  8
0
 10
576.0263856095923529
 20
30.4794768656106889
 30
0.0
 11
576.0391145912923321
 21
30.4574296225776813
 31
0.0
  0
LINE
  5
2502
  8
0
 10
576.0391145912923321
 20
30.4574296225776813
 30
0.0
 11
576.0645725546922904
 21
30.4574296225776813
 31
0.0
  0
LINE
  5
2503
  8
0
 10
576.0391145912923321
 20
30.4574296225776813
 30
0.0
 11
576.0362732999772106
 21
30.4525083616606906
 31
0.0
  0
LINE
  5
2504
  8
0
 10
576.0362732999772106
 20
30.5064453695606908
 30
0.0
 11
576.0391145912923321
 21
30.5015241086437108
 31
0.0
  0
LINE
  5
2505
  8
0
 10
576.0207030293363459
 20
30.4794768656106889
 30
0.0
 11
576.0263856095923529
 21
30.4794768656106889
 31
0.0
  0
LINE
  5
2506
  8
0
 10
576.0645725546635276
 20
30.4475871007937116
 30
0.0
 11
576.0391145912634556
 21
30.4475871007937116
 31
0.0
  0
LINE
  5
2507
  8
0
 10
576.0391145912634556
 20
30.4475871007937116
 30
0.0
 11
576.0263856095633628
 21
30.4255398577606897
 31
0.0
  0
LINE
  5
2508
  8
0
 10
576.0263856095633628
 20
30.4255398577606897
 30
0.0
 11
576.0391145912634556
 21
30.4034926147276785
 31
0.0
  0
LINE
  5
2509
  8
0
 10
576.0391145912634556
 20
30.4034926147276785
 30
0.0
 11
576.0645725546635276
 21
30.4034926147276785
 31
0.0
  0
LINE
  5
250A
  8
0
 10
576.0391145912634556
 20
30.4034926147276785
 30
0.0
 11
576.0362732999483342
 21
30.3985713538106914
 31
0.0
  0
LINE
  5
250B
  8
0
 10
576.0362732999483342
 20
30.4525083617106915
 30
0.0
 11
576.0391145912634556
 21
30.4475871007937116
 31
0.0
  0
LINE
  5
250C
  8
0
 10
576.0207030293074695
 20
30.4255398577606897
 30
0.0
 11
576.0263856095633628
 21
30.4255398577606897
 31
0.0
  0
LINE
  5
250D
  8
0
 10
576.0645725546346512
 20
30.3936500929437088
 30
0.0
 11
576.0391145912344655
 21
30.3936500929437088
 31
0.0
  0
LINE
  5
250E
  8
0
 10
576.0391145912344655
 20
30.3936500929437088
 30
0.0
 11
576.0263856095344863
 21
30.3716028499106905
 31
0.0
  0
LINE
  5
250F
  8
0
 10
576.0263856095344863
 20
30.3716028499106905
 30
0.0
 11
576.0391145912344655
 21
30.3495556068776793
 31
0.0
  0
LINE
  5
2510
  8
0
 10
576.0391145912344655
 20
30.3495556068776793
 30
0.0
 11
576.0645725546346512
 21
30.3495556068776793
 31
0.0
  0
LINE
  5
2511
  8
0
 10
576.0391145912344655
 20
30.3495556068776793
 30
0.0
 11
576.036273299919344
 21
30.3446343459606886
 31
0.0
  0
LINE
  5
2512
  8
0
 10
576.036273299919344
 20
30.3985713538606994
 30
0.0
 11
576.0391145912344655
 21
30.3936500929437088
 31
0.0
  0
LINE
  5
2513
  8
0
 10
576.020703029278593
 20
30.3716028499106905
 30
0.0
 11
576.0263856095344863
 21
30.3716028499106905
 31
0.0
  0
LINE
  5
2514
  8
0
 10
576.0645725546057747
 20
30.3397130850937096
 30
0.0
 11
576.039114591205589
 21
30.3397130850937096
 31
0.0
  0
LINE
  5
2515
  8
0
 10
576.039114591205589
 20
30.3397130850937096
 30
0.0
 11
576.0263856095057236
 21
30.3176658420606913
 31
0.0
  0
LINE
  5
2516
  8
0
 10
576.0263856095057236
 20
30.3176658420606913
 30
0.0
 11
576.039114591205589
 21
30.2956185990276801
 31
0.0
  0
LINE
  5
2517
  8
0
 10
576.039114591205589
 20
30.2956185990276801
 30
0.0
 11
576.0645725546057747
 21
30.2956185990276801
 31
0.0
  0
LINE
  5
2518
  8
0
 10
576.039114591205589
 20
30.2956185990276801
 30
0.0
 11
576.0385349939864454
 21
30.2946147071958798
 31
0.0
  0
LINE
  5
2519
  8
0
 10
576.0362732998904676
 20
30.3446343460106895
 30
0.0
 11
576.039114591205589
 21
30.3397130850937096
 31
0.0
  0
LINE
  5
251A
  8
0
 10
576.0207030292498303
 20
30.3176658420606913
 30
0.0
 11
576.0263856095057236
 21
30.3176658420606913
 31
0.0
  0
LINE
  5
251B
  8
0
 10
576.1198072429345984
 20
30.6412878891106892
 30
0.0
 11
576.1325362246345776
 21
30.6633351321437111
 31
0.0
  0
LINE
  5
251C
  8
0
 10
576.1325362246345776
 20
30.6633351321437111
 30
0.0
 11
576.1579941880346496
 21
30.6633351321437111
 31
0.0
  0
LINE
  5
251D
  8
0
 10
576.1579941880346496
 20
30.6633351321437111
 30
0.0
 11
576.1707231697346288
 21
30.6412878891106892
 31
0.0
  0
LINE
  5
251E
  8
0
 10
576.1707231697346288
 20
30.6412878891106892
 30
0.0
 11
576.1579941880346496
 21
30.6192406460776816
 31
0.0
  0
LINE
  5
251F
  8
0
 10
576.1579941880346496
 20
30.6192406460776816
 30
0.0
 11
576.1325362246345776
 21
30.6192406460776816
 31
0.0
  0
LINE
  5
2520
  8
0
 10
576.1325362246345776
 20
30.6192406460776816
 30
0.0
 11
576.1198072429345984
 21
30.6412878891106892
 31
0.0
  0
LINE
  5
2521
  8
0
 10
576.1296949333194561
 20
30.6682563930606911
 30
0.0
 11
576.1325362246345776
 21
30.6633351321437111
 31
0.0
  0
LINE
  5
2522
  8
0
 10
576.1579941880346496
 20
30.6192406460776816
 30
0.0
 11
576.1608354793496574
 21
30.614319385160691
 31
0.0
  0
LINE
  5
2523
  8
0
 10
576.1608354793496574
 20
30.6682563930606911
 30
0.0
 11
576.1579941880346496
 21
30.6633351321437111
 31
0.0
  0
LINE
  5
2524
  8
0
 10
576.1325362246345776
 20
30.6192406460776816
 30
0.0
 11
576.1296949333483326
 21
30.6143193852106883
 31
0.0
  0
LINE
  5
2525
  8
0
 10
576.1764057499905221
 20
30.6412878891106892
 30
0.0
 11
576.1707231697346288
 21
30.6412878891106892
 31
0.0
  0
LINE
  5
2526
  8
0
 10
576.1198072429345984
 20
30.6412878891106892
 30
0.0
 11
576.114124662578547
 21
30.6412878891106892
 31
0.0
  0
LINE
  5
2527
  8
0
 10
576.119807242905722
 20
30.6952248969606991
 30
0.0
 11
576.1325362246057011
 21
30.7172721399937103
 31
0.0
  0
LINE
  5
2528
  8
0
 10
576.1325362246057011
 20
30.7172721399937103
 30
0.0
 11
576.1579941880056595
 21
30.7172721399937103
 31
0.0
  0
LINE
  5
2529
  8
0
 10
576.1579941880056595
 20
30.7172721399937103
 30
0.0
 11
576.1707231697057523
 21
30.6952248969606991
 31
0.0
  0
LINE
  5
252A
  8
0
 10
576.1707231697057523
 20
30.6952248969606991
 30
0.0
 11
576.1579941880056595
 21
30.6731776539276808
 31
0.0
  0
LINE
  5
252B
  8
0
 10
576.1579941880056595
 20
30.6731776539276808
 30
0.0
 11
576.1325362246057011
 21
30.6731776539276808
 31
0.0
  0
LINE
  5
252C
  8
0
 10
576.1325362246057011
 20
30.6731776539276808
 30
0.0
 11
576.119807242905722
 21
30.6952248969606991
 31
0.0
  0
LINE
  5
252D
  8
0
 10
576.1296949332905797
 20
30.7221934009107009
 30
0.0
 11
576.1325362246057011
 21
30.7172721399937103
 31
0.0
  0
LINE
  5
252E
  8
0
 10
576.1579941880056595
 20
30.6731776539276808
 30
0.0
 11
576.1608354793207809
 21
30.6682563930106902
 31
0.0
  0
LINE
  5
252F
  8
0
 10
576.1608354793207809
 20
30.7221934009107009
 30
0.0
 11
576.1579941880056595
 21
30.7172721399937103
 31
0.0
  0
LINE
  5
2530
  8
0
 10
576.1325362246057011
 20
30.6731776539276808
 30
0.0
 11
576.1296949333194561
 21
30.6682563930606911
 31
0.0
  0
LINE
  5
2531
  8
0
 10
576.1764057499616456
 20
30.6952248969606991
 30
0.0
 11
576.1707231697057523
 21
30.6952248969606991
 31
0.0
  0
LINE
  5
2532
  8
0
 10
576.119807242905722
 20
30.6952248969606991
 30
0.0
 11
576.1141246625497843
 21
30.6952248969606991
 31
0.0
  0
LINE
  5
2533
  8
0
 10
576.1198072428768455
 20
30.7491619048106983
 30
0.0
 11
576.126441718882802
 21
30.7606531543346406
 31
0.0
  0
LINE
  5
2534
  8
0
 10
576.1671419000510923
 20
30.7429589638631811
 30
0.0
 11
576.1579941879768967
 21
30.72711466177768
 31
0.0
  0
LINE
  5
2535
  8
0
 10
576.1579941879768967
 20
30.72711466177768
 30
0.0
 11
576.1325362245768247
 21
30.72711466177768
 31
0.0
  0
LINE
  5
2536
  8
0
 10
576.1325362245768247
 20
30.72711466177768
 30
0.0
 11
576.1198072428768455
 21
30.7491619048106983
 31
0.0
  0
LINE
  5
2537
  8
0
 10
576.1579941879768967
 20
30.72711466177768
 30
0.0
 11
576.1608354792920181
 21
30.7221934008607001
 31
0.0
  0
LINE
  5
2538
  8
0
 10
576.1325362245768247
 20
30.72711466177768
 30
0.0
 11
576.1296949332905797
 21
30.7221934009107009
 31
0.0
  0
LINE
  5
2539
  8
0
 10
576.1198072428768455
 20
30.7491619048106983
 30
0.0
 11
576.1141246625209078
 21
30.7491619048106983
 31
0.0
  0
LINE
  5
253A
  8
0
 10
576.1198072429633612
 20
30.58735088126069
 30
0.0
 11
576.132536224663454
 21
30.6093981242937083
 31
0.0
  0
LINE
  5
253B
  8
0
 10
576.132536224663454
 20
30.6093981242937083
 30
0.0
 11
576.1579941880635261
 21
30.6093981242937083
 31
0.0
  0
LINE
  5
253C
  8
0
 10
576.1579941880635261
 20
30.6093981242937083
 30
0.0
 11
576.1707231697633915
 21
30.58735088126069
 31
0.0
  0
LINE
  5
253D
  8
0
 10
576.1707231697633915
 20
30.58735088126069
 30
0.0
 11
576.1579941880635261
 21
30.5653036382276788
 31
0.0
  0
LINE
  5
253E
  8
0
 10
576.1579941880635261
 20
30.5653036382276788
 30
0.0
 11
576.132536224663454
 21
30.5653036382276788
 31
0.0
  0
LINE
  5
253F
  8
0
 10
576.132536224663454
 20
30.5653036382276788
 30
0.0
 11
576.1198072429633612
 21
30.58735088126069
 31
0.0
  0
LINE
  5
2540
  8
0
 10
576.1296949333483326
 20
30.6143193852106883
 30
0.0
 11
576.132536224663454
 21
30.6093981242937083
 31
0.0
  0
LINE
  5
2541
  8
0
 10
576.1579941880635261
 20
30.5653036382276788
 30
0.0
 11
576.1608354793786475
 21
30.5603823773106917
 31
0.0
  0
LINE
  5
2542
  8
0
 10
576.1608354793786475
 20
30.6143193852106883
 30
0.0
 11
576.1579941880635261
 21
30.6093981242937083
 31
0.0
  0
LINE
  5
2543
  8
0
 10
576.132536224663454
 20
30.5653036382276788
 30
0.0
 11
576.1296949333772091
 21
30.5603823773606997
 31
0.0
  0
LINE
  5
2544
  8
0
 10
576.1764057500193985
 20
30.58735088126069
 30
0.0
 11
576.1707231697633915
 21
30.58735088126069
 31
0.0
  0
LINE
  5
2545
  8
0
 10
576.1198072429633612
 20
30.58735088126069
 30
0.0
 11
576.1141246626075372
 21
30.58735088126069
 31
0.0
  0
LINE
  5
2546
  8
0
 10
576.1198072429923513
 20
30.5334138734106908
 30
0.0
 11
576.1325362246923305
 21
30.5554611164437091
 31
0.0
  0
LINE
  5
2547
  8
0
 10
576.1325362246923305
 20
30.5554611164437091
 30
0.0
 11
576.1579941880921751
 21
30.5554611164437091
 31
0.0
  0
LINE
  5
2548
  8
0
 10
576.1579941880921751
 20
30.5554611164437091
 30
0.0
 11
576.1707231697923817
 21
30.5334138734106908
 31
0.0
  0
LINE
  5
2549
  8
0
 10
576.1707231697923817
 20
30.5334138734106908
 30
0.0
 11
576.1579941880921751
 21
30.5113666303776796
 31
0.0
  0
LINE
  5
254A
  8
0
 10
576.1579941880921751
 20
30.5113666303776796
 30
0.0
 11
576.1325362246923305
 21
30.5113666303776796
 31
0.0
  0
LINE
  5
254B
  8
0
 10
576.1325362246923305
 20
30.5113666303776796
 30
0.0
 11
576.1198072429923513
 21
30.5334138734106908
 31
0.0
  0
LINE
  5
254C
  8
0
 10
576.1296949333772091
 20
30.5603823773606997
 30
0.0
 11
576.1325362246923305
 21
30.5554611164437091
 31
0.0
  0
LINE
  5
254D
  8
0
 10
576.1579941880921751
 20
30.5113666303776796
 30
0.0
 11
576.160835479407524
 21
30.506445369460689
 31
0.0
  0
LINE
  5
254E
  8
0
 10
576.160835479407524
 20
30.5603823773606997
 30
0.0
 11
576.1579941880921751
 21
30.5554611164437091
 31
0.0
  0
LINE
  5
254F
  8
0
 10
576.1325362246923305
 20
30.5113666303776796
 30
0.0
 11
576.1296949334059718
 21
30.5064453695106899
 31
0.0
  0
LINE
  5
2550
  8
0
 10
576.1764057500481613
 20
30.5334138734106908
 30
0.0
 11
576.1707231697923817
 21
30.5334138734106908
 31
0.0
  0
LINE
  5
2551
  8
0
 10
576.1198072429923513
 20
30.5334138734106908
 30
0.0
 11
576.1141246626364136
 21
30.5334138734106908
 31
0.0
  0
LINE
  5
2552
  8
0
 10
576.1198072430212278
 20
30.4794768655606916
 30
0.0
 11
576.132536224721207
 21
30.5015241085937099
 31
0.0
  0
LINE
  5
2553
  8
0
 10
576.132536224721207
 20
30.5015241085937099
 30
0.0
 11
576.1579941881210516
 21
30.5015241085937099
 31
0.0
  0
LINE
  5
2554
  8
0
 10
576.1579941881210516
 20
30.5015241085937099
 30
0.0
 11
576.1707231698211444
 21
30.4794768655606916
 31
0.0
  0
LINE
  5
2555
  8
0
 10
576.1707231698211444
 20
30.4794768655606916
 30
0.0
 11
576.1579941881210516
 21
30.4574296225276804
 31
0.0
  0
LINE
  5
2556
  8
0
 10
576.1579941881210516
 20
30.4574296225276804
 30
0.0
 11
576.132536224721207
 21
30.4574296225276804
 31
0.0
  0
LINE
  5
2557
  8
0
 10
576.132536224721207
 20
30.4574296225276804
 30
0.0
 11
576.1198072430212278
 21
30.4794768655606916
 31
0.0
  0
LINE
  5
2558
  8
0
 10
576.1296949334059718
 20
30.5064453695106899
 30
0.0
 11
576.132536224721207
 21
30.5015241085937099
 31
0.0
  0
LINE
  5
2559
  8
0
 10
576.1579941881210516
 20
30.4574296225276804
 30
0.0
 11
576.1608354794364004
 21
30.4525083616106897
 31
0.0
  0
LINE
  5
255A
  8
0
 10
576.1608354794364004
 20
30.5064453695106899
 30
0.0
 11
576.1579941881210516
 21
30.5015241085937099
 31
0.0
  0
LINE
  5
255B
  8
0
 10
576.132536224721207
 20
30.4574296225276804
 30
0.0
 11
576.1296949334348483
 21
30.4525083616606906
 31
0.0
  0
LINE
  5
255C
  8
0
 10
576.1764057500771514
 20
30.4794768655606916
 30
0.0
 11
576.1707231698211444
 21
30.4794768655606916
 31
0.0
  0
LINE
  5
255D
  8
0
 10
576.1198072430212278
 20
30.4794768655606916
 30
0.0
 11
576.1141246626651764
 21
30.4794768655606916
 31
0.0
  0
LINE
  5
255E
  8
0
 10
576.119807243078867
 20
30.3716028498606896
 30
0.0
 11
576.1325362247788462
 21
30.3936500928937114
 31
0.0
  0
LINE
  5
255F
  8
0
 10
576.1325362247788462
 20
30.3936500928937114
 30
0.0
 11
576.1579941881789182
 21
30.3936500928937114
 31
0.0
  0
LINE
  5
2560
  8
0
 10
576.1579941881789182
 20
30.3936500928937114
 30
0.0
 11
576.1707231698788974
 21
30.3716028498606896
 31
0.0
  0
LINE
  5
2561
  8
0
 10
576.1707231698788974
 20
30.3716028498606896
 30
0.0
 11
576.1579941881789182
 21
30.3495556068276784
 31
0.0
  0
LINE
  5
2562
  8
0
 10
576.1579941881789182
 20
30.3495556068276784
 30
0.0
 11
576.1325362247788462
 21
30.3495556068276784
 31
0.0
  0
LINE
  5
2563
  8
0
 10
576.1325362247788462
 20
30.3495556068276784
 30
0.0
 11
576.119807243078867
 21
30.3716028498606896
 31
0.0
  0
LINE
  5
2564
  8
0
 10
576.1296949334637247
 20
30.3985713538106914
 30
0.0
 11
576.1325362247788462
 21
30.3936500928937114
 31
0.0
  0
LINE
  5
2565
  8
0
 10
576.1579941881789182
 20
30.3495556068276784
 30
0.0
 11
576.1608354794941533
 21
30.3446343459106913
 31
0.0
  0
LINE
  5
2566
  8
0
 10
576.1608354794941533
 20
30.3985713538106914
 30
0.0
 11
576.1579941881789182
 21
30.3936500928937114
 31
0.0
  0
LINE
  5
2567
  8
0
 10
576.1325362247788462
 20
30.3495556068276784
 30
0.0
 11
576.1296949334924875
 21
30.3446343459606886
 31
0.0
  0
LINE
  5
2568
  8
0
 10
576.1764057501347907
 20
30.3716028498606896
 30
0.0
 11
576.1707231698788974
 21
30.3716028498606896
 31
0.0
  0
LINE
  5
2569
  8
0
 10
576.119807243078867
 20
30.3716028498606896
 30
0.0
 11
576.114124662723043
 21
30.3716028498606896
 31
0.0
  0
LINE
  5
256A
  8
0
 10
576.1198072431077435
 20
30.3176658420106904
 30
0.0
 11
576.1325362248078363
 21
30.3397130850437087
 31
0.0
  0
LINE
  5
256B
  8
0
 10
576.1325362248078363
 20
30.3397130850437087
 30
0.0
 11
576.1579941882077947
 21
30.3397130850437087
 31
0.0
  0
LINE
  5
256C
  8
0
 10
576.1579941882077947
 20
30.3397130850437087
 30
0.0
 11
576.16714190022617
 21
30.3238687830546496
 31
0.0
  0
LINE
  5
256D
  8
0
 10
576.1264417190768654
 20
30.3061745925504802
 30
0.0
 11
576.1198072431077435
 21
30.3176658420106904
 31
0.0
  0
LINE
  5
256E
  8
0
 10
576.1296949334924875
 20
30.3446343459606886
 30
0.0
 11
576.1325362248078363
 21
30.3397130850437087
 31
0.0
  0
LINE
  5
256F
  8
0
 10
576.1608354795230298
 20
30.3446343459606886
 30
0.0
 11
576.1579941882077947
 21
30.3397130850437087
 31
0.0
  0
LINE
  5
2570
  8
0
 10
576.1198072431077435
 20
30.3176658420106904
 30
0.0
 11
576.1141246627516921
 21
30.3176658420106904
 31
0.0
  0
LINE
  5
2571
  8
0
 10
576.1665180597344715
 20
30.6143193852106883
 30
0.0
 11
576.1792470414344507
 21
30.6363666282437102
 31
0.0
  0
LINE
  5
2572
  8
0
 10
576.1792470414344507
 20
30.6363666282437102
 30
0.0
 11
576.2047050048346364
 21
30.6363666282437102
 31
0.0
  0
LINE
  5
2573
  8
0
 10
576.2047050048346364
 20
30.6363666282437102
 30
0.0
 11
576.2174339865346155
 21
30.6143193852106883
 31
0.0
  0
LINE
  5
2574
  8
0
 10
576.2174339865346155
 20
30.6143193852106883
 30
0.0
 11
576.2047050048346364
 21
30.5922721421776806
 31
0.0
  0
LINE
  5
2575
  8
0
 10
576.2047050048346364
 20
30.5922721421776806
 30
0.0
 11
576.1792470414344507
 21
30.5922721421776806
 31
0.0
  0
LINE
  5
2576
  8
0
 10
576.1792470414344507
 20
30.5922721421776806
 30
0.0
 11
576.1665180597344715
 21
30.6143193852106883
 31
0.0
  0
LINE
  5
2577
  8
0
 10
576.1764057501194429
 20
30.6412878891606901
 30
0.0
 11
576.1792470414344507
 21
30.6363666282437102
 31
0.0
  0
LINE
  5
2578
  8
0
 10
576.2047050048346364
 20
30.5922721421776806
 30
0.0
 11
576.2075462961496441
 21
30.58735088126069
 31
0.0
  0
LINE
  5
2579
  8
0
 10
576.2075462961496441
 20
30.6412878891606901
 30
0.0
 11
576.2047050048346364
 21
30.6363666282437102
 31
0.0
  0
LINE
  5
257A
  8
0
 10
576.1792470414344507
 20
30.5922721421776806
 30
0.0
 11
576.1764057501483194
 21
30.5873508813106909
 31
0.0
  0
LINE
  5
257B
  8
0
 10
576.2231165667905088
 20
30.6143193852106883
 30
0.0
 11
576.2174339865346155
 21
30.6143193852106883
 31
0.0
  0
LINE
  5
257C
  8
0
 10
576.1665180597344715
 20
30.6143193852106883
 30
0.0
 11
576.1608354793786475
 21
30.6143193852106883
 31
0.0
  0
LINE
  5
257D
  8
0
 10
576.1665180597057088
 20
30.6682563930606911
 30
0.0
 11
576.1792470414055742
 21
30.6903036360937094
 31
0.0
  0
LINE
  5
257E
  8
0
 10
576.1792470414055742
 20
30.6903036360937094
 30
0.0
 11
576.2047050048057599
 21
30.6903036360937094
 31
0.0
  0
LINE
  5
257F
  8
0
 10
576.2047050048057599
 20
30.6903036360937094
 30
0.0
 11
576.2174339865057391
 21
30.6682563930606911
 31
0.0
  0
LINE
  5
2580
  8
0
 10
576.2174339865057391
 20
30.6682563930606911
 30
0.0
 11
576.2047050048057599
 21
30.6462091500276799
 31
0.0
  0
LINE
  5
2581
  8
0
 10
576.2047050048057599
 20
30.6462091500276799
 30
0.0
 11
576.1792470414055742
 21
30.6462091500276799
 31
0.0
  0
LINE
  5
2582
  8
0
 10
576.1792470414055742
 20
30.6462091500276799
 30
0.0
 11
576.1665180597057088
 21
30.6682563930606911
 31
0.0
  0
LINE
  5
2583
  8
0
 10
576.1764057500904528
 20
30.6952248970107
 30
0.0
 11
576.1792470414055742
 21
30.6903036360937094
 31
0.0
  0
LINE
  5
2584
  8
0
 10
576.2047050048057599
 20
30.6462091500276799
 30
0.0
 11
576.2075462961208814
 21
30.6412878891106892
 31
0.0
  0
LINE
  5
2585
  8
0
 10
576.2075462961208814
 20
30.6952248970107
 30
0.0
 11
576.2047050048057599
 21
30.6903036360937094
 31
0.0
  0
LINE
  5
2586
  8
0
 10
576.1792470414055742
 20
30.6462091500276799
 30
0.0
 11
576.1764057501194429
 21
30.6412878891606901
 31
0.0
  0
LINE
  5
2587
  8
0
 10
576.2231165667617461
 20
30.6682563930606911
 30
0.0
 11
576.2174339865057391
 21
30.6682563930606911
 31
0.0
  0
LINE
  5
2588
  8
0
 10
576.1665180597057088
 20
30.6682563930606911
 30
0.0
 11
576.1608354793496574
 21
30.6682563930606911
 31
0.0
  0
LINE
  5
2589
  8
0
 10
576.1665180596768323
 20
30.7221934009107009
 30
0.0
 11
576.1756658326067964
 21
30.7380378084013799
 31
0.0
  0
LINE
  5
258A
  8
0
 10
576.2113400949676816
 20
30.7116384712008994
 30
0.0
 11
576.2047050047767698
 21
30.7001461578776791
 31
0.0
  0
LINE
  5
258B
  8
0
 10
576.2047050047767698
 20
30.7001461578776791
 30
0.0
 11
576.1792470413769252
 21
30.7001461578776791
 31
0.0
  0
LINE
  5
258C
  8
0
 10
576.1792470413769252
 20
30.7001461578776791
 30
0.0
 11
576.1665180596768323
 21
30.7221934009107009
 31
0.0
  0
LINE
  5
258D
  8
0
 10
576.2047050047767698
 20
30.7001461578776791
 30
0.0
 11
576.2075462960920049
 21
30.6952248969606991
 31
0.0
  0
LINE
  5
258E
  8
0
 10
576.1792470413769252
 20
30.7001461578776791
 30
0.0
 11
576.1764057500904528
 21
30.6952248970107
 31
0.0
  0
LINE
  5
258F
  8
0
 10
576.1665180596768323
 20
30.7221934009107009
 30
0.0
 11
576.1608354793207809
 21
30.7221934009107009
 31
0.0
  0
LINE
  5
2590
  8
0
 10
576.166518059763348
 20
30.5603823773606997
 30
0.0
 11
576.1792470414634408
 21
30.5824296203937109
 31
0.0
  0
LINE
  5
2591
  8
0
 10
576.1792470414634408
 20
30.5824296203937109
 30
0.0
 11
576.2047050048635128
 21
30.5824296203937109
 31
0.0
  0
LINE
  5
2592
  8
0
 10
576.2047050048635128
 20
30.5824296203937109
 30
0.0
 11
576.217433986563492
 21
30.5603823773606997
 31
0.0
  0
LINE
  5
2593
  8
0
 10
576.217433986563492
 20
30.5603823773606997
 30
0.0
 11
576.2047050048635128
 21
30.5383351343276814
 31
0.0
  0
LINE
  5
2594
  8
0
 10
576.2047050048635128
 20
30.5383351343276814
 30
0.0
 11
576.1792470414634408
 21
30.5383351343276814
 31
0.0
  0
LINE
  5
2595
  8
0
 10
576.1792470414634408
 20
30.5383351343276814
 30
0.0
 11
576.166518059763348
 21
30.5603823773606997
 31
0.0
  0
LINE
  5
2596
  8
0
 10
576.1764057501483194
 20
30.5873508813106909
 30
0.0
 11
576.1792470414634408
 21
30.5824296203937109
 31
0.0
  0
LINE
  5
2597
  8
0
 10
576.2047050048635128
 20
30.5383351343276814
 30
0.0
 11
576.2075462961786343
 21
30.5334138734106908
 31
0.0
  0
LINE
  5
2598
  8
0
 10
576.2075462961786343
 20
30.5873508813106909
 30
0.0
 11
576.2047050048635128
 21
30.5824296203937109
 31
0.0
  0
LINE
  5
2599
  8
0
 10
576.1792470414634408
 20
30.5383351343276814
 30
0.0
 11
576.1764057501770822
 21
30.5334138734606917
 31
0.0
  0
LINE
  5
259A
  8
0
 10
576.2231165668192716
 20
30.5603823773606997
 30
0.0
 11
576.217433986563492
 21
30.5603823773606997
 31
0.0
  0
LINE
  5
259B
  8
0
 10
576.166518059763348
 20
30.5603823773606997
 30
0.0
 11
576.160835479407524
 21
30.5603823773606997
 31
0.0
  0
LINE
  5
259C
  8
0
 10
576.1665180597923381
 20
30.5064453695106899
 30
0.0
 11
576.1792470414923173
 21
30.5284926125437117
 31
0.0
  0
LINE
  5
259D
  8
0
 10
576.1792470414923173
 20
30.5284926125437117
 30
0.0
 11
576.2047050048923893
 21
30.5284926125437117
 31
0.0
  0
LINE
  5
259E
  8
0
 10
576.2047050048923893
 20
30.5284926125437117
 30
0.0
 11
576.2174339865922548
 21
30.5064453695106899
 31
0.0
  0
LINE
  5
259F
  8
0
 10
576.2174339865922548
 20
30.5064453695106899
 30
0.0
 11
576.2047050048923893
 21
30.4843981264776787
 31
0.0
  0
LINE
  5
25A0
  8
0
 10
576.2047050048923893
 20
30.4843981264776787
 30
0.0
 11
576.1792470414923173
 21
30.4843981264776787
 31
0.0
  0
LINE
  5
25A1
  8
0
 10
576.1792470414923173
 20
30.4843981264776787
 30
0.0
 11
576.1665180597923381
 21
30.5064453695106899
 31
0.0
  0
LINE
  5
25A2
  8
0
 10
576.1764057501770822
 20
30.5334138734606917
 30
0.0
 11
576.1792470414923173
 21
30.5284926125437117
 31
0.0
  0
LINE
  5
25A3
  8
0
 10
576.2047050048923893
 20
30.4843981264776787
 30
0.0
 11
576.2075462962075107
 21
30.4794768655606916
 31
0.0
  0
LINE
  5
25A4
  8
0
 10
576.2075462962075107
 20
30.5334138734606917
 30
0.0
 11
576.2047050048923893
 21
30.5284926125437117
 31
0.0
  0
LINE
  5
25A5
  8
0
 10
576.1792470414923173
 20
30.4843981264776787
 30
0.0
 11
576.1764057502060723
 21
30.4794768656106889
 31
0.0
  0
LINE
  5
25A6
  8
0
 10
576.2231165668481481
 20
30.5064453695106899
 30
0.0
 11
576.2174339865922548
 21
30.5064453695106899
 31
0.0
  0
LINE
  5
25A7
  8
0
 10
576.1665180597923381
 20
30.5064453695106899
 30
0.0
 11
576.1608354794364004
 21
30.5064453695106899
 31
0.0
  0
LINE
  5
25A8
  8
0
 10
576.1665180598212146
 20
30.4525083616606906
 30
0.0
 11
576.1792470415211938
 21
30.4745556046937089
 31
0.0
  0
LINE
  5
25A9
  8
0
 10
576.1792470415211938
 20
30.4745556046937089
 30
0.0
 11
576.2047050049211521
 21
30.4745556046937089
 31
0.0
  0
LINE
  5
25AA
  8
0
 10
576.2047050049211521
 20
30.4745556046937089
 30
0.0
 11
576.2174339866212449
 21
30.4525083616606906
 31
0.0
  0
LINE
  5
25AB
  8
0
 10
576.2174339866212449
 20
30.4525083616606906
 30
0.0
 11
576.2047050049211521
 21
30.4304611186276794
 31
0.0
  0
LINE
  5
25AC
  8
0
 10
576.2047050049211521
 20
30.4304611186276794
 30
0.0
 11
576.1792470415211938
 21
30.4304611186276794
 31
0.0
  0
LINE
  5
25AD
  8
0
 10
576.1792470415211938
 20
30.4304611186276794
 30
0.0
 11
576.1665180598212146
 21
30.4525083616606906
 31
0.0
  0
LINE
  5
25AE
  8
0
 10
576.1764057502060723
 20
30.4794768656106889
 30
0.0
 11
576.1792470415211938
 21
30.4745556046937089
 31
0.0
  0
LINE
  5
25AF
  8
0
 10
576.2047050049211521
 20
30.4304611186276794
 30
0.0
 11
576.2075462962362735
 21
30.4255398577106995
 31
0.0
  0
LINE
  5
25B0
  8
0
 10
576.2075462962362735
 20
30.4794768656106889
 30
0.0
 11
576.2047050049211521
 21
30.4745556046937089
 31
0.0
  0
LINE
  5
25B1
  8
0
 10
576.1792470415211938
 20
30.4304611186276794
 30
0.0
 11
576.1764057502349488
 21
30.4255398577606897
 31
0.0
  0
LINE
  5
25B2
  8
0
 10
576.2231165668771382
 20
30.4525083616606906
 30
0.0
 11
576.2174339866212449
 21
30.4525083616606906
 31
0.0
  0
LINE
  5
25B3
  8
0
 10
576.1665180598212146
 20
30.4525083616606906
 30
0.0
 11
576.1608354794652769
 21
30.4525083616606906
 31
0.0
  0
LINE
  5
25B4
  8
0
 10
576.166518059850091
 20
30.3985713538106914
 30
0.0
 11
576.1792470415500702
 21
30.4206185968437097
 31
0.0
  0
LINE
  5
25B5
  8
0
 10
576.1792470415500702
 20
30.4206185968437097
 30
0.0
 11
576.2047050049500285
 21
30.4206185968437097
 31
0.0
  0
LINE
  5
25B6
  8
0
 10
576.2047050049500285
 20
30.4206185968437097
 30
0.0
 11
576.2174339866501214
 21
30.3985713538106914
 31
0.0
  0
LINE
  5
25B7
  8
0
 10
576.2174339866501214
 20
30.3985713538106914
 30
0.0
 11
576.2047050049500285
 21
30.3765241107776802
 31
0.0
  0
LINE
  5
25B8
  8
0
 10
576.2047050049500285
 20
30.3765241107776802
 30
0.0
 11
576.1792470415500702
 21
30.3765241107776802
 31
0.0
  0
LINE
  5
25B9
  8
0
 10
576.1792470415500702
 20
30.3765241107776802
 30
0.0
 11
576.166518059850091
 21
30.3985713538106914
 31
0.0
  0
LINE
  5
25BA
  8
0
 10
576.1764057502349488
 20
30.4255398577606897
 30
0.0
 11
576.1792470415500702
 21
30.4206185968437097
 31
0.0
  0
LINE
  5
25BB
  8
0
 10
576.2047050049500285
 20
30.3765241107776802
 30
0.0
 11
576.20754629626515
 21
30.3716028498606896
 31
0.0
  0
LINE
  5
25BC
  8
0
 10
576.20754629626515
 20
30.4255398577606897
 30
0.0
 11
576.2047050049500285
 21
30.4206185968437097
 31
0.0
  0
LINE
  5
25BD
  8
0
 10
576.1792470415500702
 20
30.3765241107776802
 30
0.0
 11
576.1764057502638252
 21
30.3716028499106905
 31
0.0
  0
LINE
  5
25BE
  8
0
 10
576.2231165669060147
 20
30.3985713538106914
 30
0.0
 11
576.2174339866501214
 21
30.3985713538106914
 31
0.0
  0
LINE
  5
25BF
  8
0
 10
576.166518059850091
 20
30.3985713538106914
 30
0.0
 11
576.1608354794941533
 21
30.3985713538106914
 31
0.0
  0
LINE
  5
25C0
  8
0
 10
576.1665180598788538
 20
30.3446343459606886
 30
0.0
 11
576.1792470415789467
 21
30.3666815889937105
 31
0.0
  0
LINE
  5
25C1
  8
0
 10
576.1792470415789467
 20
30.3666815889937105
 30
0.0
 11
576.204705004978905
 21
30.3666815889937105
 31
0.0
  0
LINE
  5
25C2
  8
0
 10
576.204705004978905
 20
30.3666815889937105
 30
0.0
 11
576.2113400951199083
 21
30.3551892757567501
 31
0.0
  0
LINE
  5
25C3
  8
0
 10
576.175665832777895
 20
30.3287899385235704
 30
0.0
 11
576.1665180598788538
 21
30.3446343459606886
 31
0.0
  0
LINE
  5
25C4
  8
0
 10
576.1764057502638252
 20
30.3716028499106905
 30
0.0
 11
576.1792470415789467
 21
30.3666815889937105
 31
0.0
  0
LINE
  5
25C5
  8
0
 10
576.2075462962941401
 20
30.3716028499106905
 30
0.0
 11
576.204705004978905
 21
30.3666815889937105
 31
0.0
  0
LINE
  5
25C6
  8
0
 10
576.1665180598788538
 20
30.3446343459606886
 30
0.0
 11
576.1608354795230298
 21
30.3446343459606886
 31
0.0
  0
LINE
  5
25C7
  8
0
 10
576.213228876534572
 20
30.5334138734106908
 30
0.0
 11
576.2259578582345512
 21
30.5554611164437091
 31
0.0
  0
LINE
  5
25C8
  8
0
 10
576.2259578582345512
 20
30.5554611164437091
 30
0.0
 11
576.2514158216346232
 21
30.5554611164437091
 31
0.0
  0
LINE
  5
25C9
  8
0
 10
576.2514158216346232
 20
30.5554611164437091
 30
0.0
 11
576.2641448033344886
 21
30.5334138734106908
 31
0.0
  0
LINE
  5
25CA
  8
0
 10
576.2641448033344886
 20
30.5334138734106908
 30
0.0
 11
576.2514158216346232
 21
30.5113666303776796
 31
0.0
  0
LINE
  5
25CB
  8
0
 10
576.2514158216346232
 20
30.5113666303776796
 30
0.0
 11
576.2259578582345512
 21
30.5113666303776796
 31
0.0
  0
LINE
  5
25CC
  8
0
 10
576.2259578582345512
 20
30.5113666303776796
 30
0.0
 11
576.213228876534572
 21
30.5334138734106908
 31
0.0
  0
LINE
  5
25CD
  8
0
 10
576.2231165669194297
 20
30.5603823773606997
 30
0.0
 11
576.2259578582345512
 21
30.5554611164437091
 31
0.0
  0
LINE
  5
25CE
  8
0
 10
576.2514158216346232
 20
30.5113666303776796
 30
0.0
 11
576.2542571129497446
 21
30.506445369460689
 31
0.0
  0
LINE
  5
25CF
  8
0
 10
576.2542571129497446
 20
30.5603823773606997
 30
0.0
 11
576.2514158216346232
 21
30.5554611164437091
 31
0.0
  0
LINE
  5
25D0
  8
0
 10
576.2259578582345512
 20
30.5113666303776796
 30
0.0
 11
576.2231165669483062
 21
30.5064453695106899
 31
0.0
  0
LINE
  5
25D1
  8
0
 10
576.2698273835906093
 20
30.5334138734106908
 30
0.0
 11
576.2641448033344886
 21
30.5334138734106908
 31
0.0
  0
LINE
  5
25D2
  8
0
 10
576.213228876534572
 20
30.5334138734106908
 30
0.0
 11
576.2075462961786343
 21
30.5334138734106908
 31
0.0
  0
LINE
  5
25D3
  8
0
 10
576.2132288765056956
 20
30.58735088126069
 30
0.0
 11
576.2259578582057884
 21
30.6093981242937083
 31
0.0
  0
LINE
  5
25D4
  8
0
 10
576.2259578582057884
 20
30.6093981242937083
 30
0.0
 11
576.2514158216057467
 21
30.6093981242937083
 31
0.0
  0
LINE
  5
25D5
  8
0
 10
576.2514158216057467
 20
30.6093981242937083
 30
0.0
 11
576.2641448033057259
 21
30.58735088126069
 31
0.0
  0
LINE
  5
25D6
  8
0
 10
576.2641448033057259
 20
30.58735088126069
 30
0.0
 11
576.2514158216057467
 21
30.5653036382276788
 31
0.0
  0
LINE
  5
25D7
  8
0
 10
576.2514158216057467
 20
30.5653036382276788
 30
0.0
 11
576.2259578582057884
 21
30.5653036382276788
 31
0.0
  0
LINE
  5
25D8
  8
0
 10
576.2259578582057884
 20
30.5653036382276788
 30
0.0
 11
576.2132288765056956
 21
30.58735088126069
 31
0.0
  0
LINE
  5
25D9
  8
0
 10
576.2231165668905533
 20
30.6143193852106883
 30
0.0
 11
576.2259578582057884
 21
30.6093981242937083
 31
0.0
  0
LINE
  5
25DA
  8
0
 10
576.2514158216057467
 20
30.5653036382276788
 30
0.0
 11
576.2542571129207545
 21
30.5603823773106917
 31
0.0
  0
LINE
  5
25DB
  8
0
 10
576.2542571129207545
 20
30.6143193852106883
 30
0.0
 11
576.2514158216057467
 21
30.6093981242937083
 31
0.0
  0
LINE
  5
25DC
  8
0
 10
576.2259578582057884
 20
30.5653036382276788
 30
0.0
 11
576.2231165669194297
 21
30.5603823773606997
 31
0.0
  0
LINE
  5
25DD
  8
0
 10
576.2698273835617329
 20
30.58735088126069
 30
0.0
 11
576.2641448033057259
 21
30.58735088126069
 31
0.0
  0
LINE
  5
25DE
  8
0
 10
576.2132288765056956
 20
30.58735088126069
 30
0.0
 11
576.2075462961496441
 21
30.58735088126069
 31
0.0
  0
LINE
  5
25DF
  8
0
 10
576.2132288764767054
 20
30.6412878891106892
 30
0.0
 11
576.2259578581769119
 21
30.6633351321437111
 31
0.0
  0
LINE
  5
25E0
  8
0
 10
576.2259578581769119
 20
30.6633351321437111
 30
0.0
 11
576.2514158215767566
 21
30.6633351321437111
 31
0.0
  0
LINE
  5
25E1
  8
0
 10
576.2514158215767566
 20
30.6633351321437111
 30
0.0
 11
576.2641448032768494
 21
30.6412878891106892
 31
0.0
  0
LINE
  5
25E2
  8
0
 10
576.2641448032768494
 20
30.6412878891106892
 30
0.0
 11
576.2514158215767566
 21
30.6192406460776816
 31
0.0
  0
LINE
  5
25E3
  8
0
 10
576.2514158215767566
 20
30.6192406460776816
 30
0.0
 11
576.2259578581769119
 21
30.6192406460776816
 31
0.0
  0
LINE
  5
25E4
  8
0
 10
576.2259578581769119
 20
30.6192406460776816
 30
0.0
 11
576.2132288764767054
 21
30.6412878891106892
 31
0.0
  0
LINE
  5
25E5
  8
0
 10
576.2231165668615631
 20
30.6682563930606911
 30
0.0
 11
576.2259578581769119
 21
30.6633351321437111
 31
0.0
  0
LINE
  5
25E6
  8
0
 10
576.2514158215767566
 20
30.6192406460776816
 30
0.0
 11
576.254257112891878
 21
30.614319385160691
 31
0.0
  0
LINE
  5
25E7
  8
0
 10
576.2519969015520473
 20
30.6643415921841402
 30
0.0
 11
576.2514158215767566
 21
30.6633351321437111
 31
0.0
  0
LINE
  5
25E8
  8
0
 10
576.2259578581769119
 20
30.6192406460776816
 30
0.0
 11
576.2231165668905533
 21
30.6143193852106883
 31
0.0
  0
LINE
  5
25E9
  8
0
 10
576.2653071744427962
 20
30.6412878891106892
 30
0.0
 11
576.2641448032768494
 21
30.6412878891106892
 31
0.0
  0
LINE
  5
25EA
  8
0
 10
576.2132288764767054
 20
30.6412878891106892
 30
0.0
 11
576.2075462961208814
 21
30.6412878891106892
 31
0.0
  0
LINE
  5
25EB
  8
0
 10
576.2132288765634485
 20
30.4794768655606916
 30
0.0
 11
576.2259578582634276
 21
30.5015241085937099
 31
0.0
  0
LINE
  5
25EC
  8
0
 10
576.2259578582634276
 20
30.5015241085937099
 30
0.0
 11
576.2514158216633859
 21
30.5015241085937099
 31
0.0
  0
LINE
  5
25ED
  8
0
 10
576.2514158216633859
 20
30.5015241085937099
 30
0.0
 11
576.2641448033633651
 21
30.4794768655606916
 31
0.0
  0
LINE
  5
25EE
  8
0
 10
576.2641448033633651
 20
30.4794768655606916
 30
0.0
 11
576.2514158216633859
 21
30.4574296225276804
 31
0.0
  0
LINE
  5
25EF
  8
0
 10
576.2514158216633859
 20
30.4574296225276804
 30
0.0
 11
576.2259578582634276
 21
30.4574296225276804
 31
0.0
  0
LINE
  5
25F0
  8
0
 10
576.2259578582634276
 20
30.4574296225276804
 30
0.0
 11
576.2132288765634485
 21
30.4794768655606916
 31
0.0
  0
LINE
  5
25F1
  8
0
 10
576.2231165669483062
 20
30.5064453695106899
 30
0.0
 11
576.2259578582634276
 21
30.5015241085937099
 31
0.0
  0
LINE
  5
25F2
  8
0
 10
576.2514158216633859
 20
30.4574296225276804
 30
0.0
 11
576.2542571129785074
 21
30.4525083616106897
 31
0.0
  0
LINE
  5
25F3
  8
0
 10
576.2542571129785074
 20
30.5064453695106899
 30
0.0
 11
576.2514158216633859
 21
30.5015241085937099
 31
0.0
  0
LINE
  5
25F4
  8
0
 10
576.2259578582634276
 20
30.4574296225276804
 30
0.0
 11
576.2231165669771826
 21
30.4525083616606906
 31
0.0
  0
LINE
  5
25F5
  8
0
 10
576.2698273836193721
 20
30.4794768655606916
 30
0.0
 11
576.2641448033633651
 21
30.4794768655606916
 31
0.0
  0
LINE
  5
25F6
  8
0
 10
576.2132288765634485
 20
30.4794768655606916
 30
0.0
 11
576.2075462962075107
 21
30.4794768655606916
 31
0.0
  0
LINE
  5
25F7
  8
0
 10
576.2132288765923249
 20
30.4255398577106995
 30
0.0
 11
576.2259578582923041
 21
30.4475871007437107
 31
0.0
  0
LINE
  5
25F8
  8
0
 10
576.2259578582923041
 20
30.4475871007437107
 30
0.0
 11
576.2514158216922624
 21
30.4475871007437107
 31
0.0
  0
LINE
  5
25F9
  8
0
 10
576.2514158216922624
 20
30.4475871007437107
 30
0.0
 11
576.2641448033923552
 21
30.4255398577106995
 31
0.0
  0
LINE
  5
25FA
  8
0
 10
576.2641448033923552
 20
30.4255398577106995
 30
0.0
 11
576.2514158216922624
 21
30.4034926146776812
 31
0.0
  0
LINE
  5
25FB
  8
0
 10
576.2514158216922624
 20
30.4034926146776812
 30
0.0
 11
576.2259578582923041
 21
30.4034926146776812
 31
0.0
  0
LINE
  5
25FC
  8
0
 10
576.2259578582923041
 20
30.4034926146776812
 30
0.0
 11
576.2132288765923249
 21
30.4255398577106995
 31
0.0
  0
LINE
  5
25FD
  8
0
 10
576.2231165669771826
 20
30.4525083616606906
 30
0.0
 11
576.2259578582923041
 21
30.4475871007437107
 31
0.0
  0
LINE
  5
25FE
  8
0
 10
576.2514158216922624
 20
30.4034926146776812
 30
0.0
 11
576.2519969016134382
 21
30.4024861547310188
 31
0.0
  0
LINE
  5
25FF
  8
0
 10
576.2542571130074975
 20
30.4525083616606906
 30
0.0
 11
576.2514158216922624
 21
30.4475871007437107
 31
0.0
  0
LINE
  5
2600
  8
0
 10
576.2259578582923041
 20
30.4034926146776812
 30
0.0
 11
576.2231165670059454
 21
30.3985713538106914
 31
0.0
  0
LINE
  5
2601
  8
0
 10
576.2653071744427962
 20
30.4255398577106995
 30
0.0
 11
576.2641448033923552
 21
30.4255398577106995
 31
0.0
  0
LINE
  5
2602
  8
0
 10
576.2132288765923249
 20
30.4255398577106995
 30
0.0
 11
576.2075462962362735
 21
30.4255398577106995
 31
0.0
  0
LINE
  5
2603
  8
0
 10
576.2132288766212014
 20
30.3716028498606896
 30
0.0
 11
576.2259578583210669
 21
30.3936500928937114
 31
0.0
  0
LINE
  5
2604
  8
0
 10
576.2259578583210669
 20
30.3936500928937114
 30
0.0
 11
576.2459298093414191
 21
30.3936500928937114
 31
0.0
  0
LINE
  5
2605
  8
0
 10
576.2187245863563021
 20
30.3620840013757807
 30
0.0
 11
576.2132288766212014
 21
30.3716028498606896
 31
0.0
  0
LINE
  5
2606
  8
0
 10
576.2231165670059454
 20
30.3985713538106914
 30
0.0
 11
576.2259578583210669
 21
30.3936500928937114
 31
0.0
  0
LINE
  5
2607
  8
0
 10
576.2132288766212014
 20
30.3716028498606896
 30
0.0
 11
576.20754629626515
 21
30.3716028498606896
 31
0.0
  0
LINE
  5
2608
  8
0
 10
576.2599396933344451
 20
30.5064453695106899
 30
0.0
 11
576.2726686750346516
 21
30.5284926125437117
 31
0.0
  0
LINE
  5
2609
  8
0
 10
576.2726686750346516
 20
30.5284926125437117
 30
0.0
 11
576.2909658575275671
 21
30.5284926125437117
 31
0.0
  0
LINE
  5
260A
  8
0
 10
576.2859399385449706
 20
30.4843981264776787
 30
0.0
 11
576.2726686750346516
 21
30.4843981264776787
 31
0.0
  0
LINE
  5
260B
  8
0
 10
576.2726686750346516
 20
30.4843981264776787
 30
0.0
 11
576.2599396933344451
 21
30.5064453695106899
 31
0.0
  0
LINE
  5
260C
  8
0
 10
576.2698273837194165
 20
30.5334138734606917
 30
0.0
 11
576.2726686750346516
 21
30.5284926125437117
 31
0.0
  0
LINE
  5
260D
  8
0
 10
576.2726686750346516
 20
30.4843981264776787
 30
0.0
 11
576.2698273837481793
 21
30.4794768656106889
 31
0.0
  0
LINE
  5
260E
  8
0
 10
576.2599396933344451
 20
30.5064453695106899
 30
0.0
 11
576.2542571129785074
 21
30.5064453695106899
 31
0.0
  0
LINE
  5
260F
  8
0
 10
576.2599396933055687
 20
30.5603823773606997
 30
0.0
 11
576.2726686750056615
 21
30.5824296203937109
 31
0.0
  0
LINE
  5
2610
  8
0
 10
576.2726686750056615
 20
30.5824296203937109
 30
0.0
 11
576.2859399385346251
 21
30.5824296203937109
 31
0.0
  0
LINE
  5
2611
  8
0
 10
576.2909658575265439
 20
30.5383351343276814
 30
0.0
 11
576.2726686750056615
 21
30.5383351343276814
 31
0.0
  0
LINE
  5
2612
  8
0
 10
576.2726686750056615
 20
30.5383351343276814
 30
0.0
 11
576.2599396933055687
 21
30.5603823773606997
 31
0.0
  0
LINE
  5
2613
  8
0
 10
576.26982738369054
 20
30.5873508813106909
 30
0.0
 11
576.2726686750056615
 21
30.5824296203937109
 31
0.0
  0
LINE
  5
2614
  8
0
 10
576.2726686750056615
 20
30.5383351343276814
 30
0.0
 11
576.2698273837194165
 21
30.5334138734606917
 31
0.0
  0
LINE
  5
2615
  8
0
 10
576.2599396933055687
 20
30.5603823773606997
 30
0.0
 11
576.2542571129497446
 21
30.5603823773606997
 31
0.0
  0
LINE
  5
2616
  8
0
 10
576.2599396932769196
 20
30.6143193852106883
 30
0.0
 11
576.2699258794903017
 21
30.6316159671061889
 31
0.0
  0
LINE
  5
2617
  8
0
 10
576.2836610456141671
 20
30.5922721421776806
 30
0.0
 11
576.272668674976785
 21
30.5922721421776806
 31
0.0
  0
LINE
  5
2618
  8
0
 10
576.272668674976785
 20
30.5922721421776806
 30
0.0
 11
576.2599396932769196
 21
30.6143193852106883
 31
0.0
  0
LINE
  5
2619
  8
0
 10
576.272668674976785
 20
30.5922721421776806
 30
0.0
 11
576.26982738369054
 21
30.5873508813106909
 31
0.0
  0
LINE
  5
261A
  8
0
 10
576.2599396932769196
 20
30.6143193852106883
 30
0.0
 11
576.2542571129207545
 21
30.6143193852106883
 31
0.0
  0
LINE
  5
261B
  8
0
 10
576.2599396933634353
 20
30.4525083616606906
 30
0.0
 11
576.2726686750635281
 21
30.4745556046937089
 31
0.0
  0
LINE
  5
261C
  8
0
 10
576.2726686750635281
 20
30.4745556046937089
 30
0.0
 11
576.2836610456270137
 21
30.4745556046937089
 31
0.0
  0
LINE
  5
261D
  8
0
 10
576.2699258795407786
 20
30.4352117798275614
 30
0.0
 11
576.2599396933634353
 21
30.4525083616606906
 31
0.0
  0
LINE
  5
261E
  8
0
 10
576.2698273837481793
 20
30.4794768656106889
 30
0.0
 11
576.2726686750635281
 21
30.4745556046937089
 31
0.0
  0
LINE
  5
261F
  8
0
 10
576.2599396933634353
 20
30.4525083616606906
 30
0.0
 11
576.2542571130074975
 21
30.4525083616606906
 31
0.0
  0
LINE
  5
2620
  8
0
 10
576.0730964262346561
 20
30.7221934009107009
 30
0.0
 11
576.0858254079346352
 21
30.7442406439437086
 31
0.0
  0
LINE
  5
2621
  8
0
 10
576.0858254079346352
 20
30.7442406439437086
 30
0.0
 11
576.1112833713345935
 21
30.7442406439437086
 31
0.0
  0
LINE
  5
2622
  8
0
 10
576.1112833713345935
 20
30.7442406439437086
 30
0.0
 11
576.124012353034459
 21
30.7221934009107009
 31
0.0
  0
LINE
  5
2623
  8
0
 10
576.124012353034459
 20
30.7221934009107009
 30
0.0
 11
576.1112833713345935
 21
30.7001461578776791
 31
0.0
  0
LINE
  5
2624
  8
0
 10
576.1112833713345935
 20
30.7001461578776791
 30
0.0
 11
576.0858254079346352
 21
30.7001461578776791
 31
0.0
  0
LINE
  5
2625
  8
0
 10
576.0858254079346352
 20
30.7001461578776791
 30
0.0
 11
576.0730964262346561
 21
30.7221934009107009
 31
0.0
  0
LINE
  5
2626
  8
0
 10
576.0829841166192864
 20
30.7491619048606992
 30
0.0
 11
576.0858254079346352
 21
30.7442406439437086
 31
0.0
  0
LINE
  5
2627
  8
0
 10
576.1112833713345935
 20
30.7001461578776791
 30
0.0
 11
576.1141246626498287
 21
30.6952248969606991
 31
0.0
  0
LINE
  5
2628
  8
0
 10
576.1141246626498287
 20
30.7491619048606992
 30
0.0
 11
576.1112833713345935
 21
30.7442406439437086
 31
0.0
  0
LINE
  5
2629
  8
0
 10
576.0858254079346352
 20
30.7001461578776791
 30
0.0
 11
576.0829841166481629
 21
30.6952248970107
 31
0.0
  0
LINE
  5
262A
  8
0
 10
576.1296949332905797
 20
30.7221934009107009
 30
0.0
 11
576.124012353034459
 21
30.7221934009107009
 31
0.0
  0
LINE
  5
262B
  8
0
 10
576.0730964262346561
 20
30.7221934009107009
 30
0.0
 11
576.0674138458786047
 21
30.7221934009107009
 31
0.0
  0
LINE
  5
262C
  8
0
 10
576.1167783353014329
 20
30.7636007225539387
 30
0.0
 11
576.1112833713057171
 21
30.7540831657276783
 31
0.0
  0
LINE
  5
262D
  8
0
 10
576.1112833713057171
 20
30.7540831657276783
 30
0.0
 11
576.0858254079057588
 21
30.7540831657276783
 31
0.0
  0
LINE
  5
262E
  8
0
 10
576.0858254079057588
 20
30.7540831657276783
 30
0.0
 11
576.0758409170382492
 21
30.7713768111979604
 31
0.0
  0
LINE
  5
262F
  8
0
 10
576.1112833713057171
 20
30.7540831657276783
 30
0.0
 11
576.1141246626209522
 21
30.7491619048106983
 31
0.0
  0
LINE
  5
2630
  8
0
 10
576.0858254079057588
 20
30.7540831657276783
 30
0.0
 11
576.0829841166192864
 21
30.7491619048606992
 31
0.0
  0
LINE
  5
2631
  8
0
 10
576.0730964262922953
 20
30.6143193852106883
 30
0.0
 11
576.0858254079923881
 21
30.6363666282437102
 31
0.0
  0
LINE
  5
2632
  8
0
 10
576.0858254079923881
 20
30.6363666282437102
 30
0.0
 11
576.1112833713923465
 21
30.6363666282437102
 31
0.0
  0
LINE
  5
2633
  8
0
 10
576.1112833713923465
 20
30.6363666282437102
 30
0.0
 11
576.1240123530923256
 21
30.6143193852106883
 31
0.0
  0
LINE
  5
2634
  8
0
 10
576.1240123530923256
 20
30.6143193852106883
 30
0.0
 11
576.1112833713923465
 21
30.5922721421776806
 31
0.0
  0
LINE
  5
2635
  8
0
 10
576.1112833713923465
 20
30.5922721421776806
 30
0.0
 11
576.0858254079923881
 21
30.5922721421776806
 31
0.0
  0
LINE
  5
2636
  8
0
 10
576.0858254079923881
 20
30.5922721421776806
 30
0.0
 11
576.0730964262922953
 21
30.6143193852106883
 31
0.0
  0
LINE
  5
2637
  8
0
 10
576.082984116677153
 20
30.6412878891606901
 30
0.0
 11
576.0858254079923881
 21
30.6363666282437102
 31
0.0
  0
LINE
  5
2638
  8
0
 10
576.1112833713923465
 20
30.5922721421776806
 30
0.0
 11
576.1141246627073542
 21
30.58735088126069
 31
0.0
  0
LINE
  5
2639
  8
0
 10
576.1141246627073542
 20
30.6412878891606901
 30
0.0
 11
576.1112833713923465
 21
30.6363666282437102
 31
0.0
  0
LINE
  5
263A
  8
0
 10
576.0858254079923881
 20
30.5922721421776806
 30
0.0
 11
576.0829841167060295
 21
30.5873508813106909
 31
0.0
  0
LINE
  5
263B
  8
0
 10
576.1296949333483326
 20
30.6143193852106883
 30
0.0
 11
576.1240123530923256
 21
30.6143193852106883
 31
0.0
  0
LINE
  5
263C
  8
0
 10
576.0730964262922953
 20
30.6143193852106883
 30
0.0
 11
576.0674138459362439
 21
30.6143193852106883
 31
0.0
  0
LINE
  5
263D
  8
0
 10
576.0730964263211717
 20
30.5603823773606997
 30
0.0
 11
576.0858254080211509
 21
30.5824296203937109
 31
0.0
  0
LINE
  5
263E
  8
0
 10
576.0858254080211509
 20
30.5824296203937109
 30
0.0
 11
576.1112833714212229
 21
30.5824296203937109
 31
0.0
  0
LINE
  5
263F
  8
0
 10
576.1112833714212229
 20
30.5824296203937109
 30
0.0
 11
576.1240123531210884
 21
30.5603823773606997
 31
0.0
  0
LINE
  5
2640
  8
0
 10
576.1240123531210884
 20
30.5603823773606997
 30
0.0
 11
576.1112833714212229
 21
30.5383351343276814
 31
0.0
  0
LINE
  5
2641
  8
0
 10
576.1112833714212229
 20
30.5383351343276814
 30
0.0
 11
576.0858254080211509
 21
30.5383351343276814
 31
0.0
  0
LINE
  5
2642
  8
0
 10
576.0858254080211509
 20
30.5383351343276814
 30
0.0
 11
576.0730964263211717
 21
30.5603823773606997
 31
0.0
  0
LINE
  5
2643
  8
0
 10
576.0829841167060295
 20
30.5873508813106909
 30
0.0
 11
576.0858254080211509
 21
30.5824296203937109
 31
0.0
  0
LINE
  5
2644
  8
0
 10
576.1112833714212229
 20
30.5383351343276814
 30
0.0
 11
576.1141246627363444
 21
30.5334138734106908
 31
0.0
  0
LINE
  5
2645
  8
0
 10
576.1141246627363444
 20
30.5873508813106909
 30
0.0
 11
576.1112833714212229
 21
30.5824296203937109
 31
0.0
  0
LINE
  5
2646
  8
0
 10
576.0858254080211509
 20
30.5383351343276814
 30
0.0
 11
576.0829841167349059
 21
30.5334138734606917
 31
0.0
  0
LINE
  5
2647
  8
0
 10
576.1296949333772091
 20
30.5603823773606997
 30
0.0
 11
576.1240123531210884
 21
30.5603823773606997
 31
0.0
  0
LINE
  5
2648
  8
0
 10
576.0730964263211717
 20
30.5603823773606997
 30
0.0
 11
576.067413845965234
 21
30.5603823773606997
 31
0.0
  0
LINE
  5
2649
  8
0
 10
576.0730964263500482
 20
30.5064453695106899
 30
0.0
 11
576.0858254080500274
 21
30.5284926125437117
 31
0.0
  0
LINE
  5
264A
  8
0
 10
576.0858254080500274
 20
30.5284926125437117
 30
0.0
 11
576.1112833714499857
 21
30.5284926125437117
 31
0.0
  0
LINE
  5
264B
  8
0
 10
576.1112833714499857
 20
30.5284926125437117
 30
0.0
 11
576.1240123531499648
 21
30.5064453695106899
 31
0.0
  0
LINE
  5
264C
  8
0
 10
576.1240123531499648
 20
30.5064453695106899
 30
0.0
 11
576.1112833714499857
 21
30.4843981264776787
 31
0.0
  0
LINE
  5
264D
  8
0
 10
576.1112833714499857
 20
30.4843981264776787
 30
0.0
 11
576.0858254080500274
 21
30.4843981264776787
 31
0.0
  0
LINE
  5
264E
  8
0
 10
576.0858254080500274
 20
30.4843981264776787
 30
0.0
 11
576.0730964263500482
 21
30.5064453695106899
 31
0.0
  0
LINE
  5
264F
  8
0
 10
576.0829841167349059
 20
30.5334138734606917
 30
0.0
 11
576.0858254080500274
 21
30.5284926125437117
 31
0.0
  0
LINE
  5
2650
  8
0
 10
576.1112833714499857
 20
30.4843981264776787
 30
0.0
 11
576.1141246627651071
 21
30.4794768655606916
 31
0.0
  0
LINE
  5
2651
  8
0
 10
576.1141246627651071
 20
30.5334138734606917
 30
0.0
 11
576.1112833714499857
 21
30.5284926125437117
 31
0.0
  0
LINE
  5
2652
  8
0
 10
576.0858254080500274
 20
30.4843981264776787
 30
0.0
 11
576.0829841167636687
 21
30.4794768656106889
 31
0.0
  0
LINE
  5
2653
  8
0
 10
576.1296949334059718
 20
30.5064453695106899
 30
0.0
 11
576.1240123531499648
 21
30.5064453695106899
 31
0.0
  0
LINE
  5
2654
  8
0
 10
576.0730964263500482
 20
30.5064453695106899
 30
0.0
 11
576.0674138459941105
 21
30.5064453695106899
 31
0.0
  0
LINE
  5
2655
  8
0
 10
576.0730964263789247
 20
30.4525083616606906
 30
0.0
 11
576.0858254080789038
 21
30.4745556046937089
 31
0.0
  0
LINE
  5
2656
  8
0
 10
576.0858254080789038
 20
30.4745556046937089
 30
0.0
 11
576.1112833714788621
 21
30.4745556046937089
 31
0.0
  0
LINE
  5
2657
  8
0
 10
576.1112833714788621
 20
30.4745556046937089
 30
0.0
 11
576.124012353178955
 21
30.4525083616606906
 31
0.0
  0
LINE
  5
2658
  8
0
 10
576.124012353178955
 20
30.4525083616606906
 30
0.0
 11
576.1112833714788621
 21
30.4304611186276794
 31
0.0
  0
LINE
  5
2659
  8
0
 10
576.1112833714788621
 20
30.4304611186276794
 30
0.0
 11
576.0858254080789038
 21
30.4304611186276794
 31
0.0
  0
LINE
  5
265A
  8
0
 10
576.0858254080789038
 20
30.4304611186276794
 30
0.0
 11
576.0730964263789247
 21
30.4525083616606906
 31
0.0
  0
LINE
  5
265B
  8
0
 10
576.0829841167636687
 20
30.4794768656106889
 30
0.0
 11
576.0858254080789038
 21
30.4745556046937089
 31
0.0
  0
LINE
  5
265C
  8
0
 10
576.1112833714788621
 20
30.4304611186276794
 30
0.0
 11
576.1141246627940973
 21
30.4255398577106995
 31
0.0
  0
LINE
  5
265D
  8
0
 10
576.1141246627940973
 20
30.4794768656106889
 30
0.0
 11
576.1112833714788621
 21
30.4745556046937089
 31
0.0
  0
LINE
  5
265E
  8
0
 10
576.0858254080789038
 20
30.4304611186276794
 30
0.0
 11
576.0829841167925451
 21
30.4255398577606897
 31
0.0
  0
LINE
  5
265F
  8
0
 10
576.1296949334348483
 20
30.4525083616606906
 30
0.0
 11
576.124012353178955
 21
30.4525083616606906
 31
0.0
  0
LINE
  5
2660
  8
0
 10
576.0730964263789247
 20
30.4525083616606906
 30
0.0
 11
576.0674138460228733
 21
30.4525083616606906
 31
0.0
  0
LINE
  5
2661
  8
0
 10
576.0730964264078011
 20
30.3985713538106914
 30
0.0
 11
576.0858254081076666
 21
30.4206185968437097
 31
0.0
  0
LINE
  5
2662
  8
0
 10
576.0858254081076666
 20
30.4206185968437097
 30
0.0
 11
576.1112833715078523
 21
30.4206185968437097
 31
0.0
  0
LINE
  5
2663
  8
0
 10
576.1112833715078523
 20
30.4206185968437097
 30
0.0
 11
576.1240123532078314
 21
30.3985713538106914
 31
0.0
  0
LINE
  5
2664
  8
0
 10
576.1240123532078314
 20
30.3985713538106914
 30
0.0
 11
576.1112833715078523
 21
30.3765241107776802
 31
0.0
  0
LINE
  5
2665
  8
0
 10
576.1112833715078523
 20
30.3765241107776802
 30
0.0
 11
576.0858254081076666
 21
30.3765241107776802
 31
0.0
  0
LINE
  5
2666
  8
0
 10
576.0858254081076666
 20
30.3765241107776802
 30
0.0
 11
576.0730964264078011
 21
30.3985713538106914
 31
0.0
  0
LINE
  5
2667
  8
0
 10
576.0829841167925451
 20
30.4255398577606897
 30
0.0
 11
576.0858254081076666
 21
30.4206185968437097
 31
0.0
  0
LINE
  5
2668
  8
0
 10
576.1112833715078523
 20
30.3765241107776802
 30
0.0
 11
576.1141246628229737
 21
30.3716028498606896
 31
0.0
  0
LINE
  5
2669
  8
0
 10
576.1141246628229737
 20
30.4255398577606897
 30
0.0
 11
576.1112833715078523
 21
30.4206185968437097
 31
0.0
  0
LINE
  5
266A
  8
0
 10
576.0858254081076666
 20
30.3765241107776802
 30
0.0
 11
576.0829841168215353
 21
30.3716028499106905
 31
0.0
  0
LINE
  5
266B
  8
0
 10
576.1296949334637247
 20
30.3985713538106914
 30
0.0
 11
576.1240123532078314
 21
30.3985713538106914
 31
0.0
  0
LINE
  5
266C
  8
0
 10
576.0730964264078011
 20
30.3985713538106914
 30
0.0
 11
576.0674138460517497
 21
30.3985713538106914
 31
0.0
  0
LINE
  5
266D
  8
0
 10
576.0730964264365639
 20
30.3446343459606886
 30
0.0
 11
576.0858254081366567
 21
30.3666815889937105
 31
0.0
  0
LINE
  5
266E
  8
0
 10
576.0858254081366567
 20
30.3666815889937105
 30
0.0
 11
576.1112833715367287
 21
30.3666815889937105
 31
0.0
  0
LINE
  5
266F
  8
0
 10
576.1112833715367287
 20
30.3666815889937105
 30
0.0
 11
576.1240123532367079
 21
30.3446343459606886
 31
0.0
  0
LINE
  5
2670
  8
0
 10
576.1240123532367079
 20
30.3446343459606886
 30
0.0
 11
576.1112833715367287
 21
30.322587102927681
 31
0.0
  0
LINE
  5
2671
  8
0
 10
576.1112833715367287
 20
30.322587102927681
 30
0.0
 11
576.0858254081366567
 21
30.322587102927681
 31
0.0
  0
LINE
  5
2672
  8
0
 10
576.0858254081366567
 20
30.322587102927681
 30
0.0
 11
576.0730964264365639
 21
30.3446343459606886
 31
0.0
  0
LINE
  5
2673
  8
0
 10
576.0829841168215353
 20
30.3716028499106905
 30
0.0
 11
576.0858254081366567
 21
30.3666815889937105
 31
0.0
  0
LINE
  5
2674
  8
0
 10
576.1112833715367287
 20
30.322587102927681
 30
0.0
 11
576.1141246628518502
 21
30.3176658420106904
 31
0.0
  0
LINE
  5
2675
  8
0
 10
576.1141246628518502
 20
30.3716028499106905
 30
0.0
 11
576.1112833715367287
 21
30.3666815889937105
 31
0.0
  0
LINE
  5
2676
  8
0
 10
576.0858254081366567
 20
30.322587102927681
 30
0.0
 11
576.0829841168502981
 21
30.3176658420606913
 31
0.0
  0
LINE
  5
2677
  8
0
 10
576.1296949334924875
 20
30.3446343459606886
 30
0.0
 11
576.1240123532367079
 21
30.3446343459606886
 31
0.0
  0
LINE
  5
2678
  8
0
 10
576.0730964264365639
 20
30.3446343459606886
 30
0.0
 11
576.0674138460807399
 21
30.3446343459606886
 31
0.0
  0
LINE
  5
2679
  8
0
 10
576.0758409172834718
 20
30.2954509356481587
 30
0.0
 11
576.0858254081366567
 21
30.3127445810937104
 31
0.0
  0
LINE
  5
267A
  8
0
 10
576.0858254081366567
 20
30.3127445810937104
 30
0.0
 11
576.1112833715367287
 21
30.3127445810937104
 31
0.0
  0
LINE
  5
267B
  8
0
 10
576.1112833715367287
 20
30.3127445810937104
 30
0.0
 11
576.1167783355000438
 21
30.3032270243234692
 31
0.0
  0
LINE
  5
267C
  8
0
 10
576.0829841168215353
 20
30.3176658420106904
 30
0.0
 11
576.0858254081366567
 21
30.3127445810937104
 31
0.0
  0
LINE
  5
267D
  8
0
 10
576.1141246628518502
 20
30.3176658420106904
 30
0.0
 11
576.1112833715367287
 21
30.3127445810937104
 31
0.0
  0
LINE
  5
267E
  8
0
 10
576.0645725547210532
 20
30.6633351321937084
 30
0.0
 11
576.077301536421146
 21
30.6412878891606901
 31
0.0
  0
LINE
  5
267F
  8
0
 10
576.077301536421146
 20
30.6412878891606901
 30
0.0
 11
576.0645725547210532
 21
30.6192406461276789
 31
0.0
  0
LINE
  5
2680
  8
0
 10
576.0645725547210532
 20
30.6192406461276789
 30
0.0
 11
576.0674138460362883
 21
30.6143193852106883
 31
0.0
  0
LINE
  5
2681
  8
0
 10
576.0674138460362883
 20
30.6682563931106884
 30
0.0
 11
576.0645725547210532
 21
30.6633351321937084
 31
0.0
  0
LINE
  5
2682
  8
0
 10
576.082984116677153
 20
30.6412878891606901
 30
0.0
 11
576.077301536421146
 21
30.6412878891606901
 31
0.0
  0
LINE
  5
2683
  8
0
 10
576.0645725546922904
 20
30.7172721400437112
 30
0.0
 11
576.0773015363922696
 21
30.6952248970107
 31
0.0
  0
LINE
  5
2684
  8
0
 10
576.0773015363922696
 20
30.6952248970107
 30
0.0
 11
576.0645725546922904
 21
30.6731776539776817
 31
0.0
  0
LINE
  5
2685
  8
0
 10
576.0645725546922904
 20
30.6731776539776817
 30
0.0
 11
576.0674138460075255
 21
30.6682563930606911
 31
0.0
  0
LINE
  5
2686
  8
0
 10
576.0674138460075255
 20
30.7221934009606983
 30
0.0
 11
576.0645725546922904
 21
30.7172721400437112
 31
0.0
  0
LINE
  5
2687
  8
0
 10
576.0829841166481629
 20
30.6952248970107
 30
0.0
 11
576.0773015363922696
 21
30.6952248970107
 31
0.0
  0
LINE
  5
2688
  8
0
 10
576.0645725546635276
 20
30.7712091478937104
 30
0.0
 11
576.0773015363635068
 21
30.7491619048606992
 31
0.0
  0
LINE
  5
2689
  8
0
 10
576.0773015363635068
 20
30.7491619048606992
 30
0.0
 11
576.0645725546635276
 21
30.7271146618276809
 31
0.0
  0
LINE
  5
268A
  8
0
 10
576.0645725546635276
 20
30.7271146618276809
 30
0.0
 11
576.0674138459786491
 21
30.7221934009107009
 31
0.0
  0
LINE
  5
268B
  8
0
 10
576.0651521518338996
 20
30.7722130396411018
 30
0.0
 11
576.0645725546635276
 21
30.7712091478937104
 31
0.0
  0
LINE
  5
268C
  8
0
 10
576.0829841166192864
 20
30.7491619048606992
 30
0.0
 11
576.0773015363635068
 21
30.7491619048606992
 31
0.0
  0
LINE
  5
268D
  8
0
 10
576.0645725547500433
 20
30.6093981243437092
 30
0.0
 11
576.0773015364500225
 21
30.5873508813106909
 31
0.0
  0
LINE
  5
268E
  8
0
 10
576.0773015364500225
 20
30.5873508813106909
 30
0.0
 11
576.0645725547500433
 21
30.5653036382776797
 31
0.0
  0
LINE
  5
268F
  8
0
 10
576.0645725547500433
 20
30.5653036382776797
 30
0.0
 11
576.0674138460651648
 21
30.5603823773606997
 31
0.0
  0
LINE
  5
2690
  8
0
 10
576.0674138460651648
 20
30.6143193852606892
 30
0.0
 11
576.0645725547500433
 21
30.6093981243437092
 31
0.0
  0
LINE
  5
2691
  8
0
 10
576.0829841167060295
 20
30.5873508813106909
 30
0.0
 11
576.0773015364500225
 21
30.5873508813106909
 31
0.0
  0
LINE
  5
2692
  8
0
 10
576.0645725548076825
 20
30.5015241086437108
 30
0.0
 11
576.0773015365076617
 21
30.4794768656106889
 31
0.0
  0
LINE
  5
2693
  8
0
 10
576.0773015365076617
 20
30.4794768656106889
 30
0.0
 11
576.0645725548076825
 21
30.4574296225776813
 31
0.0
  0
LINE
  5
2694
  8
0
 10
576.0645725548076825
 20
30.4574296225776813
 30
0.0
 11
576.0674138461230314
 21
30.4525083616606906
 31
0.0
  0
LINE
  5
2695
  8
0
 10
576.0674138461230314
 20
30.5064453695606908
 30
0.0
 11
576.0645725548076825
 21
30.5015241086437108
 31
0.0
  0
LINE
  5
2696
  8
0
 10
576.0829841167636687
 20
30.4794768656106889
 30
0.0
 11
576.0773015365076617
 21
30.4794768656106889
 31
0.0
  0
LINE
  5
2697
  8
0
 10
576.064572554836559
 20
30.4475871007937116
 30
0.0
 11
576.0773015365366518
 21
30.4255398577606897
 31
0.0
  0
LINE
  5
2698
  8
0
 10
576.0773015365366518
 20
30.4255398577606897
 30
0.0
 11
576.064572554836559
 21
30.4034926147276785
 31
0.0
  0
LINE
  5
2699
  8
0
 10
576.064572554836559
 20
30.4034926147276785
 30
0.0
 11
576.0674138461519078
 21
30.3985713538106914
 31
0.0
  0
LINE
  5
269A
  8
0
 10
576.0674138461519078
 20
30.4525083617106915
 30
0.0
 11
576.064572554836559
 21
30.4475871007937116
 31
0.0
  0
LINE
  5
269B
  8
0
 10
576.0829841167925451
 20
30.4255398577606897
 30
0.0
 11
576.0773015365366518
 21
30.4255398577606897
 31
0.0
  0
LINE
  5
269C
  8
0
 10
576.0645725548655491
 20
30.3936500929437088
 30
0.0
 11
576.0773015365655283
 21
30.3716028499106905
 31
0.0
  0
LINE
  5
269D
  8
0
 10
576.0773015365655283
 20
30.3716028499106905
 30
0.0
 11
576.0645725548655491
 21
30.3495556068776793
 31
0.0
  0
LINE
  5
269E
  8
0
 10
576.0645725548655491
 20
30.3495556068776793
 30
0.0
 11
576.0674138461806706
 21
30.3446343459606886
 31
0.0
  0
LINE
  5
269F
  8
0
 10
576.0674138461806706
 20
30.3985713538606994
 30
0.0
 11
576.0645725548655491
 21
30.3936500929437088
 31
0.0
  0
LINE
  5
26A0
  8
0
 10
576.0829841168215353
 20
30.3716028499106905
 30
0.0
 11
576.0773015365655283
 21
30.3716028499106905
 31
0.0
  0
LINE
  5
26A1
  8
0
 10
576.0645725548944256
 20
30.3397130850937096
 30
0.0
 11
576.0773015365944048
 21
30.3176658420606913
 31
0.0
  0
LINE
  5
26A2
  8
0
 10
576.0773015365944048
 20
30.3176658420606913
 30
0.0
 11
576.0645725548944256
 21
30.2956185990276801
 31
0.0
  0
LINE
  5
26A3
  8
0
 10
576.0645725548944256
 20
30.2956185990276801
 30
0.0
 11
576.0651521521137965
 21
30.2946147071958798
 31
0.0
  0
LINE
  5
26A4
  8
0
 10
576.067413846209547
 20
30.3446343460106895
 30
0.0
 11
576.0645725548944256
 21
30.3397130850937096
 31
0.0
  0
LINE
  5
26A5
  8
0
 10
576.0829841168502981
 20
30.3176658420606913
 30
0.0
 11
576.0773015365944048
 21
30.3176658420606913
 31
0.0
  0
LINE
  5
26A6
  8
0
 10
575.8904582697521164
 20
30.6952248969606991
 30
0.0
 11
575.8849625599186766
 21
30.7047437456159393
 31
0.0
  0
LINE
  5
26A7
  8
0
 10
575.8577573367587092
 20
30.6731776539276808
 30
0.0
 11
575.8777292880521372
 21
30.6731776539276808
 31
0.0
  0
LINE
  5
26A8
  8
0
 10
575.8777292880521372
 20
30.6731776539276808
 30
0.0
 11
575.8904582697521164
 21
30.6952248969606991
 31
0.0
  0
LINE
  5
26A9
  8
0
 10
575.8777292880521372
 20
30.6731776539276808
 30
0.0
 11
575.8805705793384959
 21
30.6682563930606911
 31
0.0
  0
LINE
  5
26AA
  8
0
 10
575.8904582697521164
 20
30.6952248969606991
 30
0.0
 11
575.8961408501080541
 21
30.6952248969606991
 31
0.0
  0
LINE
  5
26AB
  8
0
 10
576.2132288764056511
 20
30.6952248969606991
 30
0.0
 11
576.218724586239091
 21
30.7047437456159393
 31
0.0
  0
LINE
  5
26AC
  8
0
 10
576.2459298093990583
 20
30.6731776539276808
 30
0.0
 11
576.225957858105744
 21
30.6731776539276808
 31
0.0
  0
LINE
  5
26AD
  8
0
 10
576.225957858105744
 20
30.6731776539276808
 30
0.0
 11
576.2132288764056511
 21
30.6952248969606991
 31
0.0
  0
LINE
  5
26AE
  8
0
 10
576.225957858105744
 20
30.6731776539276808
 30
0.0
 11
576.2231165668192716
 21
30.6682563930606911
 31
0.0
  0
LINE
  5
26AF
  8
0
 10
576.2132288764056511
 20
30.6952248969606991
 30
0.0
 11
576.2075462960498271
 21
30.6952248969606991
 31
0.0
  0
LINE
  5
26B0
  8
0
 10
580.5523772844654786
 20
28.9976574324107013
 30
0.0
 11
580.5523772844654786
 21
29.0826574324106986
 31
0.0
  0
LINE
  5
26B1
  8
0
 10
580.5523772844654786
 20
29.1459417025107008
 30
0.0
 11
580.5523772844654786
 21
36.1576574324106801
 31
0.0
  0
LINE
  5
26B2
  8
0
 10
580.4873772844655377
 20
29.117657429910679
 30
0.0
 11
580.4873772844655377
 21
29.1126574324106997
 31
0.0
  0
ARC
  5
26B3
  8
0
 10
580.5223772844656196
 20
29.0826574324106986
 30
0.0
 40
0.03
 50
0.0
 51
90.0
  0
ARC
  5
26B4
  8
0
 10
580.5223772840580523
 20
29.1459417026401901
 30
0.0
 40
0.0300000004074216
 50
289.4712217923217281
 51
359.9999997526859943
  0
ARC
  5
26B5
  8
0
 10
580.5223772852764341
 20
34.1826574315997505
 30
0.0
 40
0.0299999991890441
 50
269.9999984511869116
 51
0.0000015487868268
  0
ARC
  5
26B6
  8
0
 10
580.0523772844654786
 20
36.1576574324106801
 30
0.0
 40
0.500000000000001
 50
0.0
 51
180.0
  0
LINE
  5
26B7
  8
0
 10
581.867548472557246
 20
27.7471986936445987
 30
0.0
 11
581.8675475270476909
 21
28.4670850226980612
 31
0.0
  0
LINE
  5
26B9
  8
0
 10
581.8274560245655493
 20
28.4150078261106884
 30
0.0
 11
581.8274560245655493
 21
27.0800078261106911
 31
0.0
  0
LINE
  5
26BA
  8
0
 10
575.4996673307159654
 20
26.2722909085892304
 30
0.0
 11
575.4996673307159654
 21
25.6816538712755715
 31
0.0
  0
LINE
  5
26BB
  8
0
 10
575.4996673307159654
 20
26.302657432410701
 30
0.0
 11
575.4996673307159654
 21
30.5346571350939087
 31
0.0
  0
ARC
  5
26BC
  8
0
 10
576.834975400003259
 20
25.6825473043624797
 30
0.0
 40
0.229889897958104
 50
180.2226721334571948
 51
270.0272531523471002
  0
ARC
  5
26BD
  8
0
 10
576.5694222681363499
 20
26.266687207625921
 30
0.0
 40
0.0361025144626145
 50
8.9293447658420835
 51
85.0935815116583143
  0
LINE
  5
26BE
  8
0
 10
576.605087238149622
 20
26.2722909085892304
 30
0.0
 11
576.605087238149622
 21
25.6816538712755715
 31
0.0
  0
LINE
  5
26BF
  8
0
 10
576.605087238149622
 20
26.302657432410701
 30
0.0
 11
576.605087238149622
 21
30.5346571350939087
 31
0.0
  0
CIRCLE
  5
26C0
  8
0
 10
576.0523772844328505
 20
30.5346571350939087
 30
0.0
 40
0.5527099537167713
  0
ENDSEC
  0
EOF
