  0
SECTION
  2
HEADER
  9
$ACADVER
  1
AC1009
  9
$INSBASE
 10
45.7813769705446774
 20
20.9161040547838688
 30
0.0
  9
$EXTMIN
 10
37.280835190395841
 20
20.9143630813764112
 30
-0.0000000349181948
  9
$EXTMAX
 10
46.7822783122559471
 20
32.3017413024370086
 30
0.0000000814935746
  9
$LIMMIN
 10
0.0
 20
0.0
  9
$LIMMAX
 10
22.0
 20
17.0
  9
$ORTHOMODE
 70
     0
  9
$REGENMODE
 70
     1
  9
$FILLMODE
 70
     1
  9
$QTEXTMODE
 70
     0
  9
$MIRRTEXT
 70
     0
  9
$DRAGMODE
 70
     2
  9
$LTSCALE
 40
1.2099999999999991
  9
$OSMODE
 70
  4095
  9
$ATTMODE
 70
     1
  9
$TEXTSIZE
 40
0.2
  9
$TRACEWID
 40
0.05
  9
$TEXTSTYLE
  7
STANDARD
  9
$CLAYER
  8
0
  9
$CELTYPE
  6
BYLAYER
  9
$CECOLOR
 62
   256
  9
$DIMSCALE
 40
1.0
  9
$DIMASZ
 40
0.1875
  9
$DIMEXO
 40
0.0625
  9
$DIMDLI
 40
0.8359999999999999
  9
$DIMRND
 40
0.0
  9
$DIMDLE
 40
0.0
  9
$DIMEXE
 40
0.125
  9
$DIMTP
 40
0.0
  9
$DIMTM
 40
0.0
  9
$DIMTXT
 40
0.15625
  9
$DIMCEN
 40
0.198
  9
$DIMTSZ
 40
0.0
  9
$DIMTOL
 70
     0
  9
$DIMLIM
 70
     0
  9
$DIMTIH
 70
     1
  9
$DIMTOH
 70
     1
  9
$DIMSE1
 70
     0
  9
$DIMSE2
 70
     0
  9
$DIMTAD
 70
     0
  9
$DIMZIN
 70
     0
  9
$DIMBLK
  1

  9
$DIMASO
 70
     1
  9
$DIMSHO
 70
     1
  9
$DIMPOST
  1
\X
  9
$DIMAPOST
  1

  9
$DIMALT
 70
     1
  9
$DIMALTD
 70
     2
  9
$DIMALTF
 40
25.3999999999999986
  9
$DIMLFAC
 40
1.0
  9
$DIMTOFL
 70
     0
  9
$DIMTVP
 40
0.0
  9
$DIMTIX
 70
     0
  9
$DIMSOXD
 70
     0
  9
$DIMSAH
 70
     0
  9
$DIMBLK1
  1

  9
$DIMBLK2
  1

  9
$DIMSTYLE
  2
STANDARD
  9
$DIMCLRD
 70
     0
  9
$DIMCLRE
 70
     0
  9
$DIMCLRT
 70
     0
  9
$DIMTFAC
 40
1.0
  9
$DIMGAP
 40
0.09
  9
$LUNITS
 70
     2
  9
$LUPREC
 70
     4
  9
$SKETCHINC
 40
0.1
  9
$FILLETRAD
 40
0.0
  9
$AUNITS
 70
     0
  9
$AUPREC
 70
     0
  9
$MENU
  1
.
  9
$ELEVATION
 40
0.0
  9
$PELEVATION
 40
0.0
  9
$THICKNESS
 40
0.0
  9
$LIMCHECK
 70
     0
  9
$BLIPMODE
 70
     0
  9
$CHAMFERA
 40
0.0
  9
$CHAMFERB
 40
0.0
  9
$SKPOLY
 70
     0
  9
$TDCREATE
 40
2458019.4505324079655111
  9
$TDUPDATE
 40
2459235.9323842590674758
  9
$TDINDWG
 40
0.0627643519
  9
$TDUSRTIMER
 40
0.0627643519
  9
$USRTIMER
 70
     1
  9
$ANGBASE
 50
0.0
  9
$ANGDIR
 70
     0
  9
$PDMODE
 70
     0
  9
$PDSIZE
 40
0.3125
  9
$PLINEWID
 40
0.0
  9
$COORDS
 70
     1
  9
$SPLFRAME
 70
     0
  9
$SPLINETYPE
 70
     6
  9
$SPLINESEGS
 70
     8
  9
$ATTDIA
 70
     1
  9
$ATTREQ
 70
     1
  9
$HANDLING
 70
     1
  9
$HANDSEED
  5
AF3
  9
$SURFTAB1
 70
     6
  9
$SURFTAB2
 70
     6
  9
$SURFTYPE
 70
     6
  9
$SURFU
 70
     6
  9
$SURFV
 70
     6
  9
$UCSNAME
  2

  9
$UCSORG
 10
0.0
 20
0.0
 30
0.0
  9
$UCSXDIR
 10
1.0
 20
0.0
 30
0.0
  9
$UCSYDIR
 10
0.0
 20
1.0
 30
0.0
  9
$PUCSNAME
  2

  9
$PUCSORG
 10
0.0
 20
0.0
 30
0.0
  9
$PUCSXDIR
 10
1.0
 20
0.0
 30
0.0
  9
$PUCSYDIR
 10
0.0
 20
1.0
 30
0.0
  9
$USERI1
 70
     0
  9
$USERI2
 70
     0
  9
$USERI3
 70
     0
  9
$USERI4
 70
     0
  9
$USERI5
 70
     0
  9
$USERR1
 40
0.0
  9
$USERR2
 40
0.0
  9
$USERR3
 40
0.0
  9
$USERR4
 40
0.0
  9
$USERR5
 40
0.0
  9
$WORLDVIEW
 70
     1
  9
$SHADEDGE
 70
     3
  9
$SHADEDIF
 70
    70
  9
$TILEMODE
 70
     1
  9
$MAXACTVP
 70
    48
  9
$PLIMCHECK
 70
     0
  9
$PEXTMIN
 10
1.0000000000000000E+20
 20
1.0000000000000000E+20
 30
1.0000000000000000E+20
  9
$PEXTMAX
 10
-1.0000000000000000E+20
 20
-1.0000000000000000E+20
 30
-1.0000000000000000E+20
  9
$PLIMMIN
 10
0.0
 20
0.0
  9
$PLIMMAX
 10
12.0
 20
9.0
  9
$UNITMODE
 70
     0
  9
$VISRETAIN
 70
     1
  9
$PLINEGEN
 70
     0
  9
$PSLTSCALE
 70
     1
  0
ENDSEC
  0
SECTION
  2
TABLES
  0
TABLE
  2
VPORT
 70
     1
  0
VPORT
  2
*ACTIVE
 70
     0
 10
0.0
 20
0.0
 11
1.0
 21
1.0
 12
42.031556751325887
 22
26.6080521919067117
 13
0.0
 23
0.0
 14
1.0
 24
1.0
 15
0.0
 25
0.0
 16
0.0
 26
0.0
 36
1.0
 17
0.0
 27
0.0
 37
0.0
 40
11.5402289354372503
 41
2.8789237668161429
 42
50.0
 43
0.0
 44
0.0
 50
0.0
 51
0.0
 71
     0
 72
  1000
 73
     1
 74
     1
 75
     0
 76
     0
 77
     0
 78
     0
  0
ENDTAB
  0
TABLE
  2
LTYPE
 70
     5
  0
LTYPE
  2
CONTINUOUS
 70
     0
  3
Solid line
 72
    65
 73
     0
 40
0.0
  0
LTYPE
  2
PHANTOM2
 70
     0
  3
___ _ _ ___ _ _ ___ _ _ ___ _ _
 72
    65
 73
     6
 40
1.25
 49
0.625
 49
-0.125
 49
0.125
 49
-0.125
 49
0.125
 49
-0.125
  0
ENDTAB
  0
TABLE
  2
LAYER
 70
     2
  0
LAYER
  2
0
 70
     0
 62
     7
  6
CONTINUOUS
  0
LAYER
  2
DEFPOINTS
 70
     0
 62
     7
  6
CONTINUOUS
  0
ENDTAB
  0
TABLE
  2
STYLE
 70
     1
  0
STYLE
  2
STANDARD
 70
     0
 40
0.0
 41
0.8
 50
0.0
 71
     0
 42
0.2
  3
txt
  4

  0
ENDTAB
  0
TABLE
  2
VIEW
 70
     0
  0
ENDTAB
  0
TABLE
  2
UCS
 70
     0
  0
ENDTAB
  0
TABLE
  2
APPID
 70
     7
  0
APPID
  2
ACAD
 70
     0
  0
APPID
  2
ACAD_MLEADERVER
 70
     0
  0
APPID
  2
ACAD_DSTYLE_DIMJAG
 70
     0
  0
APPID
  2
ACAD_DSTYLE_DIMTALN
 70
     0
  0
APPID
  2
ACAD_NAV_VCDISPLAY
 70
     0
  0
APPID
  2
ACAD_EXEMPT_FROM_CAD_STANDARDS
 70
     0
  0
APPID
  2
ACDBATTR
 70
     0
  0
ENDTAB
  0
TABLE
  2
DIMSTYLE
 70
     1
  0
DIMSTYLE
  2
STANDARD
 70
     0
  3

  4

  5

  6

  7

 40
1.0
 41
0.1875
 42
0.0625
 43
0.38
 44
0.125
 45
0.0
 46
0.0
 47
1.5
 48
1.5
140
0.15625
141
0.09
142
0.0
143
25.3999999999999986
144
1.0
145
0.0
146
1.0
147
0.09
 71
     0
 72
     0
 73
     1
 74
     1
 75
     0
 76
     0
 77
     0
 78
     4
170
     0
171
     2
172
     0
173
     0
174
     0
175
     0
176
     0
177
     0
178
     0
  0
ENDTAB
  0
ENDSEC
  0
SECTION
  2
BLOCKS
  0
BLOCK
  8
0
  2
$MODEL_SPACE
 70
     0
 10
0.0
 20
0.0
 30
0.0
  3
$MODEL_SPACE
  1

  0
ENDBLK
  5
21
  8
0
  0
BLOCK
 67
     1
  8
0
  2
$PAPER_SPACE
 70
     0
 10
0.0
 20
0.0
 30
0.0
  3
$PAPER_SPACE
  1

  0
ENDBLK
  5
1D
 67
     1
  8
0
  0
ENDSEC
  0
SECTION
  2
ENTITIES
  0
ATTDEF
  5
7B7
  8
DEFPOINTS
 10
45.7790105695684133
 20
20.9202189759203492
 30
0.0
 40
0.001
  1
K-7507
  3

  2
MODELNUMBER
 70
     0
1001
ACDBATTR
1070
     0
1070
     1
  0
ATTDEF
  5
7B8
  8
DEFPOINTS
 10
45.7790105695684133
 20
20.9185523092536805
 30
0.0
 40
0.001
  1
PURIST
  3

  2
TRADENAME
 70
     0
1001
ACDBATTR
1070
     0
1070
     1
  0
ATTDEF
  5
7B9
  8
DEFPOINTS
 10
45.7790105695684133
 20
20.9168856425870189
 30
0.0
 40
0.001
  1
KITCHEN SINK FAUCET
  3

  2
PRODUCT
 70
     0
1001
ACDBATTR
1070
     0
1070
     1
  0
LINE
  5
A25
  8
0
 10
37.2813769705446774
 20
29.8261040547838583
 30
0.0
 11
37.2813769705446774
 21
30.1761040547838704
 31
0.0
  0
LINE
  5
A26
  8
0
 10
38.2813769705446774
 20
29.8261040547838583
 30
0.0
 11
38.2813769705446774
 21
30.1761040547838704
 31
0.0
  0
LINE
  5
A27
  8
0
 10
44.7813769705446703
 20
21.0661040547838709
 30
0.0
 11
44.7813769705446703
 21
20.9461040547838699
 31
0.0
  0
LINE
  5
A28
  8
0
 10
44.9513769705446791
 20
24.37110405478386
 30
0.0
 11
44.9513769705446791
 21
21.2211040547838685
 31
0.0
  0
LINE
  5
A29
  8
0
 10
45.2813769705446703
 20
30.1761040547838704
 30
0.0
 11
45.2813769705446703
 21
24.7893883248838698
 31
0.0
  0
LINE
  5
A2A
  8
0
 10
45.2813769705446703
 20
24.7261040547838711
 30
0.0
 11
45.2813769705446703
 21
24.6411040547838702
 31
0.0
  0
LINE
  5
A2B
  8
0
 10
45.346376970544668
 20
24.76110405368388
 30
0.0
 11
45.346376970544668
 21
24.7561040547838687
 31
0.0
  0
LINE
  5
A2C
  8
0
 10
45.5164163406446676
 20
22.6509675175838687
 30
0.0
 11
45.5164163406446676
 21
26.3809675175838798
 31
0.0
  0
LINE
  5
A2D
  8
0
 10
46.0464163406446687
 20
22.6509675175838687
 30
0.0
 11
46.0464163406446687
 21
26.3809675175838798
 31
0.0
  0
LINE
  5
A2E
  8
0
 10
46.2163769705446796
 20
24.76110405368388
 30
0.0
 11
46.2163769705446796
 21
24.7561040547838687
 31
0.0
  0
LINE
  5
A2F
  8
0
 10
46.2813769705446774
 20
30.1761040547838704
 30
0.0
 11
46.2813769705446774
 21
25.5530290905838697
 31
0.0
  0
LINE
  5
A30
  8
0
 10
46.2813769705446774
 20
25.283179018883871
 30
0.0
 11
46.2813769705446774
 21
25.2055290905838802
 31
0.0
  0
LINE
  5
A31
  8
0
 10
46.2813769705446774
 20
24.9356790188838708
 30
0.0
 11
46.2813769705446774
 21
24.7893883248838698
 31
0.0
  0
LINE
  5
A32
  8
0
 10
46.2813769705446774
 20
24.7261040547838711
 30
0.0
 11
46.2813769705446774
 21
24.6411040547838702
 31
0.0
  0
LINE
  5
A33
  8
0
 10
46.6113769705446686
 20
24.37110405478386
 30
0.0
 11
46.6113769705446686
 21
21.2211040547838685
 31
0.0
  0
LINE
  5
A34
  8
0
 10
46.7813769705446703
 20
21.0661040547838709
 30
0.0
 11
46.7813769705446703
 21
20.9461040547838699
 31
0.0
  0
LINE
  5
A35
  8
0
 10
46.7513769705446691
 20
20.9161040547838688
 30
0.0
 11
44.8113769705446714
 21
20.9161040547838688
 31
0.0
  0
LINE
  5
A36
  8
0
 10
46.7513759337446828
 20
21.0961040547838685
 30
0.0
 11
44.8113769705446714
 21
21.0961040547838685
 31
0.0
  0
LINE
  5
A37
  8
0
 10
45.5264163406446727
 20
22.6409675175838707
 30
0.0
 11
46.0364163406446707
 21
22.6409675175838707
 31
0.0
  0
LINE
  5
A38
  8
0
 10
46.5813769705446674
 20
24.4011040547838682
 30
0.0
 11
46.0464163406446687
 21
24.4011040547838682
 31
0.0
  0
LINE
  5
A39
  8
0
 10
45.5164163406446676
 20
24.4011040547838682
 30
0.0
 11
44.9813769705446802
 21
24.4011040547838682
 31
0.0
  0
LINE
  5
A3A
  8
0
 10
46.2513769705446691
 20
24.7561040547838687
 30
0.0
 11
46.0464163406446687
 21
24.7561040547838687
 31
0.0
  0
LINE
  5
A3B
  8
0
 10
45.5164163406446676
 20
24.7561040547838687
 30
0.0
 11
45.3113769705446714
 21
24.7561040547838687
 31
0.0
  0
LINE
  5
A3C
  8
0
 10
46.2613769708446725
 20
24.76110405368388
 30
0.0
 11
46.0464163406446687
 21
24.76110405368388
 31
0.0
  0
LINE
  5
A3D
  8
0
 10
45.5164163406446676
 20
24.76110405368388
 30
0.0
 11
45.3013769655450531
 21
24.76110405540404
 31
0.0
  0
LINE
  5
A3E
  8
0
 10
45.5264163406446727
 20
26.3909675175838707
 30
0.0
 11
46.036406652244672
 21
26.3909675175838707
 31
0.0
  0
LINE
  5
A3F
  8
0
 10
37.3113769705446785
 20
29.7961040547838785
 30
0.0
 11
38.2513769705446833
 21
29.7961040547838785
 31
0.0
  0
LINE
  5
A40
  8
0
 10
38.2813769705446774
 20
30.1761040547838704
 30
0.0
 11
37.2813769705446774
 21
30.1761040547838704
 31
0.0
  0
LINE
  5
A41
  8
0
 10
39.4063769705446774
 20
31.3011040547838704
 30
0.0
 11
44.1563769705446703
 21
31.3011040547838704
 31
0.0
  0
LINE
  5
A42
  8
0
 10
39.4063769705446774
 20
32.3011040547838704
 30
0.0
 11
44.1563769705446703
 21
32.3011040547838704
 31
0.0
  0
ARC
  5
A43
  8
0
 10
39.4063769705446774
 20
30.1761040547838704
 30
0.0
 40
2.125
 50
90.0
 51
180.0
  0
ARC
  5
A44
  8
0
 10
39.4063769705446774
 20
30.1761040547838704
 30
0.0
 40
1.125
 50
90.0
 51
180.0
  0
ARC
  5
A45
  8
0
 10
37.3113769705446785
 20
29.8261040547838583
 30
0.0
 40
0.03
 50
180.0
 51
270.0
  0
ARC
  5
A46
  8
0
 10
38.2513769705446833
 20
29.8261040547838583
 30
0.0
 40
0.03
 50
270.0
 51
0.0
  0
ARC
  5
A47
  8
0
 10
44.826376970544672
 20
21.2211040547838685
 30
0.0
 40
0.125
 50
270.0
 51
0.0
  0
ARC
  5
A48
  8
0
 10
44.8113769705446714
 20
20.9461040547838699
 30
0.0
 40
0.03
 50
180.0
 51
270.0
  0
ARC
  5
A49
  8
0
 10
44.8113769705446714
 20
21.0661040547838709
 30
0.0
 40
0.03
 50
90.0
 51
180.0
  0
ARC
  5
A4A
  8
0
 10
45.5264163406446727
 20
22.6509675175838687
 30
0.0
 40
0.01
 50
180.0
 51
270.0
  0
ARC
  5
A4B
  8
0
 10
45.0413769705446825
 20
24.6411040547838702
 30
0.0
 40
0.24
 50
270.0
 51
0.0
  0
ARC
  5
A4C
  8
0
 10
44.9813769705446802
 20
24.37110405478386
 30
0.0
 40
0.03
 50
90.0
 51
180.0
  0
ARC
  5
A4D
  8
0
 10
45.3113769705446714
 20
24.7261040547838711
 30
0.0
 40
0.03
 50
90.0
 51
180.0
  0
ARC
  5
A4E
  8
0
 10
45.3113769705446714
 20
24.7893883248838698
 30
0.0
 40
0.03
 50
180.0
 51
250.5287692376998905
  0
ARC
  5
A4F
  8
0
 10
46.7363769705446686
 20
21.2211040547838685
 30
0.0
 40
0.125
 50
180.0
 51
270.0
  0
ARC
  5
A50
  8
0
 10
46.7513769705446691
 20
20.9461040547838699
 30
0.0
 40
0.03
 50
270.0
 51
0.0
  0
ARC
  5
A51
  8
0
 10
46.7513769705446691
 20
21.0661040547838709
 30
0.0
 40
0.03
 50
0.0
 51
90.0
  0
ARC
  5
A52
  8
0
 10
46.0364163406446707
 20
22.6509675175838687
 30
0.0
 40
0.01
 50
270.0
 51
0.0
  0
ARC
  5
A53
  8
0
 10
45.7813769705446774
 20
23.3911040547838702
 30
0.0
 40
0.7650000000000001
 50
290.270743105232782
 51
69.7292568947667775
  0
ARC
  5
A54
  8
0
 10
45.7813769705446774
 20
23.3911040547838702
 30
0.0
 40
0.7650000000000001
 50
258.6871350344746929
 51
281.3128649655249092
  0
ARC
  5
A55
  8
0
 10
45.7813769705446774
 20
23.3911040547838702
 30
0.0
 40
0.7650000000000001
 50
110.2642800556997003
 51
249.7355327353000121
  0
ARC
  5
A56
  8
0
 10
45.7814609052446784
 20
23.3909544492838606
 30
0.0
 40
0.7366333155
 50
111.0882387754180058
 51
248.9117612245815963
  0
ARC
  5
A57
  8
0
 10
45.7814609052446784
 20
23.3909544492838606
 30
0.0
 40
0.7366333155
 50
291.0808088231638067
 51
68.9191911768361649
  0
ARC
  5
A58
  8
0
 10
46.5213769705446794
 20
24.6411040547838702
 30
0.0
 40
0.24
 50
180.0
 51
270.0
  0
ARC
  5
A59
  8
0
 10
46.5813769705446674
 20
24.37110405478386
 30
0.0
 40
0.03
 50
0.0
 51
90.0
  0
ARC
  5
A5A
  8
0
 10
46.2513769705446691
 20
24.7261040547838711
 30
0.0
 40
0.03
 50
0.0
 51
90.0
  0
ARC
  5
A5B
  8
0
 10
46.2513769705446691
 20
24.7893883248838698
 30
0.0
 40
0.03
 50
289.4712212091997117
 51
0.0
  0
ARC
  5
A5C
  8
0
 10
44.1563769705446703
 20
30.1761040547838704
 30
0.0
 40
2.125
 50
0.0
 51
90.0
  0
ARC
  5
A5D
  8
0
 10
44.1563769705446703
 20
30.1761040547838704
 30
0.0
 40
1.125
 50
0.0
 51
90.0
  0
ARC
  5
A5E
  8
0
 10
45.5264163406446727
 20
26.3809675175838798
 30
0.0
 40
0.01
 50
90.0
 51
180.0
  0
ARC
  5
A5F
  8
0
 10
46.0364163326460201
 20
26.3809675142707185
 30
0.0
 40
0.0100000079986599
 50
0.0000189829599608
 51
90.0554645783608265
  0
ARC
  5
A60
  8
0
 10
46.8904200499494124
 20
25.4181040547338704
 30
0.0
 40
0.6238094563806434
 50
167.5086590096082091
 51
192.4913409903913077
  0
ARC
  5
A61
  8
0
 10
46.8903768146727771
 20
25.0706040547338702
 30
0.0
 40
0.6237672446090556
 50
167.5078000378260015
 51
192.4921999621741122
  0
LINE
  5
A62
  8
0
 10
44.2307716443599475
 20
26.7268052472338695
 30
0.0
 11
43.9193282542641086
 21
26.7268052472338695
 31
0.0
  0
LINE
  5
A63
  8
0
 10
44.2310892072892017
 20
25.6269157441338713
 30
0.0
 11
43.9193282542641086
 21
25.6269157441338713
 31
0.0
  0
LINE
  5
A64
  8
0
 10
45.2314322457446707
 20
24.4945469247333101
 30
0.0
 11
45.2314322457446707
 21
24.6266893416769008
 31
0.0
  0
LINE
  5
A65
  8
0
 10
46.3313216953446769
 20
24.4945469247333385
 30
0.0
 11
46.3313216953446769
 21
24.6150777553142994
 31
0.0
  0
ARC
  5
A66
  8
0
 10
44.2313805394450128
 20
24.6268639820839006
 30
0.0
 40
2.099974231599671
 50
359.6784224370030074
 51
13.9232969942284299
  0
ARC
  5
A67
  8
0
 10
44.2312544816120123
 20
24.6267379924733696
 30
0.0
 40
1.0001777653158761
 50
359.9972130101206744
 51
90.0094678381485664
  0
ARC
  5
A68
  8
0
 10
44.2316044371079329
 20
24.6273878424318902
 30
0.0
 40
2.0994175699772581
 50
59.9979910589828975
 51
90.0227245349735341
  0
LINE
  5
A69
  8
0
 10
43.9113282542641201
 20
25.6349157441338704
 30
0.0
 11
43.9113282542641201
 21
26.7188052472338704
 31
0.0
  0
ARC
  5
A6A
  8
0
 10
43.9193282542641228
 20
25.6349157441338704
 30
0.0
 40
0.008
 50
180.0
 51
269.9999999999491251
  0
ARC
  5
A6B
  8
0
 10
43.9193282542641086
 20
26.7188052472338811
 30
0.0
 40
0.008
 50
90.0000000000252385
 51
180.0000000000507896
  0
LINE
  5
A6C
  8
0
 10
43.8783319204731299
 20
25.7262682512386185
 30
0.0
 11
43.9113282542641201
 21
25.7262682512386185
 31
0.0
  0
LINE
  5
A6D
  8
0
 10
43.8783319204731299
 20
26.6274527401291188
 30
0.0
 11
43.9113282542641201
 21
26.6274527401291188
 31
0.0
  0
LINE
  5
A6E
  8
0
 10
43.8483319204731288
 20
25.7562682512386196
 30
0.0
 11
43.8483319204731288
 21
26.5974527401291212
 31
0.0
  0
ARC
  5
A6F
  8
0
 10
43.8783319204731299
 20
25.756268251238609
 30
0.0
 40
0.03
 50
179.9999999999863007
 51
270.0
  0
ARC
  5
A70
  8
0
 10
43.8783319204731299
 20
26.5974527401291212
 30
0.0
 40
0.03
 50
90.0
 51
180.0
  0
ENDSEC
  0
EOF
