  0
SECTION
  2
HEADER
  9
$ACADVER
  1
AC1009
  9
$INSBASE
 10
26.677483372000001
 20
2.4487499999999991
 30
0.0
  9
$EXTMIN
 10
18.1255058074
 20
2.4407368854812459
 30
0.0
  9
$EXTMAX
 10
27.677483372000001
 20
13.876250000000001
 30
0.0
  9
$LIMMIN
 10
0.0
 20
0.0
  9
$LIMMAX
 10
22.0
 20
17.0
  9
$ORTHOMODE
 70
     1
  9
$REGENMODE
 70
     1
  9
$FILLMODE
 70
     1
  9
$QTEXTMODE
 70
     0
  9
$MIRRTEXT
 70
     0
  9
$DRAGMODE
 70
     2
  9
$LTSCALE
 40
1.2099999999999991
  9
$OSMODE
 70
    47
  9
$ATTMODE
 70
     1
  9
$TEXTSIZE
 40
0.2
  9
$TRACEWID
 40
0.05
  9
$TEXTSTYLE
  7
STANDARD
  9
$CLAYER
  8
0
  9
$CELTYPE
  6
BYLAYER
  9
$CECOLOR
 62
   256
  9
$DIMSCALE
 40
1.0
  9
$DIMASZ
 40
0.1875
  9
$DIMEXO
 40
0.0625
  9
$DIMDLI
 40
0.8359999999999999
  9
$DIMRND
 40
0.0
  9
$DIMDLE
 40
0.0
  9
$DIMEXE
 40
0.125
  9
$DIMTP
 40
0.0
  9
$DIMTM
 40
0.0
  9
$DIMTXT
 40
0.15625
  9
$DIMCEN
 40
0.198
  9
$DIMTSZ
 40
0.0
  9
$DIMTOL
 70
     0
  9
$DIMLIM
 70
     0
  9
$DIMTIH
 70
     1
  9
$DIMTOH
 70
     1
  9
$DIMSE1
 70
     0
  9
$DIMSE2
 70
     0
  9
$DIMTAD
 70
     0
  9
$DIMZIN
 70
     0
  9
$DIMBLK
  1

  9
$DIMASO
 70
     1
  9
$DIMSHO
 70
     1
  9
$DIMPOST
  1

  9
$DIMAPOST
  1

  9
$DIMALT
 70
     0
  9
$DIMALTD
 70
     2
  9
$DIMALTF
 40
25.399999999999999
  9
$DIMLFAC
 40
1.0
  9
$DIMTOFL
 70
     0
  9
$DIMTVP
 40
0.0
  9
$DIMTIX
 70
     0
  9
$DIMSOXD
 70
     0
  9
$DIMSAH
 70
     0
  9
$DIMBLK1
  1

  9
$DIMBLK2
  1

  9
$DIMSTYLE
  2
STANDARD
  9
$DIMCLRD
 70
     0
  9
$DIMCLRE
 70
     0
  9
$DIMCLRT
 70
     0
  9
$DIMTFAC
 40
1.0
  9
$DIMGAP
 40
0.09
  9
$LUNITS
 70
     2
  9
$LUPREC
 70
     4
  9
$SKETCHINC
 40
0.1
  9
$FILLETRAD
 40
0.0
  9
$AUNITS
 70
     0
  9
$AUPREC
 70
     0
  9
$MENU
  1
.
  9
$ELEVATION
 40
0.0
  9
$PELEVATION
 40
0.0
  9
$THICKNESS
 40
0.0
  9
$LIMCHECK
 70
     0
  9
$BLIPMODE
 70
     0
  9
$CHAMFERA
 40
0.0
  9
$CHAMFERB
 40
0.0
  9
$SKPOLY
 70
     0
  9
$TDCREATE
 40
2457231.4441932868
  9
$TDUPDATE
 40
2457323.5966095608
  9
$TDINDWG
 40
0.1239227662
  9
$TDUSRTIMER
 40
0.1239227662
  9
$USRTIMER
 70
     1
  9
$ANGBASE
 50
0.0
  9
$ANGDIR
 70
     0
  9
$PDMODE
 70
     0
  9
$PDSIZE
 40
0.3125
  9
$PLINEWID
 40
0.0
  9
$COORDS
 70
     1
  9
$SPLFRAME
 70
     0
  9
$SPLINETYPE
 70
     6
  9
$SPLINESEGS
 70
     8
  9
$ATTDIA
 70
     0
  9
$ATTREQ
 70
     1
  9
$HANDLING
 70
     1
  9
$HANDSEED
  5
A4E
  9
$SURFTAB1
 70
     6
  9
$SURFTAB2
 70
     6
  9
$SURFTYPE
 70
     6
  9
$SURFU
 70
     6
  9
$SURFV
 70
     6
  9
$UCSNAME
  2

  9
$UCSORG
 10
0.0
 20
0.0
 30
0.0
  9
$UCSXDIR
 10
1.0
 20
0.0
 30
0.0
  9
$UCSYDIR
 10
0.0
 20
1.0
 30
0.0
  9
$PUCSNAME
  2

  9
$PUCSORG
 10
0.0
 20
0.0
 30
0.0
  9
$PUCSXDIR
 10
1.0
 20
0.0
 30
0.0
  9
$PUCSYDIR
 10
0.0
 20
1.0
 30
0.0
  9
$USERI1
 70
     0
  9
$USERI2
 70
     0
  9
$USERI3
 70
     0
  9
$USERI4
 70
     0
  9
$USERI5
 70
     0
  9
$USERR1
 40
0.0
  9
$USERR2
 40
0.0
  9
$USERR3
 40
0.0
  9
$USERR4
 40
0.0
  9
$USERR5
 40
0.0
  9
$WORLDVIEW
 70
     1
  9
$SHADEDGE
 70
     3
  9
$SHADEDIF
 70
    70
  9
$TILEMODE
 70
     1
  9
$MAXACTVP
 70
    64
  9
$PLIMCHECK
 70
     0
  9
$PEXTMIN
 10
1.0000000000000000E+020
 20
1.0000000000000000E+020
 30
1.0000000000000000E+020
  9
$PEXTMAX
 10
-1.0000000000000000E+020
 20
-1.0000000000000000E+020
 30
-1.0000000000000000E+020
  9
$PLIMMIN
 10
0.0
 20
0.0
  9
$PLIMMAX
 10
12.0
 20
9.0
  9
$UNITMODE
 70
     0
  9
$VISRETAIN
 70
     1
  9
$PLINEGEN
 70
     0
  9
$PSLTSCALE
 70
     1
  0
ENDSEC
  0
SECTION
  2
TABLES
  0
TABLE
  2
VPORT
 70
     1
  0
VPORT
  2
*ACTIVE
 70
     0
 10
0.0
 20
0.0
 11
1.0
 21
1.0
 12
24.877091305367859
 22
9.4128390754867013
 13
0.0
 23
0.0
 14
1.0
 24
1.0
 15
0.0
 25
0.0
 16
0.0
 26
0.0
 36
1.0
 17
0.0
 27
0.0
 37
0.0
 40
19.707294508121191
 41
2.0329087048832268
 42
50.0
 43
0.0
 44
0.0
 50
0.0
 51
0.0
 71
     0
 72
   100
 73
     1
 74
     1
 75
     0
 76
     0
 77
     0
 78
     0
  0
ENDTAB
  0
TABLE
  2
LTYPE
 70
     1
  0
LTYPE
  2
CONTINUOUS
 70
     0
  3
Solid line
 72
    65
 73
     0
 40
0.0
  0
ENDTAB
  0
TABLE
  2
LAYER
 70
     3
  0
LAYER
  2
0
 70
     0
 62
     7
  6
CONTINUOUS
  0
LAYER
  2
DEFPOINTS
 70
     0
 62
     7
  6
CONTINUOUS
  0
ENDTAB
  0
TABLE
  2
STYLE
 70
     1
  0
STYLE
  2
STANDARD
 70
     0
 40
0.0
 41
0.8
 50
0.0
 71
     0
 42
0.2
  3
txt
  4

  0
ENDTAB
  0
TABLE
  2
VIEW
 70
     0
  0
ENDTAB
  0
TABLE
  2
UCS
 70
     0
  0
ENDTAB
  0
TABLE
  2
APPID
 70
     5
  0
APPID
  2
ACAD
 70
     0
  0
APPID
  2
ACAD_MLEADERVER
 70
     0
  0
APPID
  2
ACAD_NAV_VCDISPLAY
 70
     0
  0
APPID
  2
ACAD_EXEMPT_FROM_CAD_STANDARDS
 70
     0
  0
APPID
  2
ACDBATTR
 70
     0
  0
ENDTAB
  0
TABLE
  2
DIMSTYLE
 70
     1
  0
DIMSTYLE
  2
STANDARD
 70
     0
  3

  4

  5

  6

  7

 40
1.0
 41
0.1875
 42
0.0625
 43
0.38
 44
0.125
 45
0.0
 46
0.0
 47
1.5
 48
1.5
140
0.15625
141
0.09
142
0.0
143
25.399999999999999
144
1.0
145
0.0
146
1.0
147
0.09
 71
     0
 72
     0
 73
     1
 74
     1
 75
     0
 76
     0
 77
     0
 78
     4
170
     0
171
     2
172
     0
173
     0
174
     0
175
     0
176
     0
177
     0
178
     0
  0
ENDTAB
  0
ENDSEC
  0
SECTION
  2
BLOCKS
  0
BLOCK
  8
0
  2
$MODEL_SPACE
 70
     0
 10
0.0
 20
0.0
 30
0.0
  3
$MODEL_SPACE
  1

  0
ENDBLK
  5
21
  8
0
  0
BLOCK
 67
     1
  8
0
  2
$PAPER_SPACE
 70
     0
 10
0.0
 20
0.0
 30
0.0
  3
$PAPER_SPACE
  1

  0
ENDBLK
  5
1D
 67
     1
  8
0
  0
BLOCK
  8
0
  2
*U2
 70
     1
 10
0.0
 20
0.0
 30
0.0
  3
*U2
  1

  0
TEXT
  5
A47
  8
0
 62
     0
 10
22.395233318224999
 20
15.968834530736871
 30
0.0
 40
0.15625
  1
8.0020
 41
0.8
  0
ENDBLK
  5
A49
  8
0
  0
BLOCK
  8
0
  2
*U3
 70
     1
 10
0.0
 20
0.0
 30
0.0
  3
*U3
  1

  0
TEXT
  5
A4B
  8
0
 62
     0
 10
32.992614935050341
 20
8.0843750000000032
 30
0.0
 40
0.15625
  1
11.4275
 41
0.8
  0
ENDBLK
  5
A4D
  8
0
  0
ENDSEC
  0
SECTION
  2
ENTITIES
  0
LINE
  5
2AE
  8
0
 10
27.647483372
 20
2.4487499999999991
 30
0.0
 11
25.707483371999999
 21
2.4487499999999991
 31
0.0
  0
LINE
  5
2B1
  8
0
 10
27.647482337900001
 20
2.6502500000000002
 30
0.0
 11
25.707484405999999
 21
2.6502500000000002
 31
0.0
  0
LINE
  5
2BE
  8
0
 10
18.125536409599999
 20
11.45825
 30
0.0
 11
18.125536409599999
 21
11.770250000000001
 31
0.0
  0
LINE
  5
2BF
  8
0
 10
18.225483371999999
 20
11.41925
 30
0.0
 11
18.225483371999999
 21
11.45025
 31
0.0
  0
LINE
  5
2CB
  8
0
 10
26.422501495300001
 20
4.1952630692000001
 30
0.0
 11
26.932492364200002
 21
4.1952630692000001
 31
0.0
  0
LINE
  5
2CD
  8
0
 10
19.125483372000001
 20
11.41925
 30
0.0
 11
19.125483372000001
 21
11.45025
 31
0.0
  0
LINE
  5
2CE
  8
0
 10
19.2254303343
 20
11.45825
 30
0.0
 11
19.2254303343
 21
11.770250000000001
 31
0.0
  0
LINE
  5
2D1
  8
0
 10
20.225483371999999
 20
13.8701969623
 30
0.0
 11
20.225483371999999
 21
12.7703030377
 31
0.0
  0
LINE
  5
2D3
  8
0
 10
20.609841252300001
 20
12.690069022399999
 30
0.0
 11
20.609841252300001
 21
12.786926643199999
 31
0.0
  0
LINE
  5
2D8
  8
0
 10
27.477483371999998
 20
5.9552500000000004
 30
0.0
 11
26.942501495300011
 21
5.9552500000000004
 31
0.0
  0
LINE
  5
2D9
  8
0
 10
26.412501495299999
 20
5.9552500000000004
 30
0.0
 11
25.877483372
 21
5.9552500000000004
 31
0.0
  0
LINE
  5
2DC
  8
0
 10
21.1610223546
 20
12.690069022399999
 30
0.0
 11
21.1610223546
 21
12.786980128
 31
0.0
  0
LINE
  5
2ED
  8
0
 10
21.5178928208
 20
12.6906202035
 30
0.0
 11
21.5178928208
 21
12.7869531719
 31
0.0
  0
LINE
  5
2F4
  8
0
 10
22.069073923200001
 20
12.6906202035
 30
0.0
 11
22.069073923200001
 21
12.786953262999999
 31
0.0
  0
LINE
  5
2F8
  8
0
 10
22.937483371999999
 20
13.876250000000001
 30
0.0
 11
22.937483371999999
 21
12.7848660256
 31
0.0
  0
LINE
  5
2FB
  8
0
 10
26.422511183699999
 20
7.9452630691999993
 30
0.0
 11
26.932491807000002
 21
7.9452630691999993
 31
0.0
  0
LINE
  5
2FD
  8
0
 10
25.117483371999999
 20
12.764250000000001
 30
0.0
 11
25.117483371999999
 21
13.876250000000001
 31
0.0
  0
LINE
  5
304
  8
0
 10
25.677483372000001
 20
2.6202499999999991
 30
0.0
 11
25.677483372000001
 21
2.4787499999999989
 31
0.0
  0
LINE
  5
305
  8
0
 10
25.847483371999999
 20
5.9252500000000001
 30
0.0
 11
25.847483371999999
 21
2.7752500000000002
 31
0.0
  0
LINE
  5
30A
  8
0
 10
26.119983372
 20
6.2802499999999988
 30
0.0
 11
26.119983372
 21
6.1952499999999988
 31
0.0
  0
LINE
  5
30B
  8
0
 10
26.121483372
 20
11.760249999999999
 30
0.0
 11
26.121483372
 21
6.2896174969975949
 31
0.0
  0
LINE
  5
30D
  8
0
 10
26.412501495299999
 20
4.205263069199999
 30
0.0
 11
26.412501495299999
 21
7.9352630691999986
 31
0.0
  0
LINE
  5
314
  8
0
 10
18.257486777099999
 20
11.38725
 30
0.0
 11
19.0934797518
 21
11.38725
 31
0.0
  0
LINE
  5
316
  8
0
 10
18.133527023199999
 20
11.45025
 30
0.0
 11
19.2174397209
 21
11.45025
 31
0.0
  0
LINE
  5
328
  8
0
 10
27.233483371999998
 20
11.760249999999999
 30
0.0
 11
26.121483372
 21
11.760249999999999
 31
0.0
  0
LINE
  5
33C
  8
0
 10
26.942501495300011
 20
4.205263069199999
 30
0.0
 11
26.942501495300011
 21
7.9352630691999986
 31
0.0
  0
LINE
  5
33E
  8
0
 10
27.233483371999998
 20
11.760249999999999
 30
0.0
 11
27.233483371999998
 21
6.2896174969975949
 31
0.0
  0
LINE
  5
33F
  8
0
 10
27.234983371999999
 20
6.2802499999999988
 30
0.0
 11
27.234983371999999
 21
6.1952499999999988
 31
0.0
  0
LINE
  5
348
  8
0
 10
27.507483371999999
 20
5.9252500000000001
 30
0.0
 11
27.507483371999999
 21
2.7752500000000002
 31
0.0
  0
LINE
  5
349
  8
0
 10
27.677483372000001
 20
2.6202499999999991
 30
0.0
 11
27.677483372000001
 21
2.4787499999999989
 31
0.0
  0
LINE
  5
351
  8
0
 10
22.069073923200001
 20
12.764250000000001
 30
0.0
 11
25.117483371999999
 21
12.764250000000001
 31
0.0
  0
LINE
  5
353
  8
0
 10
20.225483371999999
 20
12.7703030377
 30
0.0
 11
20.579629536763552
 21
12.7703030377
 31
0.0
  0
LINE
  5
354
  8
0
 10
21.193483371799999
 20
12.7703030377
 30
0.0
 11
21.485483372099999
 21
12.7703030377
 31
0.0
  0
LINE
  5
370
  8
0
 10
20.225483371999999
 20
13.8701969623
 30
0.0
 11
25.117483371999999
 21
13.876250000000001
 31
0.0
  0
ARC
  5
3BB
  8
0
 10
20.2254798857
 20
11.7702534863
 30
0.0
 40
2.0999740782999998
 50
89.999905196499995
 51
180.000094781
  0
ARC
  5
3BC
  8
0
 10
21.793483372000001
 20
13.9255346839
 30
0.0
 40
1.280835865
 50
258.2925698377
 51
281.7074301623
  0
ARC
  5
3BD
  8
0
 10
20.885431803399999
 20
13.9249835028
 30
0.0
 40
1.280835865
 50
258.2925698377
 51
281.7074301623
  0
ARC
  5
3BE
  8
0
 10
20.2254798857
 20
11.7702534863
 30
0.0
 40
0.9999994151999999
 50
89.999800244599996
 51
180.00019975539999
  0
ARC
  5
3BF
  8
0
 10
18.257483371999999
 20
11.41925
 30
0.0
 40
0.032
 50
180.0
 51
270.0
  0
ARC
  5
3C0
  8
0
 10
19.093483372000001
 20
11.41925
 30
0.0
 40
0.032
 50
270.0
 51
360.0
  0
ARC
  5
3C1
  8
0
 10
21.537577860199999
 20
12.6906202035
 30
0.0
 40
0.0196850394
 50
180.0
 51
258.2925698377
  0
ARC
  5
3C2
  8
0
 10
22.049388883799999
 20
12.6906202035
 30
0.0
 40
0.0196850394
 50
281.7074301623
 51
360.0
  0
ARC
  5
3C3
  8
0
 10
20.629526291600001
 20
12.690069022399999
 30
0.0
 40
0.0196850394
 50
180.0
 51
258.2925698377
  0
ARC
  5
3C4
  8
0
 10
21.141337315200001
 20
12.690069022399999
 30
0.0
 40
0.0196850394
 50
281.7074301623
 51
360.0
  0
ARC
  5
3C5
  8
0
 10
19.217446395100001
 20
11.4582505173
 30
0.0
 40
0.0079999872
 50
269.95206087920002
 51
0.0000202699
  0
ARC
  5
3C6
  8
0
 10
18.133520458700001
 20
11.4582505646
 30
0.0
 40
0.0079999862
 50
179.99997376030001
 51
270.04687421879999
  0
ARC
  5
3C9
  8
0
 10
25.722483371999999
 20
2.7752500000000002
 30
0.0
 40
0.125
 50
270.0
 51
360.0
  0
ARC
  5
3CB
  8
0
 10
25.707483371999999
 20
2.4787499999999989
 30
0.0
 40
0.03
 50
180.0
 51
270.0
  0
ARC
  5
3CC
  8
0
 10
25.707483371999999
 20
2.6202499999999991
 30
0.0
 40
0.03
 50
90.0
 51
180.0
  0
ARC
  5
3CD
  8
0
 10
26.422501495300001
 20
4.205263069199999
 30
0.0
 40
0.01
 50
180.0
 51
270.0
  0
ARC
  5
3CE
  8
0
 10
25.879983372000002
 20
6.1952499999999988
 30
0.0
 40
0.24
 50
270.0
 51
360.0
  0
ARC
  5
3D0
  8
0
 10
26.149983372000001
 20
6.2802499999999988
 30
0.0
 40
0.03
 50
161.8051276612168
 51
180.0
  0
ARC
  5
3D3
  8
0
 10
26.422501495300001
 20
7.9352630691999986
 30
0.0
 40
0.01
 50
90.0
 51
180.0
  0
ARC
  5
3DB
  8
0
 10
27.632483371999999
 20
2.7752500000000002
 30
0.0
 40
0.125
 50
180.0
 51
270.0
  0
ARC
  5
3DD
  8
0
 10
27.647483372
 20
2.4787499999999989
 30
0.0
 40
0.03
 50
270.0
 51
0.0
  0
ARC
  5
3DE
  8
0
 10
27.647483372
 20
2.6202499999999991
 30
0.0
 40
0.03
 50
0.0
 51
90.0
  0
ARC
  5
3DF
  8
0
 10
26.932501495299999
 20
4.205263069199999
 30
0.0
 40
0.01
 50
270.0
 51
360.0
  0
ARC
  5
3E0
  8
0
 10
27.474983372000001
 20
6.1952499999999988
 30
0.0
 40
0.24
 50
180.0
 51
270.0
  0
ARC
  5
3E2
  8
0
 10
27.204983372000001
 20
6.2802499999999988
 30
0.0
 40
0.03
 50
0.0
 51
18.19487233875212
  0
ARC
  5
3E5
  8
0
 10
26.932501495299999
 20
7.9352630691999986
 30
0.0
 40
0.01
 50
0.0
 51
90.0
  0
ARC
  5
3E6
  8
0
 10
25.117483371999999
 20
11.760249999999999
 30
0.0
 40
2.1160000000000001
 50
0.0
 51
90.0
  0
ARC
  5
3E7
  8
0
 10
25.117483371999999
 20
11.760249999999999
 30
0.0
 40
1.004
 50
0.0
 51
90.0
  0
ARC
  5
628
  8
0
 10
26.677546059899999
 20
4.9452500007999989
 30
0.0
 40
0.4781749196409939
 50
123.661392108738
 51
236.338607891262
  0
ARC
  5
629
  8
0
 10
26.677546059899999
 20
4.9452500007999989
 30
0.0
 40
0.4781749196409939
 50
303.64856203753698
 51
56.351437962463102
  0
ARC
  5
636
  8
0
 10
26.61154829771597
 20
4.9480458345002569
 30
0.0
 40
0.8338854730894015
 50
5.8542961678031382
 51
55.24519388223591
  0
ARC
  5
63E
  8
0
 10
26.628877954463668
 20
4.9386703724000931
 30
0.0
 40
0.8176777532272986
 50
299.49173260567642
 51
6.6317036266271803
  0
ARC
  5
63F
  8
0
 10
26.343642467493972
 20
4.3227620388076433
 30
0.0
 40
1.5065242087726189
 50
60.437611994948867
 51
66.577367003874073
  0
ARC
  5
641
  8
0
 10
26.677546059899999
 20
4.9452500007999989
 30
0.0
 40
0.8007451393595592
 50
269.99681126569328
 51
296.22706313639071
  0
ARC
  5
642
  8
0
 10
26.677420702523978
 20
4.9452500523426464
 30
0.0
 40
0.8007451937379817
 50
243.77293731088659
 51
270.0057809714317
  0
ARC
  5
643
  8
0
 10
27.010137259067449
 20
4.3249919160830981
 30
0.0
 40
1.5039989807371681
 50
113.413522070095
 51
119.5649657995165
  0
ARC
  5
644
  8
0
 10
26.743418446284029
 20
4.9480458345002569
 30
0.0
 40
0.8338854730894015
 50
124.7548061177641
 51
174.1457038321968
  0
ARC
  5
645
  8
0
 10
26.72608878953633
 20
4.9386703724000931
 30
0.0
 40
0.8176777532272986
 50
173.3682963733728
 51
240.50826739432361
  0
ARC
  5
646
  8
0
 10
21.793483442992262
 20
12.35742972950208
 30
0.0
 40
0.5103337913656817
 50
57.314996162647418
 51
122.6850227772094
  0
LINE
  5
647
  8
0
 10
21.5178928208
 20
12.78695317189999
 30
0.0
 11
21.487535560844869
 21
12.770251457500001
 31
0.0
  0
LINE
  5
64E
  8
0
 10
21.193483371799999
 20
12.7703030377
 30
0.0
 11
21.1610223546
 21
12.786980128
 31
0.0
  0
ARC
  5
64F
  8
0
 10
20.885474393061148
 20
12.34806509593025
 30
0.0
 40
0.5182403746890544
 50
57.879667163309449
 51
122.1314508525501
  0
LINE
  5
650
  8
0
 10
20.60984125295084
 20
12.786926643608769
 30
0.0
 11
20.579629536763552
 21
12.7703030377
 31
0.0
  0
ATTDEF
  5
81B
  8
DEFPOINTS
 10
26.673471993746499
 20
2.4457368854812471
 30
0.0
 40
0.001
  1
K-7505
  3

  2
MODELNUMBER
 70
     0
1001
ACDBATTR
1070
     0
1070
     1
  0
ATTDEF
  5
81C
  8
DEFPOINTS
 10
26.673471993746499
 20
2.4440702188145802
 30
0.0
 40
0.001
  1
PURIST
  3

  2
TRADENAME
 70
     0
1001
ACDBATTR
1070
     0
1070
     1
  0
ATTDEF
  5
81D
  8
DEFPOINTS
 10
26.673471993746499
 20
2.4424035521479142
 30
0.0
 40
0.001
  1
KITCHEN SINK FAUCETS
  3

  2
PRODUCT
 70
     0
1001
ACDBATTR
1070
     0
1070
     1
  0
ATTDEF
  5
81E
  8
DEFPOINTS
 10
26.673471993746499
 20
2.4407368854812468
 30
0.0
 40
0.001
  1
METAL
  3

  2
MATERIAL
 70
     0
1001
ACDBATTR
1070
     0
1070
     1
  0
ENDSEC
  0
EOF
