  0
SECTION
  2
HEADER
  9
$ACADVER
  1
AC1009
  9
$INSBASE
 10
8.6616683414999969
 20
2.4487499999999991
 30
0.0
  9
$EXTMIN
 10
7.6616683414999951
 20
2.441172741630059
 30
0.0
  9
$EXTMAX
 10
20.391910563074049
 20
13.876250000000001
 30
0.0
  9
$LIMMIN
 10
0.0
 20
0.0
  9
$LIMMAX
 10
22.0
 20
17.0
  9
$ORTHOMODE
 70
     1
  9
$REGENMODE
 70
     1
  9
$FILLMODE
 70
     1
  9
$QTEXTMODE
 70
     0
  9
$MIRRTEXT
 70
     0
  9
$DRAGMODE
 70
     2
  9
$LTSCALE
 40
1.2099999999999991
  9
$OSMODE
 70
    47
  9
$ATTMODE
 70
     1
  9
$TEXTSIZE
 40
0.001
  9
$TRACEWID
 40
0.05
  9
$TEXTSTYLE
  7
STANDARD
  9
$CLAYER
  8
0
  9
$CELTYPE
  6
BYLAYER
  9
$CECOLOR
 62
   256
  9
$DIMSCALE
 40
1.0
  9
$DIMASZ
 40
0.1875
  9
$DIMEXO
 40
0.0625
  9
$DIMDLI
 40
0.8359999999999999
  9
$DIMRND
 40
0.0
  9
$DIMDLE
 40
0.0
  9
$DIMEXE
 40
0.125
  9
$DIMTP
 40
0.0
  9
$DIMTM
 40
0.0
  9
$DIMTXT
 40
0.15625
  9
$DIMCEN
 40
0.198
  9
$DIMTSZ
 40
0.0
  9
$DIMTOL
 70
     0
  9
$DIMLIM
 70
     0
  9
$DIMTIH
 70
     1
  9
$DIMTOH
 70
     1
  9
$DIMSE1
 70
     0
  9
$DIMSE2
 70
     0
  9
$DIMTAD
 70
     0
  9
$DIMZIN
 70
     0
  9
$DIMBLK
  1

  9
$DIMASO
 70
     1
  9
$DIMSHO
 70
     1
  9
$DIMPOST
  1

  9
$DIMAPOST
  1

  9
$DIMALT
 70
     0
  9
$DIMALTD
 70
     2
  9
$DIMALTF
 40
25.399999999999999
  9
$DIMLFAC
 40
1.0
  9
$DIMTOFL
 70
     0
  9
$DIMTVP
 40
0.0
  9
$DIMTIX
 70
     0
  9
$DIMSOXD
 70
     0
  9
$DIMSAH
 70
     0
  9
$DIMBLK1
  1

  9
$DIMBLK2
  1

  9
$DIMSTYLE
  2
STANDARD
  9
$DIMCLRD
 70
     0
  9
$DIMCLRE
 70
     0
  9
$DIMCLRT
 70
     0
  9
$DIMTFAC
 40
1.0
  9
$DIMGAP
 40
0.09
  9
$LUNITS
 70
     2
  9
$LUPREC
 70
     4
  9
$SKETCHINC
 40
0.1
  9
$FILLETRAD
 40
0.03
  9
$AUNITS
 70
     0
  9
$AUPREC
 70
     0
  9
$MENU
  1
.
  9
$ELEVATION
 40
0.0
  9
$PELEVATION
 40
0.0
  9
$THICKNESS
 40
0.0
  9
$LIMCHECK
 70
     0
  9
$BLIPMODE
 70
     0
  9
$CHAMFERA
 40
0.0
  9
$CHAMFERB
 40
0.0
  9
$SKPOLY
 70
     0
  9
$TDCREATE
 40
2457231.4441932868
  9
$TDUPDATE
 40
2457323.5957222572
  9
$TDINDWG
 40
0.1223162037
  9
$TDUSRTIMER
 40
0.1223162037
  9
$USRTIMER
 70
     1
  9
$ANGBASE
 50
0.0
  9
$ANGDIR
 70
     0
  9
$PDMODE
 70
     0
  9
$PDSIZE
 40
0.3125
  9
$PLINEWID
 40
0.0
  9
$COORDS
 70
     1
  9
$SPLFRAME
 70
     0
  9
$SPLINETYPE
 70
     6
  9
$SPLINESEGS
 70
     8
  9
$ATTDIA
 70
     0
  9
$ATTREQ
 70
     1
  9
$HANDLING
 70
     1
  9
$HANDSEED
  5
B51
  9
$SURFTAB1
 70
     6
  9
$SURFTAB2
 70
     6
  9
$SURFTYPE
 70
     6
  9
$SURFU
 70
     6
  9
$SURFV
 70
     6
  9
$UCSNAME
  2

  9
$UCSORG
 10
0.0
 20
0.0
 30
0.0
  9
$UCSXDIR
 10
1.0
 20
0.0
 30
0.0
  9
$UCSYDIR
 10
0.0
 20
1.0
 30
0.0
  9
$PUCSNAME
  2

  9
$PUCSORG
 10
0.0
 20
0.0
 30
0.0
  9
$PUCSXDIR
 10
1.0
 20
0.0
 30
0.0
  9
$PUCSYDIR
 10
0.0
 20
1.0
 30
0.0
  9
$USERI1
 70
     0
  9
$USERI2
 70
     0
  9
$USERI3
 70
     0
  9
$USERI4
 70
     0
  9
$USERI5
 70
     0
  9
$USERR1
 40
0.0
  9
$USERR2
 40
0.0
  9
$USERR3
 40
0.0
  9
$USERR4
 40
0.0
  9
$USERR5
 40
0.0
  9
$WORLDVIEW
 70
     1
  9
$SHADEDGE
 70
     3
  9
$SHADEDIF
 70
    70
  9
$TILEMODE
 70
     1
  9
$MAXACTVP
 70
    64
  9
$PLIMCHECK
 70
     0
  9
$PEXTMIN
 10
1.0000000000000000E+020
 20
1.0000000000000000E+020
 30
1.0000000000000000E+020
  9
$PEXTMAX
 10
-1.0000000000000000E+020
 20
-1.0000000000000000E+020
 30
-1.0000000000000000E+020
  9
$PLIMMIN
 10
0.0
 20
0.0
  9
$PLIMMAX
 10
12.0
 20
9.0
  9
$UNITMODE
 70
     0
  9
$VISRETAIN
 70
     1
  9
$PLINEGEN
 70
     0
  9
$PSLTSCALE
 70
     1
  0
ENDSEC
  0
SECTION
  2
TABLES
  0
TABLE
  2
VPORT
 70
     1
  0
VPORT
  2
*ACTIVE
 70
     0
 10
0.0
 20
0.0
 11
1.0
 21
1.0
 12
7.8951490571860994
 22
6.7861187660390971
 13
0.0
 23
0.0
 14
1.0
 24
1.0
 15
0.0
 25
0.0
 16
0.0
 26
0.0
 36
1.0
 17
0.0
 27
0.0
 37
0.0
 40
29.781886758792339
 41
2.0329087048832268
 42
50.0
 43
0.0
 44
0.0
 50
0.0
 51
0.0
 71
     0
 72
   100
 73
     1
 74
     1
 75
     0
 76
     0
 77
     0
 78
     0
  0
ENDTAB
  0
TABLE
  2
LTYPE
 70
     1
  0
LTYPE
  2
CONTINUOUS
 70
     0
  3
Solid line
 72
    65
 73
     0
 40
0.0
  0
ENDTAB
  0
TABLE
  2
LAYER
 70
     2
  0
LAYER
  2
0
 70
     0
 62
     7
  6
CONTINUOUS
  0
LAYER
  2
DEFPOINTS
 70
     0
 62
     7
  6
CONTINUOUS
  0
ENDTAB
  0
TABLE
  2
STYLE
 70
     1
  0
STYLE
  2
STANDARD
 70
     0
 40
0.0
 41
0.8
 50
0.0
 71
     0
 42
0.001
  3
txt
  4

  0
ENDTAB
  0
TABLE
  2
VIEW
 70
     0
  0
ENDTAB
  0
TABLE
  2
UCS
 70
     0
  0
ENDTAB
  0
TABLE
  2
APPID
 70
     6
  0
APPID
  2
ACAD
 70
     0
  0
APPID
  2
ACAD_MLEADERVER
 70
     0
  0
APPID
  2
ACAD_NAV_VCDISPLAY
 70
     0
  0
APPID
  2
ACAD_EXEMPT_FROM_CAD_STANDARDS
 70
     0
  0
APPID
  2
ACAD_DSTYLE_DIMRADIAL_EXTENSION
 70
     0
  0
APPID
  2
ACDBATTR
 70
     0
  0
ENDTAB
  0
TABLE
  2
DIMSTYLE
 70
     1
  0
DIMSTYLE
  2
STANDARD
 70
     0
  3

  4

  5

  6

  7

 40
1.0
 41
0.1875
 42
0.0625
 43
0.38
 44
0.125
 45
0.0
 46
0.0
 47
1.5
 48
1.5
140
0.15625
141
0.09
142
0.0
143
25.399999999999999
144
1.0
145
0.0
146
1.0
147
0.09
 71
     0
 72
     0
 73
     1
 74
     1
 75
     0
 76
     0
 77
     0
 78
     4
170
     0
171
     2
172
     0
173
     0
174
     0
175
     0
176
     0
177
     0
178
     0
  0
ENDTAB
  0
ENDSEC
  0
SECTION
  2
BLOCKS
  0
BLOCK
  8
0
  2
$MODEL_SPACE
 70
     2
 10
0.0
 20
0.0
 30
0.0
  3
$MODEL_SPACE
  1

  0
ENDBLK
  5
21
  8
0
  0
BLOCK
 67
     1
  8
0
  2
$PAPER_SPACE
 70
     0
 10
0.0
 20
0.0
 30
0.0
  3
$PAPER_SPACE
  1

  0
ENDBLK
  5
1D
 67
     1
  8
0
  0
ENDSEC
  0
SECTION
  2
ENTITIES
  0
LINE
  5
257
  8
0
 10
7.6916683414999962
 20
2.4487499999999991
 30
0.0
 11
9.6316683414999957
 21
2.4487499999999991
 31
0.0
  0
LINE
  5
258
  8
0
 10
9.6316683414999993
 20
2.6502500000000002
 30
0.0
 11
7.6916683414999989
 21
2.6502500000000002
 31
0.0
  0
LINE
  5
261
  8
0
 10
11.0470408496
 20
4.2037119723999989
 30
0.0
 11
10.8833011761
 21
4.2008538857999991
 31
0.0
  0
LINE
  5
263
  8
0
 10
9.5366683285999994
 20
4.18025
 30
0.0
 11
10.4766683415
 21
4.18025
 31
0.0
  0
LINE
  5
264
  8
0
 10
11.8144254085
 20
4.1952630692000001
 30
0.0
 11
12.3244254085
 21
4.1952630692000001
 31
0.0
  0
LINE
  5
26B
  8
0
 10
11.8044254085
 20
4.7169353606668896
 30
0.0
 11
11.6030711955
 21
4.7134039230000004
 31
0.0
  0
LINE
  5
26C
  8
0
 10
11.80442540849999
 20
5.1735907776104311
 30
0.0
 11
11.6030711955
 21
5.177122215399999
 31
0.0
  0
LINE
  5
26D
  8
0
 10
9.5366683269999992
 20
5.7102500000000003
 30
0.0
 11
10.4766683415
 21
5.7102500000000003
 31
0.0
  0
LINE
  5
26E
  8
0
 10
11.32804935689432
 20
5.6818830058407288
 30
0.0
 11
10.50201293731407
 21
5.6963015252552891
 31
0.0
  0
LINE
  5
270
  8
0
 10
7.6616683414999986
 20
2.6202499999999991
 30
0.0
 11
7.6616683414999986
 21
2.4787499999999989
 31
0.0
  0
LINE
  5
271
  8
0
 10
7.8316683414999986
 20
2.7752500000000002
 30
0.0
 11
7.8316683414999986
 21
5.9252500000000001
 31
0.0
  0
LINE
  5
272
  8
0
 10
9.4616683414999994
 20
5.9552500000000004
 30
0.0
 11
7.8616683414999988
 21
5.9552500000000004
 31
0.0
  0
LINE
  5
274
  8
0
 10
8.1056683414999995
 20
6.1946485997111163
 30
0.0
 11
8.1056683414999995
 21
13.32025
 31
0.0
  0
LINE
  5
278
  8
0
 10
8.2116683414999994
 20
11.41925
 30
0.0
 11
8.2116683414999994
 21
11.45025
 31
0.0
  0
LINE
  5
283
  8
0
 10
9.1116683414999997
 20
11.41925
 30
0.0
 11
9.1116683414999997
 21
11.45025
 31
0.0
  0
LINE
  5
289
  8
0
 10
9.2176683414999978
 20
6.194847471370422
 30
0.0
 11
9.2176683414999996
 21
13.32025
 31
0.0
  0
LINE
  5
28B
  8
0
 10
9.4916683415000005
 20
5.9252500000000001
 30
0.0
 11
9.4916683415000005
 21
5.755249985599999
 31
0.0
  0
LINE
  5
28C
  8
0
 10
9.4916683415000005
 20
2.7752500000000002
 30
0.0
 11
9.4916683415000005
 21
4.1352500127999994
 31
0.0
  0
LINE
  5
28E
  8
0
 10
10.506668341499999
 20
5.0813396857377322
 30
0.0
 11
10.854962180299999
 21
4.2196108985
 31
0.0
  0
LINE
  5
291
  8
0
 10
11.8144254085
 20
7.9452630691999993
 30
0.0
 11
12.3244254085
 21
7.9452630691999993
 31
0.0
  0
LINE
  5
293
  8
0
 10
10.506668341499999
 20
4.2102500000000003
 30
0.0
 11
10.506668341499999
 21
5.68025
 31
0.0
  0
LINE
  5
2A5
  8
0
 10
11.8044254085
 20
4.205263069199999
 30
0.0
 11
11.8044254085
 21
4.7169353606668896
 31
0.0
  0
LINE
  5
2A6
  8
0
 10
11.80442540849999
 20
4.7169353606668896
 30
0.0
 11
11.8044254085
 21
7.9352630691999986
 31
0.0
  0
LINE
  5
2A7
  8
0
 10
12.3344254085
 20
4.205263069199999
 30
0.0
 11
12.3344254085
 21
7.9352630691999986
 31
0.0
  0
LINE
  5
2A8
  8
0
 10
8.2436753220999996
 20
11.38725
 30
0.0
 11
9.0796681882000012
 21
11.38725
 31
0.0
  0
LINE
  5
2A9
  8
0
 10
8.1127854987778178
 20
11.45024942241608
 30
0.0
 11
9.2097723549859154
 21
11.450250003274871
 31
0.0
  0
ARC
  5
394
  8
0
 10
7.8630944945547592
 20
6.1978424958591161
 30
0.0
 40
0.2425948725641523
 50
270.25362077146309
 51
359.38769563863531
  0
ARC
  5
395
  8
0
 10
9.4602403620030415
 20
6.1978380864375868
 30
0.0
 40
0.2425904551077989
 50
180.61127402109
 51
269.74680598929729
  0
ARC
  5
396
  8
0
 10
7.7066683414999986
 20
2.7752500000000002
 30
0.0
 40
0.125
 50
270.0
 51
360.0
  0
ARC
  5
397
  8
0
 10
9.6166683415000005
 20
2.7752500000000002
 30
0.0
 40
0.125
 50
180.0
 51
270.0
  0
ARC
  5
39A
  8
0
 10
7.6916683414999989
 20
2.6202499999999991
 30
0.0
 40
0.03
 50
90.0
 51
180.0
  0
ARC
  5
39B
  8
0
 10
9.6316683414999993
 20
2.6202499999999991
 30
0.0
 40
0.03
 50
0.0
 51
90.0
  0
ARC
  5
39C
  8
0
 10
9.6316683414999957
 20
2.4787499999999989
 30
0.0
 40
0.03
 50
270.0
 51
0.0
  0
ARC
  5
39D
  8
0
 10
7.6916683414999962
 20
2.4787499999999989
 30
0.0
 40
0.03
 50
180.0
 51
270.0
  0
ARC
  5
39E
  8
0
 10
9.4616683414999994
 20
5.9252500000000001
 30
0.0
 40
0.03
 50
0.0
 51
90.0
  0
ARC
  5
39F
  8
0
 10
7.8616683414999988
 20
5.9252500000000001
 30
0.0
 40
0.03
 50
90.0
 51
180.0
  0
ARC
  5
3A7
  8
0
 10
8.6616683415000004
 20
13.32025
 30
0.0
 40
0.5560000000000001
 50
0.0
 51
180.0
  0
ARC
  5
3AA
  8
0
 10
9.0796683414999997
 20
11.41925
 30
0.0
 40
0.032
 50
269.99999959339999
 51
360.0
  0
ARC
  5
3AB
  8
0
 10
8.2436683414999994
 20
11.41925
 30
0.0
 40
0.032
 50
180.0
 51
270.00043436150003
  0
ARC
  5
3AC
  8
0
 10
9.2096790035670733
 20
11.4582494458
 30
0.0
 40
0.0079999872
 50
270.36617387050001
 51
357.04334241114208
  0
ARC
  5
3AD
  8
0
 10
8.1136673275999591
 20
11.458200658617359
 30
0.0
 40
0.0079999862
 50
180.00009557710001
 51
263.6714953585531
  0
ARC
  5
3AE
  8
0
 10
10.4080517898
 20
5.0250403784999991
 30
0.0
 40
0.75
 50
277.5700141287
 51
300.63983027569998
  0
ARC
  5
3B0
  8
0
 10
11.60745513
 20
5.4270837746999998
 30
0.0
 40
0.25
 50
181.34594136429999
 51
268.99522471530003
  0
ARC
  5
3B1
  8
0
 10
11.60745513
 20
4.4634423636999996
 30
0.0
 40
0.25
 50
91.004775284699988
 51
178.72630922619999
  0
ARC
  5
3B2
  8
0
 10
11.327489522
 20
4.2386117920999986
 30
0.0
 40
0.03
 50
271.03457675060002
 51
360.0
  0
ARC
  5
3B5
  8
0
 10
10.4766683415
 20
5.68025
 30
0.0
 40
0.03
 50
0.0
 51
90.0
  0
ARC
  5
3B6
  8
0
 10
10.4766683415
 20
4.2102500000000003
 30
0.0
 40
0.03
 50
270.0
 51
360.0
  0
ARC
  5
3B7
  8
0
 10
11.8144254085
 20
4.205263069199999
 30
0.0
 40
0.01
 50
180.0
 51
270.0
  0
ARC
  5
3B8
  8
0
 10
12.3244254085
 20
4.205263069199999
 30
0.0
 40
0.01
 50
270.0
 51
360.0
  0
ARC
  5
3B9
  8
0
 10
12.3244254085
 20
7.9352630691999986
 30
0.0
 40
0.01
 50
0.0
 51
90.0
  0
ARC
  5
3BA
  8
0
 10
11.8144254085
 20
7.9352630691999986
 30
0.0
 40
0.01
 50
90.0
 51
180.0
  0
LINE
  5
5F6
  8
0
 10
11.3574895234
 20
4.2386117922000004
 30
0.0
 11
11.35751689961139
 21
4.4689994303914
 31
0.0
  0
ARC
  5
5FE
  8
0
 10
9.5382300012974301
 20
4.1336883244820068
 30
0.0
 40
0.0465878573091391
 50
91.920973085685205
 51
178.0790078157209
  0
ARC
  5
600
  8
0
 10
9.5366682963287221
 20
5.7552499719287153
 30
0.0
 40
0.0449999719287255
 50
179.9999825931701
 51
270.00003905190732
  0
ARC
  5
609
  8
0
 10
10.88277760340498
 20
4.23084932312271
 30
0.0
 40
0.0299999991751592
 50
202.0004678528326
 51
271.0000007951856
  0
ARC
  5
60A
  8
0
 10
11.17009742246405
 20
3.478711210405629
 30
0.0
 40
0.7352594995262062
 50
82.423718619713185
 51
99.300980632771555
  0
LINE
  5
60B
  8
0
 10
11.35752578469838
 20
5.6518875749860866
 30
0.0
 11
11.35752578469838
 21
5.4211405132126869
 31
0.0
  0
LINE
  5
60C
  8
0
 10
9.6616683414999986
 20
2.6202499999999991
 30
0.0
 11
9.6616683414999951
 21
2.4787499999999989
 31
0.0
  0
LINE
  5
60D
  8
0
 10
11.2670384813
 20
4.2075520453999991
 30
0.0
 11
11.328031195683581
 21
4.208616682671618
 31
0.0
  0
ARC
  5
610
  8
0
 10
11.327525784698381
 20
5.6518875749860866
 30
0.0
 40
0.03
 50
0.0
 51
88.999999994611144
  0
ATTDEF
  5
8A2
  8
DEFPOINTS
 10
8.6578646400611419
 20
2.4461727416300589
 30
0.0
 40
0.001
  1
K-7505
  3

  2
MODELNUMBER
 70
     0
1001
ACDBATTR
1070
     0
1070
     1
  0
ATTDEF
  5
8A3
  8
DEFPOINTS
 10
8.6578646400611419
 20
2.4445060749633929
 30
0.0
 40
0.001
  1
PURIST
  3

  2
TRADENAME
 70
     0
1001
ACDBATTR
1070
     0
1070
     1
  0
ATTDEF
  5
8A4
  8
DEFPOINTS
 10
8.6578646400611419
 20
2.442839408296726
 30
0.0
 40
0.001
  1
KITCHEN SINK FAUCETS
  3

  2
PRODUCT
 70
     0
1001
ACDBATTR
1070
     0
1070
     1
  0
ATTDEF
  5
8A5
  8
DEFPOINTS
 10
8.6578646400611419
 20
2.4411727416300599
 30
0.0
 40
0.001
  1
METAL
  3

  2
MATERIAL
 70
     0
1001
ACDBATTR
1070
     0
1070
     1
  0
ENDSEC
  0
EOF
