  0
SECTION
  2
HEADER
  9
$ACADVER
  1
AC1009
  9
$INSBASE
 10
3.7107567559999999
 20
27.049505838000002
 30
0.0
  9
$EXTMIN
 10
2.4607567559999999
 20
22.399657107698442
 30
0.0
  9
$EXTMAX
 10
5.8576071497000006
 20
28.724151485699998
 30
0.0
  9
$LIMMIN
 10
0.0
 20
0.0
  9
$LIMMAX
 10
11.692913385800001
 20
8.2677165353999982
  9
$ORTHOMODE
 70
     0
  9
$REGENMODE
 70
     1
  9
$FILLMODE
 70
     1
  9
$QTEXTMODE
 70
     0
  9
$MIRRTEXT
 70
     0
  9
$DRAGMODE
 70
     2
  9
$LTSCALE
 40
0.6431102362
  9
$OSMODE
 70
  3071
  9
$ATTMODE
 70
     1
  9
$TEXTSIZE
 40
0.2
  9
$TRACEWID
 40
0.05
  9
$TEXTSTYLE
  7
STANDARD
  9
$CLAYER
  8
0
  9
$CELTYPE
  6
BYLAYER
  9
$CECOLOR
 62
   256
  9
$DIMSCALE
 40
1.0
  9
$DIMASZ
 40
0.1875
  9
$DIMEXO
 40
0.0625
  9
$DIMDLI
 40
0.4443307087
  9
$DIMRND
 40
0.0
  9
$DIMDLE
 40
0.0
  9
$DIMEXE
 40
0.125
  9
$DIMTP
 40
0.01
  9
$DIMTM
 40
0.01
  9
$DIMTXT
 40
0.15625
  9
$DIMCEN
 40
0.1052362205
  9
$DIMTSZ
 40
0.0
  9
$DIMTOL
 70
     1
  9
$DIMLIM
 70
     0
  9
$DIMTIH
 70
     1
  9
$DIMTOH
 70
     1
  9
$DIMSE1
 70
     0
  9
$DIMSE2
 70
     0
  9
$DIMTAD
 70
     0
  9
$DIMZIN
 70
     0
  9
$DIMBLK
  1

  9
$DIMASO
 70
     1
  9
$DIMSHO
 70
     1
  9
$DIMPOST
  1

  9
$DIMAPOST
  1

  9
$DIMALT
 70
     0
  9
$DIMALTD
 70
     2
  9
$DIMALTF
 40
25.399999999999999
  9
$DIMLFAC
 40
1.0
  9
$DIMTOFL
 70
     0
  9
$DIMTVP
 40
0.0
  9
$DIMTIX
 70
     0
  9
$DIMSOXD
 70
     0
  9
$DIMSAH
 70
     0
  9
$DIMBLK1
  1

  9
$DIMBLK2
  1

  9
$DIMSTYLE
  2
STANDARD
  9
$DIMCLRD
 70
     0
  9
$DIMCLRE
 70
     0
  9
$DIMCLRT
 70
     0
  9
$DIMTFAC
 40
1.0
  9
$DIMGAP
 40
0.09
  9
$LUNITS
 70
     2
  9
$LUPREC
 70
     4
  9
$SKETCHINC
 40
0.1
  9
$FILLETRAD
 40
0.0
  9
$AUNITS
 70
     0
  9
$AUPREC
 70
     0
  9
$MENU
  1
.
  9
$ELEVATION
 40
0.0
  9
$PELEVATION
 40
0.0
  9
$THICKNESS
 40
0.0
  9
$LIMCHECK
 70
     0
  9
$BLIPMODE
 70
     0
  9
$CHAMFERA
 40
0.0
  9
$CHAMFERB
 40
0.0
  9
$SKPOLY
 70
     0
  9
$TDCREATE
 40
2457665.7559119682
  9
$TDUPDATE
 40
2457666.6132594449
  9
$TDINDWG
 40
0.1169330671
  9
$TDUSRTIMER
 40
0.1169330671
  9
$USRTIMER
 70
     1
  9
$ANGBASE
 50
0.0
  9
$ANGDIR
 70
     0
  9
$PDMODE
 70
     0
  9
$PDSIZE
 40
0.3125
  9
$PLINEWID
 40
0.0
  9
$COORDS
 70
     1
  9
$SPLFRAME
 70
     0
  9
$SPLINETYPE
 70
     6
  9
$SPLINESEGS
 70
     8
  9
$ATTDIA
 70
     1
  9
$ATTREQ
 70
     1
  9
$HANDLING
 70
     1
  9
$HANDSEED
  5
235E
  9
$SURFTAB1
 70
     6
  9
$SURFTAB2
 70
     6
  9
$SURFTYPE
 70
     6
  9
$SURFU
 70
     6
  9
$SURFV
 70
     6
  9
$UCSNAME
  2

  9
$UCSORG
 10
0.0
 20
0.0
 30
0.0
  9
$UCSXDIR
 10
1.0
 20
0.0
 30
0.0
  9
$UCSYDIR
 10
0.0
 20
1.0
 30
0.0
  9
$PUCSNAME
  2

  9
$PUCSORG
 10
0.0
 20
0.0
 30
0.0
  9
$PUCSXDIR
 10
1.0
 20
0.0
 30
0.0
  9
$PUCSYDIR
 10
0.0
 20
1.0
 30
0.0
  9
$USERI1
 70
     0
  9
$USERI2
 70
     0
  9
$USERI3
 70
     0
  9
$USERI4
 70
     0
  9
$USERI5
 70
     0
  9
$USERR1
 40
0.0
  9
$USERR2
 40
0.0
  9
$USERR3
 40
0.0
  9
$USERR4
 40
0.0
  9
$USERR5
 40
0.0
  9
$WORLDVIEW
 70
     1
  9
$SHADEDGE
 70
     3
  9
$SHADEDIF
 70
    70
  9
$TILEMODE
 70
     1
  9
$MAXACTVP
 70
    64
  9
$PLIMCHECK
 70
     0
  9
$PEXTMIN
 10
1.0000000000000000E+020
 20
1.0000000000000000E+020
 30
1.0000000000000000E+020
  9
$PEXTMAX
 10
-1.0000000000000000E+020
 20
-1.0000000000000000E+020
 30
-1.0000000000000000E+020
  9
$PLIMMIN
 10
0.0
 20
0.0
  9
$PLIMMAX
 10
12.0
 20
9.0
  9
$UNITMODE
 70
     0
  9
$VISRETAIN
 70
     1
  9
$PLINEGEN
 70
     0
  9
$PSLTSCALE
 70
     1
  0
ENDSEC
  0
SECTION
  2
TABLES
  0
TABLE
  2
VPORT
 70
     1
  0
VPORT
  2
*ACTIVE
 70
     0
 10
0.0
 20
0.0
 11
1.0
 21
1.0
 12
0.0
 22
0.0
 13
0.0
 23
0.0
 14
1.0
 24
1.0
 15
0.0
 25
0.0
 16
-0.0000000000000053
 26
0.0
 36
22.025521242634959
 17
4.1592096090316772
 27
25.561920166015629
 37
0.0
 40
7.1817375806646107
 41
2.3378378378378368
 42
50.0
 43
0.0
 44
0.0
 50
0.0
 51
0.0
 71
     0
 72
   100
 73
     1
 74
     1
 75
     0
 76
     0
 77
     0
 78
     0
  0
ENDTAB
  0
TABLE
  2
LTYPE
 70
     1
  0
LTYPE
  2
CONTINUOUS
 70
     0
  3
Solid line
 72
    65
 73
     0
 40
0.0
  0
ENDTAB
  0
TABLE
  2
LAYER
 70
     2
  0
LAYER
  2
0
 70
     0
 62
     7
  6
CONTINUOUS
  0
LAYER
  2
DEFPOINTS
 70
     0
 62
     7
  6
CONTINUOUS
  0
ENDTAB
  0
TABLE
  2
STYLE
 70
     1
  0
STYLE
  2
STANDARD
 70
     0
 40
0.0
 41
0.8
 50
0.0
 71
     0
 42
0.2
  3
txt
  4

  0
ENDTAB
  0
TABLE
  2
VIEW
 70
     0
  0
ENDTAB
  0
TABLE
  2
UCS
 70
     0
  0
ENDTAB
  0
TABLE
  2
APPID
 70
     4
  0
APPID
  2
ACAD
 70
     0
  0
APPID
  2
ACAD_MLEADERVER
 70
     0
  0
APPID
  2
ACAD_NAV_VCDISPLAY
 70
     0
  0
APPID
  2
AcDbAttr
 70
     0
  0
ENDTAB
  0
TABLE
  2
DIMSTYLE
 70
     1
  0
DIMSTYLE
  2
STANDARD
 70
     0
  3

  4

  5

  6

  7

 40
1.0
 41
0.1875
 42
0.0625
 43
0.38
 44
0.125
 45
0.0
 46
0.0
 47
0.01
 48
0.01
140
0.15625
141
0.09
142
0.0
143
25.399999999999999
144
1.0
145
0.0
146
1.0
147
0.09
 71
     1
 72
     0
 73
     1
 74
     1
 75
     0
 76
     0
 77
     0
 78
     4
170
     0
171
     2
172
     0
173
     0
174
     0
175
     0
176
     0
177
     0
178
     0
  0
ENDTAB
  0
ENDSEC
  0
SECTION
  2
BLOCKS
  0
BLOCK
  8
0
  2
$MODEL_SPACE
 70
     0
 10
0.0
 20
0.0
 30
0.0
  3
$MODEL_SPACE
  1

  0
ENDBLK
  5
21
  8
0
  0
BLOCK
 67
     1
  8
0
  2
$PAPER_SPACE
 70
     0
 10
0.0
 20
0.0
 30
0.0
  3
$PAPER_SPACE
  1

  0
ENDBLK
  5
1D
 67
     1
  8
0
  0
ENDSEC
  0
SECTION
  2
ENTITIES
  0
LINE
  5
868
  8
0
 10
3.0217803779999999
 20
23.324529785999999
 30
0.0
 11
3.0217803779999999
 21
27.0509485981
 31
0.0
  0
LINE
  5
86B
  8
0
 10
3.3190244725000002
 20
22.42121838340001
 30
0.0
 11
3.3190244725000002
 21
23.003540597600001
 31
0.0
  0
LINE
  5
86C
  8
0
 10
3.3190244725000002
 20
23.149121151100001
 30
0.0
 11
3.3190244725000002
 21
23.1814680994
 31
0.0
  0
LINE
  5
872
  8
0
 10
3.6024890394999991
 20
27.730658162400001
 30
0.0
 11
3.6024890394999991
 21
28.7044664463
 31
0.0
  0
LINE
  5
875
  8
0
 10
3.8190244725000002
 20
27.73514122547137
 30
0.0
 11
3.8190244725000002
 21
28.7044664463
 31
0.0
  0
LINE
  5
879
  8
0
 10
4.1024890394999991
 20
23.181467876399999
 30
0.0
 11
4.1024890394999991
 21
23.149121151100001
 31
0.0
  0
LINE
  5
87A
  8
0
 10
4.1024890394999991
 20
23.003540597600001
 30
0.0
 11
4.1024890394999991
 21
22.42121838340001
 31
0.0
  0
LINE
  5
87D
  8
0
 10
4.399733133999999
 20
27.0509485981
 30
0.0
 11
4.399733133999999
 21
23.324529785999999
 31
0.0
  0
LINE
  5
87F
  8
0
 10
5.1292606929999991
 20
26.376950513499999
 30
0.0
 11
5.8199770216999989
 21
26.382978137399999
 31
0.0
  0
LINE
  5
880
  8
0
 10
5.0302157401000001
 20
26.405981738200001
 30
0.0
 11
5.009969354399999
 21
26.405805050600001
 31
0.0
  0
LINE
  5
882
  8
0
 10
4.399733133999999
 20
26.378998067711901
 30
0.0
 11
4.9902843151000003
 21
26.380214499400001
 31
0.0
  0
LINE
  5
886
  8
0
 10
5.009969354399999
 20
26.3998995388
 30
0.0
 11
5.009969354399999
 21
27.6991121372
 31
0.0
  0
LINE
  5
888
  8
0
 10
5.1292606929999991
 20
27.722061162599999
 30
0.0
 11
5.1292606929999991
 21
26.376950513499999
 31
0.0
  0
LINE
  5
88B
  8
0
 10
5.5032764409999997
 20
26.411986457400001
 30
0.0
 11
5.5032764409999997
 21
27.687024885900001
 31
0.0
  0
LINE
  5
88F
  8
0
 10
4.9902843151000003
 20
27.718797176599999
 30
0.0
 11
4.6162685669999988
 21
27.718797176599999
 31
0.0
  0
LINE
  5
891
  8
0
 10
5.0302157401000001
 20
27.6930299379
 30
0.0
 11
5.009969354399999
 21
27.693206625399998
 31
0.0
  0
LINE
  5
892
  8
0
 10
5.1292606929999991
 20
27.722061162599999
 30
0.0
 11
5.8199770216999989
 21
27.716033206399999
 31
0.0
  0
LINE
  5
895
  8
0
 10
3.7993327555
 20
28.724151485699998
 30
0.0
 11
3.6221807564999988
 21
28.724151485699998
 31
0.0
  0
ARC
  5
ECE
  8
0
 10
-25.638455842399999
 20
27.049505664400002
 30
0.0
 40
31.496062992100001
 50
358.84354577940002
 51
1.1564542628000001
  0
ARC
  5
EE1
  8
0
 10
3.7107416672000002
 20
23.0035431047
 30
0.0
 40
0.3917171947
 50
160.0159095743
 51
180.00036671509989
  0
ARC
  5
EE2
  8
0
 10
3.710771864499999
 20
23.003543108700001
 30
0.0
 40
0.3917171749999999
 50
359.99963270630002
 51
19.984011312100002
  0
ARC
  5
EE3
  8
0
 10
3.7114899691000001
 20
23.0038167893
 30
0.0
 40
0.3909487766
 50
19.9822843249
 51
20.6079873425
  0
ARC
  5
EE4
  8
0
 10
3.710020791499999
 20
23.0038178247
 30
0.0
 40
0.3909458368
 50
159.39201276750001
 51
160.0176407797
  0
ARC
  5
EEF
  8
0
 10
3.1712647822000002
 20
23.3245430166
 30
0.0
 40
0.1494849017
 50
180.00507113649999
 51
233.34620256900001
  0
ARC
  5
EF0
  8
0
 10
4.250248727899999
 20
23.324543017500002
 30
0.0
 40
0.1494849017
 50
306.65379779919999
 51
359.99492849950002
  0
ARC
  5
EF5
  8
0
 10
3.7107567559999999
 20
27.049505838000002
 30
0.0
 40
1.25
 50
303.44807931592862
 51
327.6016585863851
  0
ARC
  5
EF6
  8
0
 10
3.7107567559999999
 20
27.049505838000002
 30
0.0
 40
1.25
 50
94.968708161100025
 51
236.55192068407149
  0
ARC
  5
EF7
  8
0
 10
3.7107567559999999
 20
27.049505838000002
 30
0.0
 40
1.25
 50
32.373285980071799
 51
85.031086580100009
  0
ARC
  5
EF8
  8
0
 10
3.7107567559999999
 20
27.049505838000002
 30
0.0
 40
1.062992125999999
 50
95.845818336521418
 51
229.5978747407957
  0
ARC
  5
EF9
  8
0
 10
3.7107567559999999
 20
27.049505838000002
 30
0.0
 40
1.062992125999999
 50
39.0423041914
 51
84.154181663478568
  0
ARC
  5
EFA
  8
0
 10
3.7107567559999999
 20
27.049505838000002
 30
0.0
 40
1.062992125999999
 50
310.40212525920441
 51
320.91222199614452
  0
ARC
  5
F01
  8
0
 10
3.7993394332000001
 20
28.7044664463
 30
0.0
 40
0.0196850394
 50
0.0
 51
90.0
  0
ARC
  5
F02
  8
0
 10
3.6221740788000001
 20
28.7044664463
 30
0.0
 40
0.0196850394
 50
90.0
 51
180.0
  0
ARC
  5
F07
  8
0
 10
5.8197021702000002
 20
26.414473001200001
 30
0.0
 40
0.031496063
 50
270.5
 51
358.8435511436
  0
ARC
  5
F08
  8
0
 10
5.5347725106999999
 20
26.4119865065
 30
0.0
 40
0.0314960495
 50
180.00008941639999
 51
270.49998703950001
  0
ARC
  5
F09
  8
0
 10
4.9902843151000003
 20
26.3998995388
 30
0.0
 40
0.0196850394
 50
270.0
 51
360.0
  0
ARC
  5
F0A
  8
0
 10
4.8273537048000001
 20
27.049505838000002
 30
0.0
 40
0.6747416339
 50
63.42038857741489
 51
72.5032664533
  0
ARC
  5
F0B
  8
0
 10
4.8273537048000001
 20
27.049505838000002
 30
0.0
 40
0.6747416339
 50
287.4967335467
 51
296.57961142258512
  0
ARC
  5
F11
  8
0
 10
5.8197021702000002
 20
27.684538342700002
 30
0.0
 40
0.031496063
 50
1.1564488563999991
 51
89.500000000000014
  0
ARC
  5
F12
  8
0
 10
5.5347725128
 20
27.687024838100001
 30
0.0
 40
0.0314960491
 50
89.500016745500005
 51
179.9999129677
  0
ARC
  5
F13
  8
0
 10
4.9902843151000003
 20
27.6991121372
 30
0.0
 40
0.0196850394
 50
0.0
 51
90.0
  0
ARC
  5
2231
  8
0
 10
3.7107567559996659
 20
27.050492988208081
 30
0.0
 40
0.6889765286436921
 50
0.0378887631622649
 51
179.962111153677
  0
ARC
  5
2232
  8
0
 10
4.6946338180035339
 20
50.993866508849202
 30
0.0
 40
23.275201256564301
 50
267.57730107736529
 51
269.80709053482963
  0
ARC
  5
2233
  8
0
 10
3.3454913945516238
 20
23.140675544398128
 30
0.0
 40
0.0015855667942181
 50
105.1002129190355
 51
152.00234850789661
  0
ARC
  5
2234
  8
0
 10
3.3509479194422882
 20
23.12841268593596
 30
0.0
 40
0.0149905805332324
 50
103.18923671883149
 51
113.0510461133323
  0
ARC
  5
2235
  8
0
 10
3.4352946531958248
 20
22.524109880047149
 30
0.0
 40
0.6250901946749272
 50
91.573181543068515
 51
98.071404294922615
  0
ARC
  5
2236
  8
0
 10
3.6821126366935979
 20
16.25347973846441
 30
0.0
 40
6.9005358139240256
 50
90.004437932797671
 51
92.192377149948058
  0
ARC
  5
2237
  8
0
 10
3.7362862246870181
 20
17.19634901070453
 30
0.0
 40
5.9579177024551582
 50
86.951717449520643
 51
90.526121083669494
  0
ARC
  5
223F
  8
0
 10
4.043286329530499
 20
22.99993942392889
 30
0.0
 40
0.1462278661456922
 50
77.281138691275487
 51
86.146668522516364
  0
ARC
  5
2240
  8
0
 10
4.0740697756410258
 20
23.137571894833641
 30
0.0
 40
0.0052023204970359
 50
52.988051469734053
 51
74.261069630285192
  0
ARC
  5
2241
  8
0
 10
4.0766335847765403
 20
23.141084115572848
 30
0.0
 40
0.0008570393381838
 50
23.06378445625899
 51
48.49996274664155
  0
ARC
  5
2242
  8
0
 10
4.049942220389088
 20
23.36893391787417
 30
0.0
 40
0.2333378197107423
 50
277.13097070895139
 51
280.31927177696332
  0
ARC
  5
2243
  8
0
 10
4.0881536874953683
 20
23.159071072679001
 30
0.0
 40
0.0200245992769664
 50
280.31927177695871
 51
302.30241079326618
  0
ARC
  5
2244
  8
0
 10
4.0938416987989026
 20
23.14919196259526
 30
0.0
 40
0.0086476482009246
 50
305.4282324679877
 51
359.51658058045251
  0
ARC
  5
2245
  8
0
 10
4.1014640532523039
 20
23.148919450812642
 30
0.0
 40
0.0010442300849263
 50
11.016863931476919
 51
62.67346650781009
  0
ARC
  5
2246
  8
0
 10
4.0943959601545821
 20
23.134380571995191
 30
0.0
 40
0.0172098563823987
 50
63.988316811789304
 51
80.637691671363029
  0
ARC
  5
2247
  8
0
 10
3.9150035413128079
 20
21.338853718650359
 30
0.0
 40
1.821641363040746
 50
84.259946653330843
 51
89.492099150389365
  0
ARC
  5
2248
  8
0
 10
3.722129033135114
 20
14.36294733084878
 30
0.0
 40
8.7999589457100686
 50
88.638945606261757
 51
92.295293001188895
  0
ARC
  5
2249
  8
0
 10
3.3900517948276661
 20
22.718329263811341
 30
0.0
 40
0.4379901115191143
 50
92.664165806784794
 51
98.637894047674905
  0
ARC
  5
224A
  8
0
 10
3.3299142625902118
 20
23.123222307676841
 30
0.0
 40
0.0286896750999031
 50
101.3453030343499
 51
108.22597470709439
  0
ARC
  5
224B
  8
0
 10
3.3226276052296542
 20
23.145081201696591
 30
0.0
 40
0.0056490487689919
 50
107.370120815717
 51
125.19913243480291
  0
ARC
  5
224C
  8
0
 10
3.3198547202373438
 20
23.149014205545281
 30
0.0
 40
0.0008368350461931
 50
125.2805281529799
 51
172.80605830436059
  0
ARC
  5
224D
  8
0
 10
3.327550805582693
 20
23.149163586624031
 30
0.0
 40
0.0085264493547392
 50
180.29960650901921
 51
220.1746961450765
  0
ARC
  5
224E
  8
0
 10
3.3298496922852832
 20
23.15164748059118
 30
0.0
 40
0.0118926328333225
 50
222.17368776510881
 51
255.5784550392907
  0
ARC
  5
224F
  8
0
 10
3.3573278303150671
 20
23.268839657397081
 30
0.0
 40
0.1322606441579127
 50
256.69398141426632
 51
263.60887736967447
  0
ARC
  5
2250
  8
0
 10
3.7107545038575469
 20
15.269029393548299
 30
0.0
 40
7.9221296815520192
 50
87.165674732116628
 51
92.834292651325057
  0
ARC
  5
2251
  8
0
 10
4.0916125972737181
 20
23.038518545830751
 30
0.0
 40
0.1433625059271038
 50
77.175292817899589
 51
85.648976752595985
  0
ARC
  5
2252
  8
0
 10
4.1216621173998176
 20
23.171371796289161
 30
0.0
 40
0.0071558945396029
 50
54.117030468992859
 51
75.658594838361097
  0
ARC
  5
2253
  8
0
 10
4.1254968197803183
 20
23.176672546259891
 30
0.0
 40
0.000613502576476
 50
359.35100465266959
 51
54.117030469318578
  0
ARC
  5
2254
  8
0
 10
4.1254500328617771
 20
23.176673076242931
 30
0.0
 40
0.0006602924966332
 50
304.76107496749222
 51
359.35100465258029
  0
ARC
  5
2255
  8
0
 10
4.0977379381903214
 20
23.263329550893658
 30
0.0
 40
0.0916112476047211
 50
272.97278156709172
 51
287.8548147314969
  0
ARC
  5
2256
  8
0
 10
3.3330378396663298
 20
23.335271037328411
 30
0.0
 40
0.1640242808515252
 50
257.715937737442
 51
265.09897704407371
  0
ARC
  5
2257
  8
0
 10
3.299489128386758
 20
23.181196856202011
 30
0.0
 40
0.0063398830238112
 50
233.46221669171811
 51
257.71593773745008
  0
ARC
  5
2258
  8
0
 10
3.2961784702645112
 20
23.176728923483079
 30
0.0
 40
0.0007790485555563
 50
186.0969271597364
 51
233.4622166917737
  0
ARC
  5
2259
  8
0
 10
3.2958059212063868
 20
23.176689129682568
 30
0.0
 40
0.000404380239217
 50
144.2722568561816
 51
186.09692715964101
  0
ARC
  5
225A
  8
0
 10
3.2977123113393678
 20
23.17531784919008
 30
0.0
 40
0.0027527272170296
 50
99.07262868296641
 51
144.27225685618009
  0
ARC
  5
225B
  8
0
 10
3.3281820153669961
 20
23.052830173557901
 30
0.0
 40
0.1289634698522004
 50
94.071932124401116
 51
103.86482049755639
  0
ARC
  5
225C
  8
0
 10
3.1730124506739998
 20
23.32758674628144
 30
0.0
 40
0.1529706392375864
 50
233.50162814586389
 51
269.39104845905501
  0
ARC
  5
225D
  8
0
 10
3.138783514174206
 20
20.107133849325699
 30
0.0
 40
3.0676641555823001
 50
86.631640000965916
 51
89.391048459054943
  0
ARC
  5
225E
  8
0
 10
4.2480517700983267
 20
23.328396855343609
 30
0.0
 40
0.1538800074579696
 50
268.67045522035289
 51
306.45879654948408
  0
ARC
  5
225F
  8
0
 10
4.2164155603343341
 20
21.965301780576731
 30
0.0
 40
1.2095821418596979
 50
88.670455220352949
 51
95.404509860932365
  0
ARC
  5
2260
  8
0
 10
4.0938549419202337
 20
22.42128426486547
 30
0.0
 40
0.0086343489264914
 50
305.95813036462459
 51
359.56281978183358
  0
ARC
  5
2261
  8
0
 10
4.0906216330557426
 20
22.425741378518438
 30
0.0
 40
0.0141407223545072
 50
281.58315480840469
 51
305.9581303646255
  0
ARC
  5
2262
  8
0
 10
3.7709405345556042
 20
26.657873153549222
 30
0.0
 40
4.2582160458507721
 50
269.32516195078171
 51
274.3437843555447
  0
ARC
  5
2263
  8
0
 10
3.6834756194087892
 20
29.167205479478511
 30
0.0
 40
6.7673558774426867
 50
267.36451469885719
 51
270.31590499948732
  0
ARC
  5
2264
  8
0
 10
3.3905419699048842
 20
22.785514885368482
 30
0.0
 40
0.3789466043223206
 50
260.75958174660519
 51
267.24098201232192
  0
ARC
  5
2265
  8
0
 10
3.330061827677961
 20
22.422603556259929
 30
0.0
 40
0.0111239342490209
 50
187.15314400676871
 51
268.0930840456445
  0
ARC
  5
2266
  8
0
 10
3.3207979828242622
 20
22.42054164172897
 30
0.0
 40
0.0018974750575112
 50
97.470343551607741
 51
159.1746426472954
  0
ARC
  5
2267
  8
0
 10
3.3488317123566582
 20
22.31199205242557
 30
0.0
 40
0.113994645616581
 50
94.238093489549016
 51
104.3642545998387
  0
ARC
  5
226F
  8
0
 10
3.713804181177037
 20
14.86537471958628
 30
0.0
 40
7.5695155271035404
 50
87.268336349247946
 51
92.827492409636832
  0
ARC
  5
2270
  8
0
 10
4.0573262498722649
 20
22.196608639177409
 30
0.0
 40
0.2303256137684998
 50
80.018330776849737
 51
85.710003242978999
  0
ARC
  5
2271
  8
0
 10
4.0942198141629262
 20
22.405864712516792
 30
0.0
 40
0.0178422349982877
 50
64.518793377433738
 51
80.224212799802316
  0
ARC
  5
2272
  8
0
 10
4.1014242930055698
 20
22.42099036467803
 30
0.0
 40
0.0010884397516461
 50
11.976820854360071
 51
64.328805562879737
  0
ARC
  5
2273
  8
0
 10
3.3353678938077129
 20
22.42863981047309
 30
0.0
 40
0.0178391015727934
 50
243.23330187259441
 51
259.51690929418692
  0
ARC
  5
2274
  8
0
 10
3.327693651741189
 20
22.413425426747711
 30
0.0
 40
0.0007988121550956
 50
185.47836106786411
 51
243.23330187250141
  0
ARC
  5
2275
  8
0
 10
3.3279412808848239
 20
22.413128871325789
 30
0.0
 40
0.0010658073791432
 50
115.5583157404092
 51
168.0714835242658
  0
ARC
  5
2276
  8
0
 10
3.3385315106023179
 20
22.38759953032562
 30
0.0
 40
0.0287031190556142
 50
97.20666232366456
 51
112.642333653999
  0
ARC
  5
2277
  8
0
 10
3.5259739955657992
 20
20.32038358474534
 30
0.0
 40
2.104382046218634
 50
90.565622746031607
 51
95.208685143722576
  0
ARC
  5
2278
  8
0
 10
3.7127948305557612
 20
12.05539329758707
 30
0.0
 40
10.37134763015259
 50
89.246399802773965
 51
91.146920071976183
  0
ARC
  5
2279
  8
0
 10
3.8365273970263791
 20
18.99159750613865
 30
0.0
 40
3.4342697254414749
 50
86.01838356920257
 51
89.788522122776769
  0
ARC
  5
227A
  8
0
 10
4.0683773031649011
 20
22.322563909673541
 30
0.0
 40
0.0952441848900763
 50
79.540325155586913
 51
86.018383569202726
  0
ARC
  5
227B
  8
0
 10
4.0821641444740218
 20
22.385356130516719
 30
0.0
 40
0.0310675318840078
 50
67.340938053464725
 51
83.523808445949768
  0
ARC
  5
227C
  8
0
 10
4.0936534986421123
 20
22.413173904773231
 30
0.0
 40
0.000977367043985
 50
10.33003914425163
 51
60.632325856808791
  0
ARC
  5
227D
  8
0
 10
4.0935845907897876
 20
22.413565320101959
 30
0.0
 40
0.0010528605383261
 50
295.84931581027871
 51
348.15274220550828
  0
ARC
  5
227E
  8
0
 10
4.0896873491484751
 20
22.420447922346671
 30
0.0
 40
0.0089603597913241
 50
284.48998579937057
 51
299.08942603091072
  0
ARC
  5
227F
  8
0
 10
3.7090400243748669
 20
28.871279882876149
 30
0.0
 40
6.463105298913125
 50
266.86441871968299
 51
273.17712920815399
  0
ATTDEF
  5
22A9
  8
DEFPOINTS
 10
3.717505285269453
 20
27.056642589807598
 30
0.0
 40
0.001
  1
METAL
  3

  2
MATERIAL
 70
     0
1001
AcDbAttr
1070
     0
1070
     1
  0
ATTDEF
  5
22AA
  8
DEFPOINTS
 10
3.717505285269453
 20
27.058309256474271
 30
0.0
 40
0.001
  1
BIDET FAUCET
  3

  2
PRODUCT
 70
     0
1001
AcDbAttr
1070
     0
1070
     1
  0
ATTDEF
  5
22AB
  8
DEFPOINTS
 10
3.717505285269453
 20
27.059975923140939
 30
0.0
 40
0.001
  1
COMPOSED
  3

  2
TRADENAME
 70
     0
1001
AcDbAttr
1070
     0
1070
     1
  0
ATTDEF
  5
22AC
  8
DEFPOINTS
 10
3.717505285269453
 20
27.061642589807612
 30
0.0
 40
0.001
  1
K-73176-4
  3

  2
MODELNUMBER
 70
     0
1001
AcDbAttr
1070
     0
1070
     1
  0
ENDSEC
  0
EOF
