  0
SECTION
  2
HEADER
  9
$ACADVER
  1
AC1009
  9
$INSBASE
 10
3.710756755999999
 20
8.5159406514999993
 30
0.0
  9
$EXTMIN
 10
2.7068197481
 20
8.5081671207775535
 30
0.0
  9
$EXTMAX
 10
5.8576071496999997
 20
13.1860847738992
 30
0.0
  9
$LIMMIN
 10
0.0
 20
0.0
  9
$LIMMAX
 10
11.692913385800001
 20
8.2677165353999982
  9
$ORTHOMODE
 70
     0
  9
$REGENMODE
 70
     1
  9
$FILLMODE
 70
     1
  9
$QTEXTMODE
 70
     0
  9
$MIRRTEXT
 70
     0
  9
$DRAGMODE
 70
     2
  9
$LTSCALE
 40
0.6431102362
  9
$OSMODE
 70
  3071
  9
$ATTMODE
 70
     1
  9
$TEXTSIZE
 40
0.2
  9
$TRACEWID
 40
0.05
  9
$TEXTSTYLE
  7
STANDARD
  9
$CLAYER
  8
0
  9
$CELTYPE
  6
BYLAYER
  9
$CECOLOR
 62
   256
  9
$DIMSCALE
 40
1.0
  9
$DIMASZ
 40
0.1875
  9
$DIMEXO
 40
0.0625
  9
$DIMDLI
 40
0.4443307087
  9
$DIMRND
 40
0.0
  9
$DIMDLE
 40
0.0
  9
$DIMEXE
 40
0.125
  9
$DIMTP
 40
0.01
  9
$DIMTM
 40
0.01
  9
$DIMTXT
 40
0.15625
  9
$DIMCEN
 40
0.1052362205
  9
$DIMTSZ
 40
0.0
  9
$DIMTOL
 70
     1
  9
$DIMLIM
 70
     0
  9
$DIMTIH
 70
     1
  9
$DIMTOH
 70
     1
  9
$DIMSE1
 70
     0
  9
$DIMSE2
 70
     0
  9
$DIMTAD
 70
     0
  9
$DIMZIN
 70
     0
  9
$DIMBLK
  1

  9
$DIMASO
 70
     1
  9
$DIMSHO
 70
     1
  9
$DIMPOST
  1

  9
$DIMAPOST
  1

  9
$DIMALT
 70
     0
  9
$DIMALTD
 70
     2
  9
$DIMALTF
 40
25.399999999999999
  9
$DIMLFAC
 40
1.0
  9
$DIMTOFL
 70
     0
  9
$DIMTVP
 40
0.0
  9
$DIMTIX
 70
     0
  9
$DIMSOXD
 70
     0
  9
$DIMSAH
 70
     0
  9
$DIMBLK1
  1

  9
$DIMBLK2
  1

  9
$DIMSTYLE
  2
STANDARD
  9
$DIMCLRD
 70
     0
  9
$DIMCLRE
 70
     0
  9
$DIMCLRT
 70
     0
  9
$DIMTFAC
 40
1.0
  9
$DIMGAP
 40
0.09
  9
$LUNITS
 70
     2
  9
$LUPREC
 70
     4
  9
$SKETCHINC
 40
0.1
  9
$FILLETRAD
 40
0.0
  9
$AUNITS
 70
     0
  9
$AUPREC
 70
     0
  9
$MENU
  1
.
  9
$ELEVATION
 40
0.0
  9
$PELEVATION
 40
0.0
  9
$THICKNESS
 40
0.0
  9
$LIMCHECK
 70
     0
  9
$BLIPMODE
 70
     0
  9
$CHAMFERA
 40
0.0
  9
$CHAMFERB
 40
0.0
  9
$SKPOLY
 70
     0
  9
$TDCREATE
 40
2457665.7559119682
  9
$TDUPDATE
 40
2457666.613028334
  9
$TDINDWG
 40
0.1167073843
  9
$TDUSRTIMER
 40
0.1167073843
  9
$USRTIMER
 70
     1
  9
$ANGBASE
 50
0.0
  9
$ANGDIR
 70
     0
  9
$PDMODE
 70
     0
  9
$PDSIZE
 40
0.3125
  9
$PLINEWID
 40
0.0
  9
$COORDS
 70
     1
  9
$SPLFRAME
 70
     0
  9
$SPLINETYPE
 70
     6
  9
$SPLINESEGS
 70
     8
  9
$ATTDIA
 70
     1
  9
$ATTREQ
 70
     1
  9
$HANDLING
 70
     1
  9
$HANDSEED
  5
2373
  9
$SURFTAB1
 70
     6
  9
$SURFTAB2
 70
     6
  9
$SURFTYPE
 70
     6
  9
$SURFU
 70
     6
  9
$SURFV
 70
     6
  9
$UCSNAME
  2

  9
$UCSORG
 10
0.0
 20
0.0
 30
0.0
  9
$UCSXDIR
 10
1.0
 20
0.0
 30
0.0
  9
$UCSYDIR
 10
0.0
 20
1.0
 30
0.0
  9
$PUCSNAME
  2

  9
$PUCSORG
 10
0.0
 20
0.0
 30
0.0
  9
$PUCSXDIR
 10
1.0
 20
0.0
 30
0.0
  9
$PUCSYDIR
 10
0.0
 20
1.0
 30
0.0
  9
$USERI1
 70
     0
  9
$USERI2
 70
     0
  9
$USERI3
 70
     0
  9
$USERI4
 70
     0
  9
$USERI5
 70
     0
  9
$USERR1
 40
0.0
  9
$USERR2
 40
0.0
  9
$USERR3
 40
0.0
  9
$USERR4
 40
0.0
  9
$USERR5
 40
0.0
  9
$WORLDVIEW
 70
     1
  9
$SHADEDGE
 70
     3
  9
$SHADEDIF
 70
    70
  9
$TILEMODE
 70
     1
  9
$MAXACTVP
 70
    64
  9
$PLIMCHECK
 70
     0
  9
$PEXTMIN
 10
1.0000000000000000E+020
 20
1.0000000000000000E+020
 30
1.0000000000000000E+020
  9
$PEXTMAX
 10
-1.0000000000000000E+020
 20
-1.0000000000000000E+020
 30
-1.0000000000000000E+020
  9
$PLIMMIN
 10
0.0
 20
0.0
  9
$PLIMMAX
 10
12.0
 20
9.0
  9
$UNITMODE
 70
     0
  9
$VISRETAIN
 70
     1
  9
$PLINEGEN
 70
     0
  9
$PSLTSCALE
 70
     1
  0
ENDSEC
  0
SECTION
  2
TABLES
  0
TABLE
  2
VPORT
 70
     1
  0
VPORT
  2
*ACTIVE
 70
     0
 10
0.0
 20
0.0
 11
1.0
 21
1.0
 12
0.0
 22
0.0
 13
0.0
 23
0.0
 14
1.0
 24
1.0
 15
0.0
 25
0.0
 16
-0.0000000000000036
 26
0.0
 36
17.304171641006722
 17
4.2822135686874381
 27
10.847125934046
 37
0.0
 40
5.6400687735302588
 41
2.3378378378378368
 42
50.0
 43
0.0
 44
0.0
 50
0.0
 51
0.0
 71
     0
 72
   100
 73
     1
 74
     1
 75
     0
 76
     0
 77
     0
 78
     0
  0
ENDTAB
  0
TABLE
  2
LTYPE
 70
     2
  0
LTYPE
  2
CONTINUOUS
 70
     0
  3
Solid line
 72
    65
 73
     0
 40
0.0
  0
ENDTAB
  0
TABLE
  2
LAYER
 70
     2
  0
LAYER
  2
0
 70
     0
 62
     7
  6
CONTINUOUS
  0
LAYER
  2
DEFPOINTS
 70
     0
 62
     7
  6
CONTINUOUS
  0
ENDTAB
  0
TABLE
  2
STYLE
 70
     1
  0
STYLE
  2
STANDARD
 70
     0
 40
0.0
 41
0.8
 50
0.0
 71
     0
 42
0.2
  3
txt
  4

  0
ENDTAB
  0
TABLE
  2
VIEW
 70
     1
  0
ENDTAB
  0
TABLE
  2
UCS
 70
     0
  0
ENDTAB
  0
TABLE
  2
APPID
 70
     5
  0
APPID
  2
ACAD
 70
     0
  0
APPID
  2
ACAD_MLEADERVER
 70
     0
  0
APPID
  2
ACAD_NAV_VCDISPLAY
 70
     0
  0
APPID
  2
ACAD_EXEMPT_FROM_CAD_STANDARDS
 70
     0
  0
APPID
  2
AcDbAttr
 70
     0
  0
ENDTAB
  0
TABLE
  2
DIMSTYLE
 70
     2
  0
DIMSTYLE
  2
STANDARD
 70
     0
  3

  4

  5

  6

  7

 40
1.0
 41
0.1875
 42
0.0625
 43
0.38
 44
0.125
 45
0.0
 46
0.0
 47
0.01
 48
0.01
140
0.15625
141
0.09
142
0.0
143
25.399999999999999
144
1.0
145
0.0
146
1.0
147
0.09
 71
     1
 72
     0
 73
     1
 74
     1
 75
     0
 76
     0
 77
     0
 78
     4
170
     0
171
     2
172
     0
173
     0
174
     0
175
     0
176
     0
177
     0
178
     0
  0
ENDTAB
  0
ENDSEC
  0
SECTION
  2
BLOCKS
  0
BLOCK
  8
0
  2
$MODEL_SPACE
 70
     0
 10
0.0
 20
0.0
 30
0.0
  3
$MODEL_SPACE
  1

  0
ENDBLK
  5
21
  8
0
  0
BLOCK
 67
     1
  8
0
  2
$PAPER_SPACE
 70
     0
 10
0.0
 20
0.0
 30
0.0
  3
$PAPER_SPACE
  1

  0
ENDBLK
  5
1D
 67
     1
  8
0
  0
ENDSEC
  0
SECTION
  2
ENTITIES
  0
LINE
  5
3FF
  8
0
 10
2.7068197481
 20
8.5159406514999993
 30
0.0
 11
2.7068197481
 21
8.6537359269999996
 31
0.0
  0
LINE
  5
401
  8
0
 10
3.0217803779999999
 20
8.7049170294000007
 30
0.0
 11
3.0217803779999999
 21
12.4726142746
 31
0.0
  0
LINE
  5
402
  8
0
 10
3.0217803852999991
 20
12.5356204768
 30
0.0
 11
3.0217803779999999
 21
13.153615503999999
 31
0.0
  0
LINE
  5
436
  8
0
 10
3.1008381188
 20
12.6064923249
 30
0.0
 11
3.1008381188
 21
12.637552916500001
 31
0.0
  0
LINE
  5
619
  8
0
 10
4.3206753932000002
 20
12.637552916500001
 30
0.0
 11
4.3206753932000002
 21
12.6064923249
 31
0.0
  0
LINE
  5
61B
  8
0
 10
4.399733133999999
 20
13.153615503999999
 30
0.0
 11
4.399733133999999
 21
12.5356418356
 31
0.0
  0
LINE
  5
61C
  8
0
 10
4.399733133999999
 20
8.7049170294000007
 30
0.0
 11
4.399733133999999
 21
10.5613421965
 31
0.0
  0
LINE
  5
61D
  8
0
 10
4.399733133999999
 20
12.29731076
 30
0.0
 11
4.399733133999999
 21
12.472614457800001
 31
0.0
  0
LINE
  5
621
  8
0
 10
4.7146937638999988
 20
8.5159406514999993
 30
0.0
 11
4.7146937638999988
 21
8.6537359269999996
 31
0.0
  0
LINE
  5
635
  8
0
 10
5.0424202750999987
 20
10.789778177300001
 30
0.0
 11
5.0422726507000002
 21
10.794005586999999
 31
0.0
  0
LINE
  5
639
  8
0
 10
5.009969354399999
 20
10.7797302104
 30
0.0
 11
5.009969354399999
 21
12.0789327774
 31
0.0
  0
LINE
  5
63B
  8
0
 10
5.1292606929999991
 20
12.1018731804
 30
0.0
 11
5.1292606929999991
 21
10.7567797143
 31
0.0
  0
LINE
  5
676
  8
0
 10
5.5032764409999997
 20
11.821950062399999
 30
0.0
 11
5.5032764409999997
 21
12.972357408400001
 31
0.0
  0
LINE
  5
67A
  8
0
 10
5.8576071496999997
 20
10.7943498145
 30
0.0
 11
5.8576071496999997
 21
12.969814999600001
 31
0.0
  0
LINE
  5
6FE
  8
0
 10
2.7068197481
 20
8.5159406514999993
 30
0.0
 11
4.7146937638999988
 21
8.5159406514999993
 31
0.0
  0
LINE
  5
700
  8
0
 10
4.6950072377999987
 20
8.6734209664000002
 30
0.0
 11
2.7265110774000001
 21
8.6734209664000002
 31
0.0
  0
LINE
  5
707
  8
0
 10
5.8263859296999998
 20
10.762854842599999
 30
0.0
 11
5.6961898269000004
 21
10.7617186384
 31
0.0
  0
LINE
  5
708
  8
0
 10
5.4442213228999989
 20
10.7595197426
 30
0.0
 11
5.1292606929999991
 21
10.7567711228
 31
0.0
  0
LINE
  5
709
  8
0
 10
4.9902843151000003
 20
10.760035139599999
 30
0.0
 11
4.6162685669999988
 21
10.760035139599999
 31
0.0
  0
LINE
  5
83C
  8
0
 10
4.9902843151000003
 20
12.098617816799999
 30
0.0
 11
4.6162685288
 21
12.098617816799999
 31
0.0
  0
LINE
  5
83D
  8
0
 10
5.0302157401000001
 20
12.0728505472
 30
0.0
 11
5.009969354399999
 21
12.0730272348
 31
0.0
  0
LINE
  5
83E
  8
0
 10
5.4238491548000001
 20
12.0993109374
 30
0.0
 11
5.1292606929999991
 21
12.1018817719
 31
0.0
  0
LINE
  5
853
  8
0
 10
5.8263859219
 20
13.001309863199999
 30
0.0
 11
5.5350473554999988
 21
13.0038522721
 31
0.0
  0
ARC
  5
E4D
  8
0
 10
3.053276441
 20
8.7049170294000007
 30
0.0
 40
0.031496063
 50
180.0120557974
 51
270.0
  0
ARC
  5
E4E
  8
0
 10
3.0532679297
 20
12.6657359275
 30
0.0
 40
0.0314883773
 50
180.02185077429999
 51
270.01548683980002
  0
ARC
  5
E50
  8
0
 10
2.7265047875000001
 20
8.6537359269999996
 30
0.0
 40
0.0196850394
 50
90.0
 51
180.0
  0
ARC
  5
EB4
  8
0
 10
4.827313071799999
 20
11.4292197336
 30
0.0
 40
0.6748552374
 50
63.418532661400008
 51
72.502700220899996
  0
ARC
  5
EB5
  8
0
 10
4.8273291857
 20
11.4293848976
 30
0.0
 40
0.6748047704000001
 50
288.58708372720002
 51
296.58597198429999
  0
ARC
  5
EBD
  8
0
 10
5.4245362836000002
 20
12.1780480967
 30
0.0
 40
0.0787401575
 50
269.5
 51
360.0
  0
ARC
  5
EC1
  8
0
 10
5.8261110851999991
 20
12.969814999600001
 30
0.0
 40
0.031496063
 50
0.0
 51
89.499994635100009
  0
ARC
  5
EC2
  8
0
 10
4.3682370710000002
 20
8.7049170294000007
 30
0.0
 40
0.031496063
 50
270.0
 51
359.98794420259998
  0
ARC
  5
EC3
  8
0
 10
5.534772511199999
 20
12.9723574875
 30
0.0
 40
0.0314960491
 50
89.500013779900002
 51
179.9999099931
  0
ARC
  5
EC6
  8
0
 10
4.3682455825000002
 20
12.6657359276
 30
0.0
 40
0.0314883773
 50
269.98451287289998
 51
359.97814894039999
  0
ARC
  5
ECA
  8
0
 10
4.6950087245000001
 20
8.6537359269999996
 30
0.0
 40
0.0196850394
 50
0.0
 51
90.0
  0
ARC
  5
ECB
  8
0
 10
4.9902843151000003
 20
10.779720179
 30
0.0
 40
0.0196850394
 50
270.0
 51
360.0
  0
ARC
  5
ECC
  8
0
 10
4.9902843151000003
 20
12.0789327774
 30
0.0
 40
0.0196850394
 50
0.0
 51
90.0
  0
LINE
  5
1E40
  8
0
 10
3.6105368972999998
 20
12.998763109900001
 30
0.0
 11
3.5908518579000002
 21
12.987404870400001
 31
0.0
  0
LINE
  5
1E41
  8
0
 10
3.5908518579000002
 20
12.9814966879
 30
0.0
 11
3.6105368972999998
 21
12.9928549273
 31
0.0
  0
LINE
  5
1E42
  8
0
 10
3.5771302776999998
 20
12.965376840699999
 30
0.0
 11
3.5574452382999988
 21
12.9540186012
 31
0.0
  0
LINE
  5
1E43
  8
0
 10
3.5574452382999988
 20
12.948110418700001
 30
0.0
 11
3.5771302776999998
 21
12.9594686582
 31
0.0
  0
LINE
  5
1E44
  8
0
 10
3.7107567559999999
 20
13.032149379
 30
0.0
 11
3.6910717165999989
 21
13.0207911396
 31
0.0
  0
LINE
  5
1E45
  8
0
 10
3.5437236580999998
 20
12.9319905715
 30
0.0
 11
3.5240386187000001
 21
12.9206323321
 31
0.0
  0
LINE
  5
1E46
  8
0
 10
3.6910717165999989
 20
13.014882957099999
 30
0.0
 11
3.7107567559999999
 21
13.026241196499999
 31
0.0
  0
LINE
  5
1E47
  8
0
 10
3.5240386187000001
 20
12.9147241496
 30
0.0
 11
3.5437236580999998
 21
12.926082388999999
 31
0.0
  0
LINE
  5
1E48
  8
0
 10
3.677350136399999
 20
12.998763109900001
 30
0.0
 11
3.6576650969999989
 21
12.987404870400001
 31
0.0
  0
LINE
  5
1E49
  8
0
 10
3.5103170385000002
 20
12.898604302300001
 30
0.0
 11
3.4906319990999992
 21
12.887246062899999
 31
0.0
  0
LINE
  5
1E4A
  8
0
 10
3.6576650969999989
 20
12.9814966879
 30
0.0
 11
3.677350136399999
 21
12.9928549273
 31
0.0
  0
LINE
  5
1E4B
  8
0
 10
3.6105368972999998
 20
12.953330152099999
 30
0.0
 11
3.630221936599999
 21
12.964688391599999
 31
0.0
  0
LINE
  5
1E4C
  8
0
 10
3.4906319990999992
 20
12.8813378804
 30
0.0
 11
3.5103170385000002
 21
12.8926961198
 31
0.0
  0
LINE
  5
1E4D
  8
0
 10
3.6439435167999998
 20
12.965376840699999
 30
0.0
 11
3.6242584774999989
 21
12.9540186012
 31
0.0
  0
LINE
  5
1E4E
  8
0
 10
3.4769104188999989
 20
12.8652180332
 30
0.0
 11
3.4572253795000001
 21
12.8538597937
 31
0.0
  0
LINE
  5
1E4F
  8
0
 10
3.6242584774999989
 20
12.948110418700001
 30
0.0
 11
3.6439435167999998
 21
12.9594686582
 31
0.0
  0
LINE
  5
1E50
  8
0
 10
3.5771302776999998
 20
12.919943883
 30
0.0
 11
3.596815316999999
 21
12.9313021224
 31
0.0
  0
LINE
  5
1E51
  8
0
 10
3.4572253795000001
 20
12.847951611199999
 30
0.0
 11
3.4769104188999989
 21
12.859309850600001
 31
0.0
  0
LINE
  5
1E52
  8
0
 10
3.6105368972999998
 20
12.9319905715
 30
0.0
 11
3.5908518579000002
 21
12.9206323321
 31
0.0
  0
LINE
  5
1E53
  8
0
 10
3.7107567559999999
 20
12.986716421300001
 30
0.0
 11
3.7304417954
 21
12.9980746607
 31
0.0
  0
LINE
  5
1E54
  8
0
 10
3.5908518579000002
 20
12.9147241496
 30
0.0
 11
3.6105368972999998
 21
12.926082388999999
 31
0.0
  0
LINE
  5
1E55
  8
0
 10
3.5437236580999998
 20
12.886557613800001
 30
0.0
 11
3.563408697499999
 21
12.897915853200001
 31
0.0
  0
LINE
  5
1E56
  8
0
 10
3.744163375599999
 20
12.998763109900001
 30
0.0
 11
3.7244783361999998
 21
12.987404870400001
 31
0.0
  0
LINE
  5
1E57
  8
0
 10
3.5771302776999998
 20
12.898604302300001
 30
0.0
 11
3.5574452382999988
 21
12.887246062899999
 31
0.0
  0
LINE
  5
1E58
  8
0
 10
3.7244783361999998
 20
12.9814966879
 30
0.0
 11
3.744163375599999
 21
12.9928549273
 31
0.0
  0
LINE
  5
1E59
  8
0
 10
3.677350136399999
 20
12.953330152099999
 30
0.0
 11
3.6970351757999991
 21
12.964688391599999
 31
0.0
  0
LINE
  5
1E5A
  8
0
 10
3.5574452382999988
 20
12.8813378804
 30
0.0
 11
3.5771302776999998
 21
12.8926961198
 31
0.0
  0
LINE
  5
1E5B
  8
0
 10
3.5103170385000002
 20
12.8531713446
 30
0.0
 11
3.5300020778999999
 21
12.864529584
 31
0.0
  0
LINE
  5
1E5C
  8
0
 10
3.7107567559999999
 20
12.965376840699999
 30
0.0
 11
3.6910717165999989
 21
12.9540186012
 31
0.0
  0
LINE
  5
1E5D
  8
0
 10
3.5437236580999998
 20
12.8652180332
 30
0.0
 11
3.5240386187000001
 21
12.8538597937
 31
0.0
  0
LINE
  5
1E5E
  8
0
 10
3.6910717165999989
 20
12.948110418700001
 30
0.0
 11
3.7107567559999999
 21
12.9594686582
 31
0.0
  0
LINE
  5
1E5F
  8
0
 10
3.6439435167999998
 20
12.919943883
 30
0.0
 11
3.6636285561999991
 21
12.9313021224
 31
0.0
  0
LINE
  5
1E60
  8
0
 10
3.5240386187000001
 20
12.847951611199999
 30
0.0
 11
3.5437236580999998
 21
12.859309850600001
 31
0.0
  0
LINE
  5
1E61
  8
0
 10
3.4769104188999989
 20
12.8197850754
 30
0.0
 11
3.496595458299999
 21
12.8311433149
 31
0.0
  0
LINE
  5
1E62
  8
0
 10
3.677350136399999
 20
12.9319905715
 30
0.0
 11
3.6576650969999989
 21
12.9206323321
 31
0.0
  0
LINE
  5
1E63
  8
0
 10
3.5103170385000002
 20
12.831831764
 30
0.0
 11
3.4906319990999992
 21
12.820473524600001
 31
0.0
  0
LINE
  5
1E64
  8
0
 10
3.6576650969999989
 20
12.9147241496
 30
0.0
 11
3.677350136399999
 21
12.926082388999999
 31
0.0
  0
LINE
  5
1E65
  8
0
 10
3.6105368972999998
 20
12.886557613800001
 30
0.0
 11
3.630221936599999
 21
12.897915853200001
 31
0.0
  0
LINE
  5
1E66
  8
0
 10
3.4906319990999992
 20
12.814565342
 30
0.0
 11
3.5103170385000002
 21
12.8259235815
 31
0.0
  0
LINE
  5
1E67
  8
0
 10
3.8109766147999999
 20
12.998763109900001
 30
0.0
 11
3.7912915753999998
 21
12.987404870400001
 31
0.0
  0
LINE
  5
1E68
  8
0
 10
3.6439435167999998
 20
12.898604302300001
 30
0.0
 11
3.6242584774999989
 21
12.887246062899999
 31
0.0
  0
LINE
  5
1E69
  8
0
 10
3.7912915753999998
 20
12.9814966879
 30
0.0
 11
3.8109766147999999
 21
12.9928549273
 31
0.0
  0
LINE
  5
1E6A
  8
0
 10
3.744163375599999
 20
12.953330152099999
 30
0.0
 11
3.763848415
 21
12.964688391599999
 31
0.0
  0
LINE
  5
1E6B
  8
0
 10
3.4769104188999989
 20
12.798445494799999
 30
0.0
 11
3.4572253795000001
 21
12.787087255399999
 31
0.0
  0
LINE
  5
1E6C
  8
0
 10
3.6242584774999989
 20
12.8813378804
 30
0.0
 11
3.6439435167999998
 21
12.8926961198
 31
0.0
  0
LINE
  5
1E6D
  8
0
 10
3.5771302776999998
 20
12.8531713446
 30
0.0
 11
3.596815316999999
 21
12.864529584
 31
0.0
  0
LINE
  5
1E6E
  8
0
 10
3.4572253795000001
 20
12.781179072900001
 30
0.0
 11
3.4769104188999989
 21
12.7925373123
 31
0.0
  0
LINE
  5
1E6F
  8
0
 10
3.7775699951999999
 20
12.965376840699999
 30
0.0
 11
3.7578849557999989
 21
12.9540186012
 31
0.0
  0
LINE
  5
1E70
  8
0
 10
3.6105368972999998
 20
12.8652180332
 30
0.0
 11
3.5908518579000002
 21
12.8538597937
 31
0.0
  0
LINE
  5
1E71
  8
0
 10
3.7578849557999989
 20
12.948110418700001
 30
0.0
 11
3.7775699951999999
 21
12.9594686582
 31
0.0
  0
LINE
  5
1E72
  8
0
 10
3.7107567559999999
 20
12.919943883
 30
0.0
 11
3.7304417954
 21
12.9313021224
 31
0.0
  0
LINE
  5
1E73
  8
0
 10
3.4435037993000002
 20
12.7650592256
 30
0.0
 11
3.4238187599999992
 21
12.7537009862
 31
0.0
  0
LINE
  5
1E74
  8
0
 10
3.5908518579000002
 20
12.847951611199999
 30
0.0
 11
3.6105368972999998
 21
12.859309850600001
 31
0.0
  0
LINE
  5
1E75
  8
0
 10
3.5437236580999998
 20
12.8197850754
 30
0.0
 11
3.563408697499999
 21
12.8311433149
 31
0.0
  0
LINE
  5
1E76
  8
0
 10
3.4238187599999992
 20
12.747792803699999
 30
0.0
 11
3.4435037993000002
 21
12.759151043099999
 31
0.0
  0
LINE
  5
1E77
  8
0
 10
3.744163375599999
 20
12.9319905715
 30
0.0
 11
3.7244783361999998
 21
12.9206323321
 31
0.0
  0
LINE
  5
1E78
  8
0
 10
3.5771302776999998
 20
12.831831764
 30
0.0
 11
3.5574452382999988
 21
12.820473524600001
 31
0.0
  0
LINE
  5
1E79
  8
0
 10
3.7244783361999998
 20
12.9147241496
 30
0.0
 11
3.744163375599999
 21
12.926082388999999
 31
0.0
  0
LINE
  5
1E7A
  8
0
 10
3.677350136399999
 20
12.886557613800001
 30
0.0
 11
3.6970351757999991
 21
12.897915853200001
 31
0.0
  0
LINE
  5
1E7B
  8
0
 10
3.5574452382999988
 20
12.814565342
 30
0.0
 11
3.5771302776999998
 21
12.8259235815
 31
0.0
  0
LINE
  5
1E7C
  8
0
 10
3.5103170385000002
 20
12.786398806299999
 30
0.0
 11
3.5300020778999999
 21
12.797757045699999
 31
0.0
  0
LINE
  5
1E7D
  8
0
 10
3.7107567559999999
 20
12.898604302300001
 30
0.0
 11
3.6910717165999989
 21
12.887246062899999
 31
0.0
  0
LINE
  5
1E7E
  8
0
 10
3.8109766147999999
 20
12.953330152099999
 30
0.0
 11
3.8306616541
 21
12.964688391599999
 31
0.0
  0
LINE
  5
1E7F
  8
0
 10
3.5437236580999998
 20
12.798445494799999
 30
0.0
 11
3.5240386187000001
 21
12.787087255399999
 31
0.0
  0
LINE
  5
1E80
  8
0
 10
3.6910717165999989
 20
12.8813378804
 30
0.0
 11
3.7107567559999999
 21
12.8926961198
 31
0.0
  0
LINE
  5
1E81
  8
0
 10
3.6439435167999998
 20
12.8531713446
 30
0.0
 11
3.6636285561999991
 21
12.864529584
 31
0.0
  0
LINE
  5
1E82
  8
0
 10
3.5240386187000001
 20
12.781179072900001
 30
0.0
 11
3.5437236580999998
 21
12.7925373123
 31
0.0
  0
LINE
  5
1E83
  8
0
 10
3.8443832343
 20
12.965376840699999
 30
0.0
 11
3.824698194999999
 21
12.9540186012
 31
0.0
  0
LINE
  5
1E84
  8
0
 10
3.4769104188999989
 20
12.7530125371
 30
0.0
 11
3.496595458299999
 21
12.7643707765
 31
0.0
  0
LINE
  5
1E85
  8
0
 10
3.677350136399999
 20
12.8652180332
 30
0.0
 11
3.6576650969999989
 21
12.8538597937
 31
0.0
  0
LINE
  5
1E86
  8
0
 10
3.824698194999999
 20
12.948110418700001
 30
0.0
 11
3.8443832343
 21
12.9594686582
 31
0.0
  0
LINE
  5
1E87
  8
0
 10
3.7775699951999999
 20
12.919943883
 30
0.0
 11
3.7972550345
 21
12.9313021224
 31
0.0
  0
LINE
  5
1E88
  8
0
 10
3.5103170385000002
 20
12.7650592256
 30
0.0
 11
3.4906319990999992
 21
12.7537009862
 31
0.0
  0
LINE
  5
1E89
  8
0
 10
3.6576650969999989
 20
12.847951611199999
 30
0.0
 11
3.677350136399999
 21
12.859309850600001
 31
0.0
  0
LINE
  5
1E8A
  8
0
 10
3.6105368972999998
 20
12.8197850754
 30
0.0
 11
3.630221936599999
 21
12.8311433149
 31
0.0
  0
LINE
  5
1E8B
  8
0
 10
3.4906319990999992
 20
12.747792803699999
 30
0.0
 11
3.5103170385000002
 21
12.759151043099999
 31
0.0
  0
LINE
  5
1E8C
  8
0
 10
3.8109766147999999
 20
12.9319905715
 30
0.0
 11
3.7912915753999998
 21
12.9206323321
 31
0.0
  0
LINE
  5
1E8D
  8
0
 10
3.4435037993000002
 20
12.719626267900001
 30
0.0
 11
3.4631888386999989
 21
12.730984507300001
 31
0.0
  0
LINE
  5
1E8E
  8
0
 10
3.6439435167999998
 20
12.831831764
 30
0.0
 11
3.6242584774999989
 21
12.820473524600001
 31
0.0
  0
LINE
  5
1E8F
  8
0
 10
3.7912915753999998
 20
12.9147241496
 30
0.0
 11
3.8109766147999999
 21
12.926082388999999
 31
0.0
  0
LINE
  5
1E90
  8
0
 10
3.744163375599999
 20
12.886557613800001
 30
0.0
 11
3.763848415
 21
12.897915853200001
 31
0.0
  0
LINE
  5
1E91
  8
0
 10
3.4769104188999989
 20
12.731672956500001
 30
0.0
 11
3.4572253795000001
 21
12.720314717000001
 31
0.0
  0
LINE
  5
1E92
  8
0
 10
3.6242584774999989
 20
12.814565342
 30
0.0
 11
3.6439435167999998
 21
12.8259235815
 31
0.0
  0
LINE
  5
1E93
  8
0
 10
3.5771302776999998
 20
12.786398806299999
 30
0.0
 11
3.596815316999999
 21
12.797757045699999
 31
0.0
  0
LINE
  5
1E94
  8
0
 10
3.4572253795000001
 20
12.7144065345
 30
0.0
 11
3.4769104188999989
 21
12.725764774
 31
0.0
  0
LINE
  5
1E95
  8
0
 10
3.7775699951999999
 20
12.898604302300001
 30
0.0
 11
3.7578849557999989
 21
12.887246062899999
 31
0.0
  0
LINE
  5
1E96
  8
0
 10
3.6105368972999998
 20
12.798445494799999
 30
0.0
 11
3.5908518579000002
 21
12.787087255399999
 31
0.0
  0
LINE
  5
1E97
  8
0
 10
3.7578849557999989
 20
12.8813378804
 30
0.0
 11
3.7775699951999999
 21
12.8926961198
 31
0.0
  0
LINE
  5
1E98
  8
0
 10
3.7107567559999999
 20
12.8531713446
 30
0.0
 11
3.7304417954
 21
12.864529584
 31
0.0
  0
LINE
  5
1E99
  8
0
 10
3.5908518579000002
 20
12.781179072900001
 30
0.0
 11
3.6105368972999998
 21
12.7925373123
 31
0.0
  0
LINE
  5
1E9A
  8
0
 10
3.5437236580999998
 20
12.7530125371
 30
0.0
 11
3.563408697499999
 21
12.7643707765
 31
0.0
  0
LINE
  5
1E9B
  8
0
 10
3.744163375599999
 20
12.8652180332
 30
0.0
 11
3.7244783361999998
 21
12.8538597937
 31
0.0
  0
LINE
  5
1E9C
  8
0
 10
3.8443832343
 20
12.919943883
 30
0.0
 11
3.8640682737000001
 21
12.9313021224
 31
0.0
  0
LINE
  5
1E9D
  8
0
 10
3.5771302776999998
 20
12.7650592256
 30
0.0
 11
3.5574452382999988
 21
12.7537009862
 31
0.0
  0
LINE
  5
1E9E
  8
0
 10
3.7244783361999998
 20
12.847951611199999
 30
0.0
 11
3.744163375599999
 21
12.859309850600001
 31
0.0
  0
LINE
  5
1E9F
  8
0
 10
3.677350136399999
 20
12.8197850754
 30
0.0
 11
3.6970351757999991
 21
12.8311433149
 31
0.0
  0
LINE
  5
1EA0
  8
0
 10
3.5574452382999988
 20
12.747792803699999
 30
0.0
 11
3.5771302776999998
 21
12.759151043099999
 31
0.0
  0
LINE
  5
1EA1
  8
0
 10
3.8777898538999991
 20
12.9319905715
 30
0.0
 11
3.858104814499999
 21
12.9206323321
 31
0.0
  0
LINE
  5
1EA2
  8
0
 10
3.5103170385000002
 20
12.719626267900001
 30
0.0
 11
3.5300020778999999
 21
12.730984507300001
 31
0.0
  0
LINE
  5
1EA3
  8
0
 10
3.7107567559999999
 20
12.831831764
 30
0.0
 11
3.6910717165999989
 21
12.820473524600001
 31
0.0
  0
LINE
  5
1EA4
  8
0
 10
3.858104814499999
 20
12.9147241496
 30
0.0
 11
3.8777898538999991
 21
12.926082388999999
 31
0.0
  0
LINE
  5
1EA5
  8
0
 10
3.8109766147999999
 20
12.886557613800001
 30
0.0
 11
3.8306616541
 21
12.897915853200001
 31
0.0
  0
LINE
  5
1EA6
  8
0
 10
3.5437236580999998
 20
12.731672956500001
 30
0.0
 11
3.5240386187000001
 21
12.720314717000001
 31
0.0
  0
LINE
  5
1EA7
  8
0
 10
3.6910717165999989
 20
12.814565342
 30
0.0
 11
3.7107567559999999
 21
12.8259235815
 31
0.0
  0
LINE
  5
1EA8
  8
0
 10
3.6439435167999998
 20
12.786398806299999
 30
0.0
 11
3.6636285561999991
 21
12.797757045699999
 31
0.0
  0
LINE
  5
1EA9
  8
0
 10
3.5240386187000001
 20
12.7144065345
 30
0.0
 11
3.5437236580999998
 21
12.725764774
 31
0.0
  0
LINE
  5
1EAA
  8
0
 10
3.8443832343
 20
12.898604302300001
 30
0.0
 11
3.824698194999999
 21
12.887246062899999
 31
0.0
  0
LINE
  5
1EAB
  8
0
 10
3.4769104188999989
 20
12.6862399987
 30
0.0
 11
3.496595458299999
 21
12.697598238199999
 31
0.0
  0
LINE
  5
1EAC
  8
0
 10
3.677350136399999
 20
12.798445494799999
 30
0.0
 11
3.6576650969999989
 21
12.787087255399999
 31
0.0
  0
LINE
  5
1EAD
  8
0
 10
3.824698194999999
 20
12.8813378804
 30
0.0
 11
3.8443832343
 21
12.8926961198
 31
0.0
  0
LINE
  5
1EAE
  8
0
 10
3.7775699951999999
 20
12.8531713446
 30
0.0
 11
3.7972550345
 21
12.864529584
 31
0.0
  0
LINE
  5
1EAF
  8
0
 10
3.5103170385000002
 20
12.6982866873
 30
0.0
 11
3.4906319990999992
 21
12.6869284479
 31
0.0
  0
LINE
  5
1EB0
  8
0
 10
3.6576650969999989
 20
12.781179072900001
 30
0.0
 11
3.677350136399999
 21
12.7925373123
 31
0.0
  0
LINE
  5
1EB1
  8
0
 10
3.6105368972999998
 20
12.7530125371
 30
0.0
 11
3.630221936599999
 21
12.7643707765
 31
0.0
  0
LINE
  5
1EB2
  8
0
 10
3.4906319990999992
 20
12.681020265300001
 30
0.0
 11
3.5103170385000002
 21
12.692378504800001
 31
0.0
  0
LINE
  5
1EB3
  8
0
 10
3.8109766147999999
 20
12.8652180332
 30
0.0
 11
3.7912915753999998
 21
12.8538597937
 31
0.0
  0
LINE
  5
1EB4
  8
0
 10
3.6439435167999998
 20
12.7650592256
 30
0.0
 11
3.6242584774999989
 21
12.7537009862
 31
0.0
  0
LINE
  5
1EB5
  8
0
 10
3.7912915753999998
 20
12.847951611199999
 30
0.0
 11
3.8109766147999999
 21
12.859309850600001
 31
0.0
  0
LINE
  5
1EB6
  8
0
 10
3.744163375599999
 20
12.8197850754
 30
0.0
 11
3.763848415
 21
12.8311433149
 31
0.0
  0
LINE
  5
1EB7
  8
0
 10
3.4769104188999989
 20
12.6649004181
 30
0.0
 11
3.4572253795000001
 21
12.6535421787
 31
0.0
  0
LINE
  5
1EB8
  8
0
 10
3.6242584774999989
 20
12.747792803699999
 30
0.0
 11
3.6439435167999998
 21
12.759151043099999
 31
0.0
  0
LINE
  5
1EB9
  8
0
 10
3.5771302776999998
 20
12.719626267900001
 30
0.0
 11
3.596815316999999
 21
12.730984507300001
 31
0.0
  0
LINE
  5
1EBA
  8
0
 10
3.4572253795000001
 20
12.6476339962
 30
0.0
 11
3.4769104188999989
 21
12.6589922356
 31
0.0
  0
LINE
  5
1EBB
  8
0
 10
3.7775699951999999
 20
12.831831764
 30
0.0
 11
3.7578849557999989
 21
12.820473524600001
 31
0.0
  0
LINE
  5
1EBC
  8
0
 10
3.8777898538999991
 20
12.886557613800001
 30
0.0
 11
3.8974748933000001
 21
12.897915853200001
 31
0.0
  0
LINE
  5
1EBD
  8
0
 10
3.6105368972999998
 20
12.731672956500001
 30
0.0
 11
3.5908518579000002
 21
12.720314717000001
 31
0.0
  0
LINE
  5
1EBE
  8
0
 10
3.7578849557999989
 20
12.814565342
 30
0.0
 11
3.7775699951999999
 21
12.8259235815
 31
0.0
  0
LINE
  5
1EBF
  8
0
 10
3.7107567559999999
 20
12.786398806299999
 30
0.0
 11
3.7304417954
 21
12.797757045699999
 31
0.0
  0
LINE
  5
1EC0
  8
0
 10
3.5908518579000002
 20
12.7144065345
 30
0.0
 11
3.6105368972999998
 21
12.725764774
 31
0.0
  0
LINE
  5
1EC1
  8
0
 10
3.9111964735
 20
12.898604302300001
 30
0.0
 11
3.891511434099999
 21
12.887246062899999
 31
0.0
  0
LINE
  5
1EC2
  8
0
 10
3.5437236580999998
 20
12.6862399987
 30
0.0
 11
3.563408697499999
 21
12.697598238199999
 31
0.0
  0
LINE
  5
1EC3
  8
0
 10
3.744163375599999
 20
12.798445494799999
 30
0.0
 11
3.7244783361999998
 21
12.787087255399999
 31
0.0
  0
LINE
  5
1EC4
  8
0
 10
3.891511434099999
 20
12.8813378804
 30
0.0
 11
3.9111964735
 21
12.8926961198
 31
0.0
  0
LINE
  5
1EC5
  8
0
 10
3.8443832343
 20
12.8531713446
 30
0.0
 11
3.8640682737000001
 21
12.864529584
 31
0.0
  0
LINE
  5
1EC6
  8
0
 10
3.5771302776999998
 20
12.6982866873
 30
0.0
 11
3.5574452382999988
 21
12.6869284479
 31
0.0
  0
LINE
  5
1EC7
  8
0
 10
3.7244783361999998
 20
12.781179072900001
 30
0.0
 11
3.744163375599999
 21
12.7925373123
 31
0.0
  0
LINE
  5
1EC8
  8
0
 10
3.677350136399999
 20
12.7530125371
 30
0.0
 11
3.6970351757999991
 21
12.7643707765
 31
0.0
  0
LINE
  5
1EC9
  8
0
 10
3.5574452382999988
 20
12.681020265300001
 30
0.0
 11
3.5771302776999998
 21
12.692378504800001
 31
0.0
  0
LINE
  5
1ECA
  8
0
 10
3.8777898538999991
 20
12.8652180332
 30
0.0
 11
3.858104814499999
 21
12.8538597937
 31
0.0
  0
LINE
  5
1ECB
  8
0
 10
3.5103170385000002
 20
12.6528537296
 30
0.0
 11
3.5300020778999999
 21
12.664211969
 31
0.0
  0
LINE
  5
1ECC
  8
0
 10
3.7107567559999999
 20
12.7650592256
 30
0.0
 11
3.6910717165999989
 21
12.7537009862
 31
0.0
  0
LINE
  5
1ECD
  8
0
 10
3.858104814499999
 20
12.847951611199999
 30
0.0
 11
3.8777898538999991
 21
12.859309850600001
 31
0.0
  0
LINE
  5
1ECE
  8
0
 10
3.8109766147999999
 20
12.8197850754
 30
0.0
 11
3.8306616541
 21
12.8311433149
 31
0.0
  0
LINE
  5
1ECF
  8
0
 10
3.5437236580999998
 20
12.6649004181
 30
0.0
 11
3.5240386187000001
 21
12.6535421787
 31
0.0
  0
LINE
  5
1ED0
  8
0
 10
3.6910717165999989
 20
12.747792803699999
 30
0.0
 11
3.7107567559999999
 21
12.759151043099999
 31
0.0
  0
LINE
  5
1ED1
  8
0
 10
3.6439435167999998
 20
12.719626267900001
 30
0.0
 11
3.6636285561999991
 21
12.730984507300001
 31
0.0
  0
LINE
  5
1ED2
  8
0
 10
3.5240386187000001
 20
12.6476339962
 30
0.0
 11
3.5437236580999998
 21
12.6589922356
 31
0.0
  0
LINE
  5
1ED3
  8
0
 10
3.8443832343
 20
12.831831764
 30
0.0
 11
3.824698194999999
 21
12.820473524600001
 31
0.0
  0
LINE
  5
1ED4
  8
0
 10
3.4769104188999989
 20
12.619467460399999
 30
0.0
 11
3.496595458299999
 21
12.630825699800001
 31
0.0
  0
LINE
  5
1ED5
  8
0
 10
3.677350136399999
 20
12.731672956500001
 30
0.0
 11
3.6576650969999989
 21
12.720314717000001
 31
0.0
  0
LINE
  5
1ED6
  8
0
 10
3.824698194999999
 20
12.814565342
 30
0.0
 11
3.8443832343
 21
12.8259235815
 31
0.0
  0
LINE
  5
1ED7
  8
0
 10
3.7775699951999999
 20
12.786398806299999
 30
0.0
 11
3.7972550345
 21
12.797757045699999
 31
0.0
  0
LINE
  5
1ED8
  8
0
 10
3.5103170385000002
 20
12.631514148899999
 30
0.0
 11
3.4906319990999992
 21
12.620155909499999
 31
0.0
  0
LINE
  5
1ED9
  8
0
 10
3.6576650969999989
 20
12.7144065345
 30
0.0
 11
3.677350136399999
 21
12.725764774
 31
0.0
  0
LINE
  5
1EDA
  8
0
 10
3.6105368972999998
 20
12.6862399987
 30
0.0
 11
3.630221936599999
 21
12.697598238199999
 31
0.0
  0
LINE
  5
1EDB
  8
0
 10
3.4906319990999992
 20
12.614247727
 30
0.0
 11
3.5103170385000002
 21
12.6256059664
 31
0.0
  0
LINE
  5
1EDC
  8
0
 10
3.8109766147999999
 20
12.798445494799999
 30
0.0
 11
3.7912915753999998
 21
12.787087255399999
 31
0.0
  0
LINE
  5
1EDD
  8
0
 10
3.9111964735
 20
12.8531713446
 30
0.0
 11
3.9308815129000001
 21
12.864529584
 31
0.0
  0
LINE
  5
1EDE
  8
0
 10
3.6439435167999998
 20
12.6982866873
 30
0.0
 11
3.6242584774999989
 21
12.6869284479
 31
0.0
  0
LINE
  5
1EDF
  8
0
 10
3.7912915753999998
 20
12.781179072900001
 30
0.0
 11
3.8109766147999999
 21
12.7925373123
 31
0.0
  0
LINE
  5
1EE0
  8
0
 10
3.744163375599999
 20
12.7530125371
 30
0.0
 11
3.763848415
 21
12.7643707765
 31
0.0
  0
LINE
  5
1EE1
  8
0
 10
3.6242584774999989
 20
12.681020265300001
 30
0.0
 11
3.6439435167999998
 21
12.692378504800001
 31
0.0
  0
LINE
  5
1EE2
  8
0
 10
3.9446030930999991
 20
12.8652180332
 30
0.0
 11
3.924918053699999
 21
12.8538597937
 31
0.0
  0
LINE
  5
1EE3
  8
0
 10
3.5771302776999998
 20
12.6528537296
 30
0.0
 11
3.596815316999999
 21
12.664211969
 31
0.0
  0
LINE
  5
1EE4
  8
0
 10
3.7775699951999999
 20
12.7650592256
 30
0.0
 11
3.7578849557999989
 21
12.7537009862
 31
0.0
  0
LINE
  5
1EE5
  8
0
 10
3.924918053699999
 20
12.847951611199999
 30
0.0
 11
3.9446030930999991
 21
12.859309850600001
 31
0.0
  0
LINE
  5
1EE6
  8
0
 10
3.8777898538999991
 20
12.8197850754
 30
0.0
 11
3.8974748933000001
 21
12.8311433149
 31
0.0
  0
LINE
  5
1EE7
  8
0
 10
3.6105368972999998
 20
12.6649004181
 30
0.0
 11
3.5908518579000002
 21
12.6535421787
 31
0.0
  0
LINE
  5
1EE8
  8
0
 10
3.7578849557999989
 20
12.747792803699999
 30
0.0
 11
3.7775699951999999
 21
12.759151043099999
 31
0.0
  0
LINE
  5
1EE9
  8
0
 10
3.7107567559999999
 20
12.719626267900001
 30
0.0
 11
3.7304417954
 21
12.730984507300001
 31
0.0
  0
LINE
  5
1EEA
  8
0
 10
3.5908518579000002
 20
12.6476339962
 30
0.0
 11
3.6105368972999998
 21
12.6589922356
 31
0.0
  0
LINE
  5
1EEB
  8
0
 10
3.9111964735
 20
12.831831764
 30
0.0
 11
3.891511434099999
 21
12.820473524600001
 31
0.0
  0
LINE
  5
1EEC
  8
0
 10
3.5437236580999998
 20
12.619467460399999
 30
0.0
 11
3.563408697499999
 21
12.630825699800001
 31
0.0
  0
LINE
  5
1EED
  8
0
 10
3.744163375599999
 20
12.731672956500001
 30
0.0
 11
3.7244783361999998
 21
12.720314717000001
 31
0.0
  0
LINE
  5
1EEE
  8
0
 10
3.891511434099999
 20
12.814565342
 30
0.0
 11
3.9111964735
 21
12.8259235815
 31
0.0
  0
LINE
  5
1EEF
  8
0
 10
3.8443832343
 20
12.786398806299999
 30
0.0
 11
3.8640682737000001
 21
12.797757045699999
 31
0.0
  0
LINE
  5
1EF0
  8
0
 10
3.5771302776999998
 20
12.631514148899999
 30
0.0
 11
3.5574452382999988
 21
12.620155909499999
 31
0.0
  0
LINE
  5
1EF1
  8
0
 10
3.7244783361999998
 20
12.7144065345
 30
0.0
 11
3.744163375599999
 21
12.725764774
 31
0.0
  0
LINE
  5
1EF2
  8
0
 10
3.677350136399999
 20
12.6862399987
 30
0.0
 11
3.6970351757999991
 21
12.697598238199999
 31
0.0
  0
LINE
  5
1EF3
  8
0
 10
3.5574452382999988
 20
12.614247727
 30
0.0
 11
3.5771302776999998
 21
12.6256059664
 31
0.0
  0
LINE
  5
1EF4
  8
0
 10
3.8777898538999991
 20
12.798445494799999
 30
0.0
 11
3.858104814499999
 21
12.787087255399999
 31
0.0
  0
LINE
  5
1EF5
  8
0
 10
3.5103170385000002
 20
12.5860811912
 30
0.0
 11
3.5300020778999999
 21
12.5974394307
 31
0.0
  0
LINE
  5
1EF6
  8
0
 10
3.7107567559999999
 20
12.6982866873
 30
0.0
 11
3.6910717165999989
 21
12.6869284479
 31
0.0
  0
LINE
  5
1EF7
  8
0
 10
3.858104814499999
 20
12.781179072900001
 30
0.0
 11
3.8777898538999991
 21
12.7925373123
 31
0.0
  0
LINE
  5
1EF8
  8
0
 10
3.8109766147999999
 20
12.7530125371
 30
0.0
 11
3.8306616541
 21
12.7643707765
 31
0.0
  0
LINE
  5
1EF9
  8
0
 10
3.5437236580999998
 20
12.5981278798
 30
0.0
 11
3.5240386187000001
 21
12.5867696403
 31
0.0
  0
LINE
  5
1EFA
  8
0
 10
3.6910717165999989
 20
12.681020265300001
 30
0.0
 11
3.7107567559999999
 21
12.692378504800001
 31
0.0
  0
LINE
  5
1EFB
  8
0
 10
3.6439435167999998
 20
12.6528537296
 30
0.0
 11
3.6636285561999991
 21
12.664211969
 31
0.0
  0
LINE
  5
1EFC
  8
0
 10
3.5240386187000001
 20
12.580861457799999
 30
0.0
 11
3.5437236580999998
 21
12.592219697299999
 31
0.0
  0
LINE
  5
1EFD
  8
0
 10
3.8443832343
 20
12.7650592256
 30
0.0
 11
3.824698194999999
 21
12.7537009862
 31
0.0
  0
LINE
  5
1EFE
  8
0
 10
3.9446030930999991
 20
12.8197850754
 30
0.0
 11
3.9642881325000001
 21
12.8311433149
 31
0.0
  0
LINE
  5
1EFF
  8
0
 10
3.677350136399999
 20
12.6649004181
 30
0.0
 11
3.6576650969999989
 21
12.6535421787
 31
0.0
  0
LINE
  5
1F00
  8
0
 10
3.824698194999999
 20
12.747792803699999
 30
0.0
 11
3.8443832343
 21
12.759151043099999
 31
0.0
  0
LINE
  5
1F01
  8
0
 10
3.7775699951999999
 20
12.719626267900001
 30
0.0
 11
3.7972550345
 21
12.730984507300001
 31
0.0
  0
LINE
  5
1F02
  8
0
 10
3.6576650969999989
 20
12.6476339962
 30
0.0
 11
3.677350136399999
 21
12.6589922356
 31
0.0
  0
LINE
  5
1F03
  8
0
 10
3.6105368972999998
 20
12.619467460399999
 30
0.0
 11
3.630221936599999
 21
12.630825699800001
 31
0.0
  0
LINE
  5
1F04
  8
0
 10
3.8109766147999999
 20
12.731672956500001
 30
0.0
 11
3.7912915753999998
 21
12.720314717000001
 31
0.0
  0
LINE
  5
1F05
  8
0
 10
3.9111964735
 20
12.786398806299999
 30
0.0
 11
3.9308815129000001
 21
12.797757045699999
 31
0.0
  0
LINE
  5
1F06
  8
0
 10
3.6439435167999998
 20
12.631514148899999
 30
0.0
 11
3.6242584774999989
 21
12.620155909499999
 31
0.0
  0
LINE
  5
1F07
  8
0
 10
3.7912915753999998
 20
12.7144065345
 30
0.0
 11
3.8109766147999999
 21
12.725764774
 31
0.0
  0
LINE
  5
1F08
  8
0
 10
3.744163375599999
 20
12.6862399987
 30
0.0
 11
3.763848415
 21
12.697598238199999
 31
0.0
  0
LINE
  5
1F09
  8
0
 10
3.6242584774999989
 20
12.614247727
 30
0.0
 11
3.6439435167999998
 21
12.6256059664
 31
0.0
  0
LINE
  5
1F0A
  8
0
 10
3.9446030930999991
 20
12.798445494799999
 30
0.0
 11
3.924918053699999
 21
12.787087255399999
 31
0.0
  0
LINE
  5
1F0B
  8
0
 10
3.5771302776999998
 20
12.5860811912
 30
0.0
 11
3.596815316999999
 21
12.5974394307
 31
0.0
  0
LINE
  5
1F0C
  8
0
 10
3.7775699951999999
 20
12.6982866873
 30
0.0
 11
3.7578849557999989
 21
12.6869284479
 31
0.0
  0
LINE
  5
1F0D
  8
0
 10
3.924918053699999
 20
12.781179072900001
 30
0.0
 11
3.9446030930999991
 21
12.7925373123
 31
0.0
  0
LINE
  5
1F0E
  8
0
 10
3.8777898538999991
 20
12.7530125371
 30
0.0
 11
3.8974748933000001
 21
12.7643707765
 31
0.0
  0
LINE
  5
1F0F
  8
0
 10
3.6105368972999998
 20
12.5981278798
 30
0.0
 11
3.5908518579000002
 21
12.5867696403
 31
0.0
  0
LINE
  5
1F10
  8
0
 10
3.7578849557999989
 20
12.681020265300001
 30
0.0
 11
3.7775699951999999
 21
12.692378504800001
 31
0.0
  0
LINE
  5
1F11
  8
0
 10
3.7107567559999999
 20
12.6528537296
 30
0.0
 11
3.7304417954
 21
12.664211969
 31
0.0
  0
LINE
  5
1F12
  8
0
 10
3.5908518579000002
 20
12.580861457799999
 30
0.0
 11
3.6105368972999998
 21
12.592219697299999
 31
0.0
  0
LINE
  5
1F13
  8
0
 10
3.9111964735
 20
12.7650592256
 30
0.0
 11
3.891511434099999
 21
12.7537009862
 31
0.0
  0
LINE
  5
1F14
  8
0
 10
3.5437236580999998
 20
12.552694922100001
 30
0.0
 11
3.563408697499999
 21
12.5640531615
 31
0.0
  0
LINE
  5
1F15
  8
0
 10
3.744163375599999
 20
12.6649004181
 30
0.0
 11
3.7244783361999998
 21
12.6535421787
 31
0.0
  0
LINE
  5
1F16
  8
0
 10
3.891511434099999
 20
12.747792803699999
 30
0.0
 11
3.9111964735
 21
12.759151043099999
 31
0.0
  0
LINE
  5
1F17
  8
0
 10
3.8443832343
 20
12.719626267900001
 30
0.0
 11
3.8640682737000001
 21
12.730984507300001
 31
0.0
  0
LINE
  5
1F18
  8
0
 10
3.5771302776999998
 20
12.5647416106
 30
0.0
 11
3.5574452382999988
 21
12.553383371200001
 31
0.0
  0
LINE
  5
1F19
  8
0
 10
3.7244783361999998
 20
12.6476339962
 30
0.0
 11
3.744163375599999
 21
12.6589922356
 31
0.0
  0
LINE
  5
1F1A
  8
0
 10
3.677350136399999
 20
12.619467460399999
 30
0.0
 11
3.6970351757999991
 21
12.630825699800001
 31
0.0
  0
LINE
  5
1F1B
  8
0
 10
3.5574452382999988
 20
12.5474751887
 30
0.0
 11
3.5771302776999998
 21
12.5588334281
 31
0.0
  0
LINE
  5
1F1C
  8
0
 10
3.8777898538999991
 20
12.731672956500001
 30
0.0
 11
3.858104814499999
 21
12.720314717000001
 31
0.0
  0
LINE
  5
1F1D
  8
0
 10
3.7107567559999999
 20
12.631514148899999
 30
0.0
 11
3.6910717165999989
 21
12.620155909499999
 31
0.0
  0
LINE
  5
1F1E
  8
0
 10
3.858104814499999
 20
12.7144065345
 30
0.0
 11
3.8777898538999991
 21
12.725764774
 31
0.0
  0
LINE
  5
1F1F
  8
0
 10
3.8109766147999999
 20
12.6862399987
 30
0.0
 11
3.8306616541
 21
12.697598238199999
 31
0.0
  0
LINE
  5
1F20
  8
0
 10
3.6910717165999989
 20
12.614247727
 30
0.0
 11
3.7107567559999999
 21
12.6256059664
 31
0.0
  0
LINE
  5
1F21
  8
0
 10
3.6439435167999998
 20
12.5860811912
 30
0.0
 11
3.6636285561999991
 21
12.5974394307
 31
0.0
  0
LINE
  5
1F22
  8
0
 10
3.8443832343
 20
12.6982866873
 30
0.0
 11
3.824698194999999
 21
12.6869284479
 31
0.0
  0
LINE
  5
1F23
  8
0
 10
3.9446030930999991
 20
12.7530125371
 30
0.0
 11
3.9642881325000001
 21
12.7643707765
 31
0.0
  0
LINE
  5
1F24
  8
0
 10
3.677350136399999
 20
12.5981278798
 30
0.0
 11
3.6576650969999989
 21
12.5867696403
 31
0.0
  0
LINE
  5
1F25
  8
0
 10
3.824698194999999
 20
12.681020265300001
 30
0.0
 11
3.8443832343
 21
12.692378504800001
 31
0.0
  0
LINE
  5
1F26
  8
0
 10
3.7775699951999999
 20
12.6528537296
 30
0.0
 11
3.7972550345
 21
12.664211969
 31
0.0
  0
LINE
  5
1F27
  8
0
 10
3.6576650969999989
 20
12.580861457799999
 30
0.0
 11
3.677350136399999
 21
12.592219697299999
 31
0.0
  0
LINE
  5
1F28
  8
0
 10
3.9780097126999991
 20
12.7650592256
 30
0.0
 11
3.958324673299999
 21
12.7537009862
 31
0.0
  0
LINE
  5
1F29
  8
0
 10
3.6105368972999998
 20
12.552694922100001
 30
0.0
 11
3.630221936599999
 21
12.5640531615
 31
0.0
  0
LINE
  5
1F2A
  8
0
 10
3.8109766147999999
 20
12.6649004181
 30
0.0
 11
3.7912915753999998
 21
12.6535421787
 31
0.0
  0
LINE
  5
1F2B
  8
0
 10
3.958324673299999
 20
12.747792803699999
 30
0.0
 11
3.9780097126999991
 21
12.759151043099999
 31
0.0
  0
LINE
  5
1F2C
  8
0
 10
3.9111964735
 20
12.719626267900001
 30
0.0
 11
3.9308815129000001
 21
12.730984507300001
 31
0.0
  0
LINE
  5
1F2D
  8
0
 10
3.6439435167999998
 20
12.5647416106
 30
0.0
 11
3.6242584774999989
 21
12.553383371200001
 31
0.0
  0
LINE
  5
1F2E
  8
0
 10
3.7912915753999998
 20
12.6476339962
 30
0.0
 11
3.8109766147999999
 21
12.6589922356
 31
0.0
  0
LINE
  5
1F2F
  8
0
 10
3.744163375599999
 20
12.619467460399999
 30
0.0
 11
3.763848415
 21
12.630825699800001
 31
0.0
  0
LINE
  5
1F30
  8
0
 10
3.6242584774999989
 20
12.5474751887
 30
0.0
 11
3.6439435167999998
 21
12.5588334281
 31
0.0
  0
LINE
  5
1F31
  8
0
 10
3.9446030930999991
 20
12.731672956500001
 30
0.0
 11
3.924918053699999
 21
12.720314717000001
 31
0.0
  0
LINE
  5
1F32
  8
0
 10
3.5771302776999998
 20
12.5193086529
 30
0.0
 11
3.596815316999999
 21
12.530666892299999
 31
0.0
  0
LINE
  5
1F33
  8
0
 10
3.7775699951999999
 20
12.631514148899999
 30
0.0
 11
3.7578849557999989
 21
12.620155909499999
 31
0.0
  0
LINE
  5
1F34
  8
0
 10
3.924918053699999
 20
12.7144065345
 30
0.0
 11
3.9446030930999991
 21
12.725764774
 31
0.0
  0
LINE
  5
1F35
  8
0
 10
3.8777898538999991
 20
12.6862399987
 30
0.0
 11
3.8974748933000001
 21
12.697598238199999
 31
0.0
  0
LINE
  5
1F36
  8
0
 10
3.6105368972999998
 20
12.531355341399999
 30
0.0
 11
3.5908518579000002
 21
12.519997102
 31
0.0
  0
LINE
  5
1F37
  8
0
 10
3.7578849557999989
 20
12.614247727
 30
0.0
 11
3.7775699951999999
 21
12.6256059664
 31
0.0
  0
LINE
  5
1F38
  8
0
 10
3.7107567559999999
 20
12.5860811912
 30
0.0
 11
3.7304417954
 21
12.5974394307
 31
0.0
  0
LINE
  5
1F39
  8
0
 10
3.5908518579000002
 20
12.514088919500001
 30
0.0
 11
3.6105368972999998
 21
12.5254471589
 31
0.0
  0
LINE
  5
1F3A
  8
0
 10
3.9111964735
 20
12.6982866873
 30
0.0
 11
3.891511434099999
 21
12.6869284479
 31
0.0
  0
LINE
  5
1F3B
  8
0
 10
3.744163375599999
 20
12.5981278798
 30
0.0
 11
3.7244783361999998
 21
12.5867696403
 31
0.0
  0
LINE
  5
1F3C
  8
0
 10
3.891511434099999
 20
12.681020265300001
 30
0.0
 11
3.9111964735
 21
12.692378504800001
 31
0.0
  0
LINE
  5
1F3D
  8
0
 10
3.8443832343
 20
12.6528537296
 30
0.0
 11
3.8640682737000001
 21
12.664211969
 31
0.0
  0
LINE
  5
1F3E
  8
0
 10
3.7244783361999998
 20
12.580861457799999
 30
0.0
 11
3.744163375599999
 21
12.592219697299999
 31
0.0
  0
LINE
  5
1F3F
  8
0
 10
3.677350136399999
 20
12.552694922100001
 30
0.0
 11
3.6970351757999991
 21
12.5640531615
 31
0.0
  0
LINE
  5
1F40
  8
0
 10
3.8777898538999991
 20
12.6649004181
 30
0.0
 11
3.858104814499999
 21
12.6535421787
 31
0.0
  0
LINE
  5
1F41
  8
0
 10
3.9780097126999991
 20
12.719626267900001
 30
0.0
 11
3.9976947519999988
 21
12.730984507300001
 31
0.0
  0
LINE
  5
1F42
  8
0
 10
3.7107567559999999
 20
12.5647416106
 30
0.0
 11
3.6910717165999989
 21
12.553383371200001
 31
0.0
  0
LINE
  5
1F43
  8
0
 10
3.858104814499999
 20
12.6476339962
 30
0.0
 11
3.8777898538999991
 21
12.6589922356
 31
0.0
  0
LINE
  5
1F44
  8
0
 10
3.8109766147999999
 20
12.619467460399999
 30
0.0
 11
3.8306616541
 21
12.630825699800001
 31
0.0
  0
LINE
  5
1F45
  8
0
 10
3.6910717165999989
 20
12.5474751887
 30
0.0
 11
3.7107567559999999
 21
12.5588334281
 31
0.0
  0
LINE
  5
1F46
  8
0
 10
3.6439435167999998
 20
12.5193086529
 30
0.0
 11
3.6636285561999991
 21
12.530666892299999
 31
0.0
  0
LINE
  5
1F47
  8
0
 10
3.8443832343
 20
12.631514148899999
 30
0.0
 11
3.824698194999999
 21
12.620155909499999
 31
0.0
  0
LINE
  5
1F48
  8
0
 10
3.9446030930999991
 20
12.6862399987
 30
0.0
 11
3.9642881325000001
 21
12.697598238199999
 31
0.0
  0
LINE
  5
1F49
  8
0
 10
3.677350136399999
 20
12.531355341399999
 30
0.0
 11
3.6576650969999989
 21
12.519997102
 31
0.0
  0
LINE
  5
1F4A
  8
0
 10
3.824698194999999
 20
12.614247727
 30
0.0
 11
3.8443832343
 21
12.6256059664
 31
0.0
  0
LINE
  5
1F4B
  8
0
 10
3.7775699951999999
 20
12.5860811912
 30
0.0
 11
3.7972550345
 21
12.5974394307
 31
0.0
  0
LINE
  5
1F4C
  8
0
 10
3.6576650969999989
 20
12.514088919500001
 30
0.0
 11
3.677350136399999
 21
12.5254471589
 31
0.0
  0
LINE
  5
1F4D
  8
0
 10
3.6105368972999998
 20
12.4859223837
 30
0.0
 11
3.630221936599999
 21
12.4972806231
 31
0.0
  0
LINE
  5
1F4E
  8
0
 10
3.8109766147999999
 20
12.5981278798
 30
0.0
 11
3.7912915753999998
 21
12.5867696403
 31
0.0
  0
LINE
  5
1F4F
  8
0
 10
3.9111964735
 20
12.6528537296
 30
0.0
 11
3.9308815129000001
 21
12.664211969
 31
0.0
  0
LINE
  5
1F50
  8
0
 10
3.7912915753999998
 20
12.580861457799999
 30
0.0
 11
3.8109766147999999
 21
12.592219697299999
 31
0.0
  0
LINE
  5
1F51
  8
0
 10
3.744163375599999
 20
12.552694922100001
 30
0.0
 11
3.763848415
 21
12.5640531615
 31
0.0
  0
LINE
  5
1F52
  8
0
 10
3.9446030930999991
 20
12.6649004181
 30
0.0
 11
3.924918053699999
 21
12.6535421787
 31
0.0
  0
LINE
  5
1F53
  8
0
 10
3.7775699951999999
 20
12.5647416106
 30
0.0
 11
3.7578849557999989
 21
12.553383371200001
 31
0.0
  0
LINE
  5
1F54
  8
0
 10
3.924918053699999
 20
12.6476339962
 30
0.0
 11
3.9446030930999991
 21
12.6589922356
 31
0.0
  0
LINE
  5
1F55
  8
0
 10
3.8777898538999991
 20
12.619467460399999
 30
0.0
 11
3.8974748933000001
 21
12.630825699800001
 31
0.0
  0
LINE
  5
1F56
  8
0
 10
3.7578849557999989
 20
12.5474751887
 30
0.0
 11
3.7775699951999999
 21
12.5588334281
 31
0.0
  0
LINE
  5
1F57
  8
0
 10
3.7107567559999999
 20
12.5193086529
 30
0.0
 11
3.7304417954
 21
12.530666892299999
 31
0.0
  0
LINE
  5
1F58
  8
0
 10
3.9111964735
 20
12.631514148899999
 30
0.0
 11
3.891511434099999
 21
12.620155909499999
 31
0.0
  0
LINE
  5
1F59
  8
0
 10
3.744163375599999
 20
12.531355341399999
 30
0.0
 11
3.7244783361999998
 21
12.519997102
 31
0.0
  0
LINE
  5
1F5A
  8
0
 10
3.891511434099999
 20
12.614247727
 30
0.0
 11
3.9111964735
 21
12.6256059664
 31
0.0
  0
LINE
  5
1F5B
  8
0
 10
3.8443832343
 20
12.5860811912
 30
0.0
 11
3.8640682737000001
 21
12.5974394307
 31
0.0
  0
LINE
  5
1F5C
  8
0
 10
3.7244783361999998
 20
12.514088919500001
 30
0.0
 11
3.744163375599999
 21
12.5254471589
 31
0.0
  0
LINE
  5
1F5D
  8
0
 10
3.677350136399999
 20
12.4859223837
 30
0.0
 11
3.6970351757999991
 21
12.4972806231
 31
0.0
  0
LINE
  5
1F5E
  8
0
 10
3.8777898538999991
 20
12.5981278798
 30
0.0
 11
3.858104814499999
 21
12.5867696403
 31
0.0
  0
LINE
  5
1F5F
  8
0
 10
3.7107567559999999
 20
12.4979690722
 30
0.0
 11
3.6910717165999989
 21
12.4866108328
 31
0.0
  0
LINE
  5
1F60
  8
0
 10
3.858104814499999
 20
12.580861457799999
 30
0.0
 11
3.8777898538999991
 21
12.592219697299999
 31
0.0
  0
LINE
  5
1F61
  8
0
 10
3.8109766147999999
 20
12.552694922100001
 30
0.0
 11
3.8306616541
 21
12.5640531615
 31
0.0
  0
LINE
  5
1F62
  8
0
 10
3.6910717165999989
 20
12.4807026503
 30
0.0
 11
3.7107567559999999
 21
12.492060889699999
 31
0.0
  0
LINE
  5
1F63
  8
0
 10
3.8443832343
 20
12.5647416106
 30
0.0
 11
3.824698194999999
 21
12.553383371200001
 31
0.0
  0
LINE
  5
1F64
  8
0
 10
3.9446030930999991
 20
12.619467460399999
 30
0.0
 11
3.9642881325000001
 21
12.630825699800001
 31
0.0
  0
LINE
  5
1F65
  8
0
 10
3.824698194999999
 20
12.5474751887
 30
0.0
 11
3.8443832343
 21
12.5588334281
 31
0.0
  0
LINE
  5
1F66
  8
0
 10
3.7775699951999999
 20
12.5193086529
 30
0.0
 11
3.7972550345
 21
12.530666892299999
 31
0.0
  0
LINE
  5
1F67
  8
0
 10
3.8109766147999999
 20
12.531355341399999
 30
0.0
 11
3.7912915753999998
 21
12.519997102
 31
0.0
  0
LINE
  5
1F68
  8
0
 10
3.9111964735
 20
12.5860811912
 30
0.0
 11
3.9308815129000001
 21
12.5974394307
 31
0.0
  0
LINE
  5
1F69
  8
0
 10
3.7912915753999998
 20
12.514088919500001
 30
0.0
 11
3.8109766147999999
 21
12.5254471589
 31
0.0
  0
LINE
  5
1F6A
  8
0
 10
3.744163375599999
 20
12.4859223837
 30
0.0
 11
3.763848415
 21
12.4972806231
 31
0.0
  0
LINE
  5
1F6B
  8
0
 10
3.8777898538999991
 20
12.552694922100001
 30
0.0
 11
3.8974748933000001
 21
12.5640531615
 31
0.0
  0
LINE
  5
1F6C
  8
0
 10
3.7107567559999999
 20
12.452536114500001
 30
0.0
 11
3.7304417954
 21
12.463894354000001
 31
0.0
  0
LINE
  5
1F6D
  8
0
 10
3.8443832343
 20
12.5193086529
 30
0.0
 11
3.8640682737000001
 21
12.530666892299999
 31
0.0
  0
LINE
  5
1F6E
  8
0
 10
3.8109766147999999
 20
12.4859223837
 30
0.0
 11
3.8306616541
 21
12.4972806231
 31
0.0
  0
LINE
  5
1F6F
  8
0
 10
3.4238187599999992
 20
12.730984507300001
 30
0.0
 11
3.4238187599999992
 21
12.7537009862
 31
0.0
  0
LINE
  5
1F70
  8
0
 10
3.4435037993000002
 20
12.759151043099999
 30
0.0
 11
3.4435037993000002
 21
12.7650592256
 31
0.0
  0
LINE
  5
1F71
  8
0
 10
3.4572253795000001
 20
12.630825699800001
 30
0.0
 11
3.4572253795000001
 21
12.6535421787
 31
0.0
  0
LINE
  5
1F72
  8
0
 10
3.4572253795000001
 20
12.697598238199999
 30
0.0
 11
3.4572253795000001
 21
12.720314717000001
 31
0.0
  0
LINE
  5
1F73
  8
0
 10
3.4572253795000001
 20
12.7643707765
 30
0.0
 11
3.4572253795000001
 21
12.787087255399999
 31
0.0
  0
LINE
  5
1F74
  8
0
 10
3.4572253795000001
 20
12.8311433149
 30
0.0
 11
3.4572253795000001
 21
12.8538597937
 31
0.0
  0
LINE
  5
1F75
  8
0
 10
3.4631888386999989
 20
12.7537009862
 30
0.0
 11
3.4631888386999989
 21
12.730984507300001
 31
0.0
  0
LINE
  5
1F76
  8
0
 10
3.4769104188999989
 20
12.6589922356
 30
0.0
 11
3.4769104188999989
 21
12.6649004181
 31
0.0
  0
LINE
  5
1F77
  8
0
 10
3.4769104188999989
 20
12.725764774
 30
0.0
 11
3.4769104188999989
 21
12.731672956500001
 31
0.0
  0
LINE
  5
1F78
  8
0
 10
3.4769104188999989
 20
12.7925373123
 30
0.0
 11
3.4769104188999989
 21
12.798445494799999
 31
0.0
  0
LINE
  5
1F79
  8
0
 10
3.4769104188999989
 20
12.859309850600001
 30
0.0
 11
3.4769104188999989
 21
12.8652180332
 31
0.0
  0
LINE
  5
1F7A
  8
0
 10
3.4906319990999992
 20
12.664211969
 30
0.0
 11
3.4906319990999992
 21
12.6869284479
 31
0.0
  0
LINE
  5
1F7B
  8
0
 10
3.4906319990999992
 20
12.730984507300001
 30
0.0
 11
3.4906319990999992
 21
12.7537009862
 31
0.0
  0
LINE
  5
1F7C
  8
0
 10
3.4906319990999992
 20
12.797757045699999
 30
0.0
 11
3.4906319990999992
 21
12.820473524600001
 31
0.0
  0
LINE
  5
1F7D
  8
0
 10
3.4906319990999992
 20
12.864529584
 30
0.0
 11
3.4906319990999992
 21
12.887246062899999
 31
0.0
  0
LINE
  5
1F7E
  8
0
 10
3.496595458299999
 20
12.8538597937
 30
0.0
 11
3.496595458299999
 21
12.8311433149
 31
0.0
  0
LINE
  5
1F7F
  8
0
 10
3.496595458299999
 20
12.787087255399999
 30
0.0
 11
3.496595458299999
 21
12.7643707765
 31
0.0
  0
LINE
  5
1F80
  8
0
 10
3.496595458299999
 20
12.720314717000001
 30
0.0
 11
3.496595458299999
 21
12.697598238199999
 31
0.0
  0
LINE
  5
1F81
  8
0
 10
3.496595458299999
 20
12.6535421787
 30
0.0
 11
3.496595458299999
 21
12.630825699800001
 31
0.0
  0
LINE
  5
1F82
  8
0
 10
3.5103170385000002
 20
12.6256059664
 30
0.0
 11
3.5103170385000002
 21
12.631514148899999
 31
0.0
  0
LINE
  5
1F83
  8
0
 10
3.5103170385000002
 20
12.692378504800001
 30
0.0
 11
3.5103170385000002
 21
12.6982866873
 31
0.0
  0
LINE
  5
1F84
  8
0
 10
3.5103170385000002
 20
12.759151043099999
 30
0.0
 11
3.5103170385000002
 21
12.7650592256
 31
0.0
  0
LINE
  5
1F85
  8
0
 10
3.5103170385000002
 20
12.8259235815
 30
0.0
 11
3.5103170385000002
 21
12.831831764
 31
0.0
  0
LINE
  5
1F86
  8
0
 10
3.5103170385000002
 20
12.8926961198
 30
0.0
 11
3.5103170385000002
 21
12.898604302300001
 31
0.0
  0
LINE
  5
1F87
  8
0
 10
3.5240386187000001
 20
12.5640531615
 30
0.0
 11
3.5240386187000001
 21
12.5867696403
 31
0.0
  0
LINE
  5
1F88
  8
0
 10
3.5240386187000001
 20
12.630825699800001
 30
0.0
 11
3.5240386187000001
 21
12.6535421787
 31
0.0
  0
LINE
  5
1F89
  8
0
 10
3.5240386187000001
 20
12.697598238199999
 30
0.0
 11
3.5240386187000001
 21
12.720314717000001
 31
0.0
  0
LINE
  5
1F8A
  8
0
 10
3.5240386187000001
 20
12.7643707765
 30
0.0
 11
3.5240386187000001
 21
12.787087255399999
 31
0.0
  0
LINE
  5
1F8B
  8
0
 10
3.5240386187000001
 20
12.8311433149
 30
0.0
 11
3.5240386187000001
 21
12.8538597937
 31
0.0
  0
LINE
  5
1F8C
  8
0
 10
3.5240386187000001
 20
12.897915853200001
 30
0.0
 11
3.5240386187000001
 21
12.9206323321
 31
0.0
  0
LINE
  5
1F8D
  8
0
 10
3.5300020778999999
 20
12.887246062899999
 30
0.0
 11
3.5300020778999999
 21
12.864529584
 31
0.0
  0
LINE
  5
1F8E
  8
0
 10
3.5300020778999999
 20
12.820473524600001
 30
0.0
 11
3.5300020778999999
 21
12.797757045699999
 31
0.0
  0
LINE
  5
1F8F
  8
0
 10
3.5300020778999999
 20
12.7537009862
 30
0.0
 11
3.5300020778999999
 21
12.730984507300001
 31
0.0
  0
LINE
  5
1F90
  8
0
 10
3.5300020778999999
 20
12.6869284479
 30
0.0
 11
3.5300020778999999
 21
12.664211969
 31
0.0
  0
LINE
  5
1F91
  8
0
 10
3.5300020778999999
 20
12.620155909499999
 30
0.0
 11
3.5300020778999999
 21
12.5974394307
 31
0.0
  0
LINE
  5
1F92
  8
0
 10
3.5437236580999998
 20
12.592219697299999
 30
0.0
 11
3.5437236580999998
 21
12.5981278798
 31
0.0
  0
LINE
  5
1F93
  8
0
 10
3.5437236580999998
 20
12.6589922356
 30
0.0
 11
3.5437236580999998
 21
12.6649004181
 31
0.0
  0
LINE
  5
1F94
  8
0
 10
3.5437236580999998
 20
12.725764774
 30
0.0
 11
3.5437236580999998
 21
12.731672956500001
 31
0.0
  0
LINE
  5
1F95
  8
0
 10
3.5437236580999998
 20
12.7925373123
 30
0.0
 11
3.5437236580999998
 21
12.798445494799999
 31
0.0
  0
LINE
  5
1F96
  8
0
 10
3.5437236580999998
 20
12.859309850600001
 30
0.0
 11
3.5437236580999998
 21
12.8652180332
 31
0.0
  0
LINE
  5
1F97
  8
0
 10
3.5437236580999998
 20
12.926082388999999
 30
0.0
 11
3.5437236580999998
 21
12.9319905715
 31
0.0
  0
LINE
  5
1F98
  8
0
 10
3.5574452382999988
 20
12.530666892299999
 30
0.0
 11
3.5574452382999988
 21
12.553383371200001
 31
0.0
  0
LINE
  5
1F99
  8
0
 10
3.5574452382999988
 20
12.5974394307
 30
0.0
 11
3.5574452382999988
 21
12.620155909499999
 31
0.0
  0
LINE
  5
1F9A
  8
0
 10
3.5574452382999988
 20
12.664211969
 30
0.0
 11
3.5574452382999988
 21
12.6869284479
 31
0.0
  0
LINE
  5
1F9B
  8
0
 10
3.5574452382999988
 20
12.730984507300001
 30
0.0
 11
3.5574452382999988
 21
12.7537009862
 31
0.0
  0
LINE
  5
1F9C
  8
0
 10
3.5574452382999988
 20
12.797757045699999
 30
0.0
 11
3.5574452382999988
 21
12.820473524600001
 31
0.0
  0
LINE
  5
1F9D
  8
0
 10
3.5574452382999988
 20
12.864529584
 30
0.0
 11
3.5574452382999988
 21
12.887246062899999
 31
0.0
  0
LINE
  5
1F9E
  8
0
 10
3.5574452382999988
 20
12.9313021224
 30
0.0
 11
3.5574452382999988
 21
12.9540186012
 31
0.0
  0
LINE
  5
1F9F
  8
0
 10
3.563408697499999
 20
12.9206323321
 30
0.0
 11
3.563408697499999
 21
12.897915853200001
 31
0.0
  0
LINE
  5
1FA0
  8
0
 10
3.563408697499999
 20
12.8538597937
 30
0.0
 11
3.563408697499999
 21
12.8311433149
 31
0.0
  0
LINE
  5
1FA1
  8
0
 10
3.563408697499999
 20
12.787087255399999
 30
0.0
 11
3.563408697499999
 21
12.7643707765
 31
0.0
  0
LINE
  5
1FA2
  8
0
 10
3.563408697499999
 20
12.720314717000001
 30
0.0
 11
3.563408697499999
 21
12.697598238199999
 31
0.0
  0
LINE
  5
1FA3
  8
0
 10
3.563408697499999
 20
12.6535421787
 30
0.0
 11
3.563408697499999
 21
12.630825699800001
 31
0.0
  0
LINE
  5
1FA4
  8
0
 10
3.563408697499999
 20
12.5867696403
 30
0.0
 11
3.563408697499999
 21
12.5640531615
 31
0.0
  0
LINE
  5
1FA5
  8
0
 10
3.5771302776999998
 20
12.5588334281
 30
0.0
 11
3.5771302776999998
 21
12.5647416106
 31
0.0
  0
LINE
  5
1FA6
  8
0
 10
3.5771302776999998
 20
12.6256059664
 30
0.0
 11
3.5771302776999998
 21
12.631514148899999
 31
0.0
  0
LINE
  5
1FA7
  8
0
 10
3.5771302776999998
 20
12.692378504800001
 30
0.0
 11
3.5771302776999998
 21
12.6982866873
 31
0.0
  0
LINE
  5
1FA8
  8
0
 10
3.5771302776999998
 20
12.759151043099999
 30
0.0
 11
3.5771302776999998
 21
12.7650592256
 31
0.0
  0
LINE
  5
1FA9
  8
0
 10
3.5771302776999998
 20
12.8259235815
 30
0.0
 11
3.5771302776999998
 21
12.831831764
 31
0.0
  0
LINE
  5
1FAA
  8
0
 10
3.5771302776999998
 20
12.8926961198
 30
0.0
 11
3.5771302776999998
 21
12.898604302300001
 31
0.0
  0
LINE
  5
1FAB
  8
0
 10
3.5771302776999998
 20
12.9594686582
 30
0.0
 11
3.5771302776999998
 21
12.965376840699999
 31
0.0
  0
LINE
  5
1FAC
  8
0
 10
3.5908518579000002
 20
12.4972806231
 30
0.0
 11
3.5908518579000002
 21
12.519997102
 31
0.0
  0
LINE
  5
1FAD
  8
0
 10
3.5908518579000002
 20
12.5640531615
 30
0.0
 11
3.5908518579000002
 21
12.5867696403
 31
0.0
  0
LINE
  5
1FAE
  8
0
 10
3.5908518579000002
 20
12.630825699800001
 30
0.0
 11
3.5908518579000002
 21
12.6535421787
 31
0.0
  0
LINE
  5
1FAF
  8
0
 10
3.5908518579000002
 20
12.697598238199999
 30
0.0
 11
3.5908518579000002
 21
12.720314717000001
 31
0.0
  0
LINE
  5
1FB0
  8
0
 10
3.5908518579000002
 20
12.7643707765
 30
0.0
 11
3.5908518579000002
 21
12.787087255399999
 31
0.0
  0
LINE
  5
1FB1
  8
0
 10
3.5908518579000002
 20
12.8311433149
 30
0.0
 11
3.5908518579000002
 21
12.8538597937
 31
0.0
  0
LINE
  5
1FB2
  8
0
 10
3.5908518579000002
 20
12.897915853200001
 30
0.0
 11
3.5908518579000002
 21
12.9206323321
 31
0.0
  0
LINE
  5
1FB3
  8
0
 10
3.5908518579000002
 20
12.964688391599999
 30
0.0
 11
3.5908518579000002
 21
12.987404870400001
 31
0.0
  0
LINE
  5
1FB4
  8
0
 10
3.596815316999999
 20
12.9540186012
 30
0.0
 11
3.596815316999999
 21
12.9313021224
 31
0.0
  0
LINE
  5
1FB5
  8
0
 10
3.596815316999999
 20
12.887246062899999
 30
0.0
 11
3.596815316999999
 21
12.864529584
 31
0.0
  0
LINE
  5
1FB6
  8
0
 10
3.596815316999999
 20
12.820473524600001
 30
0.0
 11
3.596815316999999
 21
12.797757045699999
 31
0.0
  0
LINE
  5
1FB7
  8
0
 10
3.596815316999999
 20
12.7537009862
 30
0.0
 11
3.596815316999999
 21
12.730984507300001
 31
0.0
  0
LINE
  5
1FB8
  8
0
 10
3.596815316999999
 20
12.6869284479
 30
0.0
 11
3.596815316999999
 21
12.664211969
 31
0.0
  0
LINE
  5
1FB9
  8
0
 10
3.596815316999999
 20
12.620155909499999
 30
0.0
 11
3.596815316999999
 21
12.5974394307
 31
0.0
  0
LINE
  5
1FBA
  8
0
 10
3.596815316999999
 20
12.553383371200001
 30
0.0
 11
3.596815316999999
 21
12.530666892299999
 31
0.0
  0
LINE
  5
1FBB
  8
0
 10
3.6105368972999998
 20
12.5254471589
 30
0.0
 11
3.6105368972999998
 21
12.531355341399999
 31
0.0
  0
LINE
  5
1FBC
  8
0
 10
3.6105368972999998
 20
12.592219697299999
 30
0.0
 11
3.6105368972999998
 21
12.5981278798
 31
0.0
  0
LINE
  5
1FBD
  8
0
 10
3.6105368972999998
 20
12.6589922356
 30
0.0
 11
3.6105368972999998
 21
12.6649004181
 31
0.0
  0
LINE
  5
1FBE
  8
0
 10
3.6105368972999998
 20
12.725764774
 30
0.0
 11
3.6105368972999998
 21
12.731672956500001
 31
0.0
  0
LINE
  5
1FBF
  8
0
 10
3.6105368972999998
 20
12.7925373123
 30
0.0
 11
3.6105368972999998
 21
12.798445494799999
 31
0.0
  0
LINE
  5
1FC0
  8
0
 10
3.6105368972999998
 20
12.859309850600001
 30
0.0
 11
3.6105368972999998
 21
12.8652180332
 31
0.0
  0
LINE
  5
1FC1
  8
0
 10
3.6105368972999998
 20
12.926082388999999
 30
0.0
 11
3.6105368972999998
 21
12.9319905715
 31
0.0
  0
LINE
  5
1FC2
  8
0
 10
3.6105368972999998
 20
12.9928549273
 30
0.0
 11
3.6105368972999998
 21
12.998763109900001
 31
0.0
  0
LINE
  5
1FC3
  8
0
 10
3.6242584774999989
 20
12.530666892299999
 30
0.0
 11
3.6242584774999989
 21
12.553383371200001
 31
0.0
  0
LINE
  5
1FC4
  8
0
 10
3.6242584774999989
 20
12.5974394307
 30
0.0
 11
3.6242584774999989
 21
12.620155909499999
 31
0.0
  0
LINE
  5
1FC5
  8
0
 10
3.6242584774999989
 20
12.664211969
 30
0.0
 11
3.6242584774999989
 21
12.6869284479
 31
0.0
  0
LINE
  5
1FC6
  8
0
 10
3.6242584774999989
 20
12.730984507300001
 30
0.0
 11
3.6242584774999989
 21
12.7537009862
 31
0.0
  0
LINE
  5
1FC7
  8
0
 10
3.6242584774999989
 20
12.797757045699999
 30
0.0
 11
3.6242584774999989
 21
12.820473524600001
 31
0.0
  0
LINE
  5
1FC8
  8
0
 10
3.6242584774999989
 20
12.864529584
 30
0.0
 11
3.6242584774999989
 21
12.887246062899999
 31
0.0
  0
LINE
  5
1FC9
  8
0
 10
3.6242584774999989
 20
12.9313021224
 30
0.0
 11
3.6242584774999989
 21
12.9540186012
 31
0.0
  0
LINE
  5
1FCA
  8
0
 10
3.630221936599999
 20
12.987404870400001
 30
0.0
 11
3.630221936599999
 21
12.964688391599999
 31
0.0
  0
LINE
  5
1FCB
  8
0
 10
3.630221936599999
 20
12.9206323321
 30
0.0
 11
3.630221936599999
 21
12.897915853200001
 31
0.0
  0
LINE
  5
1FCC
  8
0
 10
3.630221936599999
 20
12.8538597937
 30
0.0
 11
3.630221936599999
 21
12.8311433149
 31
0.0
  0
LINE
  5
1FCD
  8
0
 10
3.630221936599999
 20
12.787087255399999
 30
0.0
 11
3.630221936599999
 21
12.7643707765
 31
0.0
  0
LINE
  5
1FCE
  8
0
 10
3.630221936599999
 20
12.720314717000001
 30
0.0
 11
3.630221936599999
 21
12.697598238199999
 31
0.0
  0
LINE
  5
1FCF
  8
0
 10
3.630221936599999
 20
12.6535421787
 30
0.0
 11
3.630221936599999
 21
12.630825699800001
 31
0.0
  0
LINE
  5
1FD0
  8
0
 10
3.630221936599999
 20
12.5867696403
 30
0.0
 11
3.630221936599999
 21
12.5640531615
 31
0.0
  0
LINE
  5
1FD1
  8
0
 10
3.630221936599999
 20
12.519997102
 30
0.0
 11
3.630221936599999
 21
12.4972806231
 31
0.0
  0
LINE
  5
1FD2
  8
0
 10
3.6439435167999998
 20
12.5588334281
 30
0.0
 11
3.6439435167999998
 21
12.5647416106
 31
0.0
  0
LINE
  5
1FD3
  8
0
 10
3.6439435167999998
 20
12.6256059664
 30
0.0
 11
3.6439435167999998
 21
12.631514148899999
 31
0.0
  0
LINE
  5
1FD4
  8
0
 10
3.6439435167999998
 20
12.692378504800001
 30
0.0
 11
3.6439435167999998
 21
12.6982866873
 31
0.0
  0
LINE
  5
1FD5
  8
0
 10
3.6439435167999998
 20
12.759151043099999
 30
0.0
 11
3.6439435167999998
 21
12.7650592256
 31
0.0
  0
LINE
  5
1FD6
  8
0
 10
3.6439435167999998
 20
12.8259235815
 30
0.0
 11
3.6439435167999998
 21
12.831831764
 31
0.0
  0
LINE
  5
1FD7
  8
0
 10
3.6439435167999998
 20
12.8926961198
 30
0.0
 11
3.6439435167999998
 21
12.898604302300001
 31
0.0
  0
LINE
  5
1FD8
  8
0
 10
3.6439435167999998
 20
12.9594686582
 30
0.0
 11
3.6439435167999998
 21
12.965376840699999
 31
0.0
  0
LINE
  5
1FD9
  8
0
 10
3.6576650969999989
 20
12.4972806231
 30
0.0
 11
3.6576650969999989
 21
12.519997102
 31
0.0
  0
LINE
  5
1FDA
  8
0
 10
3.6576650969999989
 20
12.5640531615
 30
0.0
 11
3.6576650969999989
 21
12.5867696403
 31
0.0
  0
LINE
  5
1FDB
  8
0
 10
3.6576650969999989
 20
12.630825699800001
 30
0.0
 11
3.6576650969999989
 21
12.6535421787
 31
0.0
  0
LINE
  5
1FDC
  8
0
 10
3.6576650969999989
 20
12.697598238199999
 30
0.0
 11
3.6576650969999989
 21
12.720314717000001
 31
0.0
  0
LINE
  5
1FDD
  8
0
 10
3.6576650969999989
 20
12.7643707765
 30
0.0
 11
3.6576650969999989
 21
12.787087255399999
 31
0.0
  0
LINE
  5
1FDE
  8
0
 10
3.6576650969999989
 20
12.8311433149
 30
0.0
 11
3.6576650969999989
 21
12.8538597937
 31
0.0
  0
LINE
  5
1FDF
  8
0
 10
3.6576650969999989
 20
12.897915853200001
 30
0.0
 11
3.6576650969999989
 21
12.9206323321
 31
0.0
  0
LINE
  5
1FE0
  8
0
 10
3.6576650969999989
 20
12.964688391599999
 30
0.0
 11
3.6576650969999989
 21
12.987404870400001
 31
0.0
  0
LINE
  5
1FE1
  8
0
 10
3.6636285561999991
 20
12.9540186012
 30
0.0
 11
3.6636285561999991
 21
12.9313021224
 31
0.0
  0
LINE
  5
1FE2
  8
0
 10
3.6636285561999991
 20
12.887246062899999
 30
0.0
 11
3.6636285561999991
 21
12.864529584
 31
0.0
  0
LINE
  5
1FE3
  8
0
 10
3.6636285561999991
 20
12.820473524600001
 30
0.0
 11
3.6636285561999991
 21
12.797757045699999
 31
0.0
  0
LINE
  5
1FE4
  8
0
 10
3.6636285561999991
 20
12.7537009862
 30
0.0
 11
3.6636285561999991
 21
12.730984507300001
 31
0.0
  0
LINE
  5
1FE5
  8
0
 10
3.6636285561999991
 20
12.6869284479
 30
0.0
 11
3.6636285561999991
 21
12.664211969
 31
0.0
  0
LINE
  5
1FE6
  8
0
 10
3.6636285561999991
 20
12.620155909499999
 30
0.0
 11
3.6636285561999991
 21
12.5974394307
 31
0.0
  0
LINE
  5
1FE7
  8
0
 10
3.6636285561999991
 20
12.553383371200001
 30
0.0
 11
3.6636285561999991
 21
12.530666892299999
 31
0.0
  0
LINE
  5
1FE8
  8
0
 10
3.677350136399999
 20
12.5254471589
 30
0.0
 11
3.677350136399999
 21
12.531355341399999
 31
0.0
  0
LINE
  5
1FE9
  8
0
 10
3.677350136399999
 20
12.592219697299999
 30
0.0
 11
3.677350136399999
 21
12.5981278798
 31
0.0
  0
LINE
  5
1FEA
  8
0
 10
3.677350136399999
 20
12.6589922356
 30
0.0
 11
3.677350136399999
 21
12.6649004181
 31
0.0
  0
LINE
  5
1FEB
  8
0
 10
3.677350136399999
 20
12.725764774
 30
0.0
 11
3.677350136399999
 21
12.731672956500001
 31
0.0
  0
LINE
  5
1FEC
  8
0
 10
3.677350136399999
 20
12.7925373123
 30
0.0
 11
3.677350136399999
 21
12.798445494799999
 31
0.0
  0
LINE
  5
1FED
  8
0
 10
3.677350136399999
 20
12.859309850600001
 30
0.0
 11
3.677350136399999
 21
12.8652180332
 31
0.0
  0
LINE
  5
1FEE
  8
0
 10
3.677350136399999
 20
12.926082388999999
 30
0.0
 11
3.677350136399999
 21
12.9319905715
 31
0.0
  0
LINE
  5
1FEF
  8
0
 10
3.677350136399999
 20
12.9928549273
 30
0.0
 11
3.677350136399999
 21
12.998763109900001
 31
0.0
  0
LINE
  5
1FF0
  8
0
 10
3.6910717165999989
 20
12.463894354000001
 30
0.0
 11
3.6910717165999989
 21
12.4866108328
 31
0.0
  0
LINE
  5
1FF1
  8
0
 10
3.6910717165999989
 20
12.530666892299999
 30
0.0
 11
3.6910717165999989
 21
12.553383371200001
 31
0.0
  0
LINE
  5
1FF2
  8
0
 10
3.6910717165999989
 20
12.5974394307
 30
0.0
 11
3.6910717165999989
 21
12.620155909499999
 31
0.0
  0
LINE
  5
1FF3
  8
0
 10
3.6910717165999989
 20
12.664211969
 30
0.0
 11
3.6910717165999989
 21
12.6869284479
 31
0.0
  0
LINE
  5
1FF4
  8
0
 10
3.6910717165999989
 20
12.730984507300001
 30
0.0
 11
3.6910717165999989
 21
12.7537009862
 31
0.0
  0
LINE
  5
1FF5
  8
0
 10
3.6910717165999989
 20
12.797757045699999
 30
0.0
 11
3.6910717165999989
 21
12.820473524600001
 31
0.0
  0
LINE
  5
1FF6
  8
0
 10
3.6910717165999989
 20
12.864529584
 30
0.0
 11
3.6910717165999989
 21
12.887246062899999
 31
0.0
  0
LINE
  5
1FF7
  8
0
 10
3.6910717165999989
 20
12.9313021224
 30
0.0
 11
3.6910717165999989
 21
12.9540186012
 31
0.0
  0
LINE
  5
1FF8
  8
0
 10
3.6910717165999989
 20
12.9980746607
 30
0.0
 11
3.6910717165999989
 21
13.0207911396
 31
0.0
  0
LINE
  5
1FF9
  8
0
 10
3.6970351757999991
 20
12.987404870400001
 30
0.0
 11
3.6970351757999991
 21
12.964688391599999
 31
0.0
  0
LINE
  5
1FFA
  8
0
 10
3.6970351757999991
 20
12.9206323321
 30
0.0
 11
3.6970351757999991
 21
12.897915853200001
 31
0.0
  0
LINE
  5
1FFB
  8
0
 10
3.6970351757999991
 20
12.8538597937
 30
0.0
 11
3.6970351757999991
 21
12.8311433149
 31
0.0
  0
LINE
  5
1FFC
  8
0
 10
3.6970351757999991
 20
12.787087255399999
 30
0.0
 11
3.6970351757999991
 21
12.7643707765
 31
0.0
  0
LINE
  5
1FFD
  8
0
 10
3.6970351757999991
 20
12.720314717000001
 30
0.0
 11
3.6970351757999991
 21
12.697598238199999
 31
0.0
  0
LINE
  5
1FFE
  8
0
 10
3.6970351757999991
 20
12.6535421787
 30
0.0
 11
3.6970351757999991
 21
12.630825699800001
 31
0.0
  0
LINE
  5
1FFF
  8
0
 10
3.6970351757999991
 20
12.5867696403
 30
0.0
 11
3.6970351757999991
 21
12.5640531615
 31
0.0
  0
LINE
  5
2000
  8
0
 10
3.6970351757999991
 20
12.519997102
 30
0.0
 11
3.6970351757999991
 21
12.4972806231
 31
0.0
  0
LINE
  5
2001
  8
0
 10
3.7107567559999999
 20
12.492060889699999
 30
0.0
 11
3.7107567559999999
 21
12.4979690722
 31
0.0
  0
LINE
  5
2002
  8
0
 10
3.7107567559999999
 20
12.5588334281
 30
0.0
 11
3.7107567559999999
 21
12.5647416106
 31
0.0
  0
LINE
  5
2003
  8
0
 10
3.7107567559999999
 20
12.6256059664
 30
0.0
 11
3.7107567559999999
 21
12.631514148899999
 31
0.0
  0
LINE
  5
2004
  8
0
 10
3.7107567559999999
 20
12.692378504800001
 30
0.0
 11
3.7107567559999999
 21
12.6982866873
 31
0.0
  0
LINE
  5
2005
  8
0
 10
3.7107567559999999
 20
12.759151043099999
 30
0.0
 11
3.7107567559999999
 21
12.7650592256
 31
0.0
  0
LINE
  5
2006
  8
0
 10
3.7107567559999999
 20
12.8259235815
 30
0.0
 11
3.7107567559999999
 21
12.831831764
 31
0.0
  0
LINE
  5
2007
  8
0
 10
3.7107567559999999
 20
12.8926961198
 30
0.0
 11
3.7107567559999999
 21
12.898604302300001
 31
0.0
  0
LINE
  5
2008
  8
0
 10
3.7107567559999999
 20
12.9594686582
 30
0.0
 11
3.7107567559999999
 21
12.965376840699999
 31
0.0
  0
LINE
  5
2009
  8
0
 10
3.7107567559999999
 20
13.026241196499999
 30
0.0
 11
3.7107567559999999
 21
13.032149379
 31
0.0
  0
LINE
  5
200A
  8
0
 10
3.7244783361999998
 20
12.4972806231
 30
0.0
 11
3.7244783361999998
 21
12.519997102
 31
0.0
  0
LINE
  5
200B
  8
0
 10
3.7244783361999998
 20
12.5640531615
 30
0.0
 11
3.7244783361999998
 21
12.5867696403
 31
0.0
  0
LINE
  5
200C
  8
0
 10
3.7244783361999998
 20
12.630825699800001
 30
0.0
 11
3.7244783361999998
 21
12.6535421787
 31
0.0
  0
LINE
  5
200D
  8
0
 10
3.7244783361999998
 20
12.697598238199999
 30
0.0
 11
3.7244783361999998
 21
12.720314717000001
 31
0.0
  0
LINE
  5
200E
  8
0
 10
3.7244783361999998
 20
12.7643707765
 30
0.0
 11
3.7244783361999998
 21
12.787087255399999
 31
0.0
  0
LINE
  5
200F
  8
0
 10
3.7244783361999998
 20
12.8311433149
 30
0.0
 11
3.7244783361999998
 21
12.8538597937
 31
0.0
  0
LINE
  5
2010
  8
0
 10
3.7244783361999998
 20
12.897915853200001
 30
0.0
 11
3.7244783361999998
 21
12.9206323321
 31
0.0
  0
LINE
  5
2011
  8
0
 10
3.7244783361999998
 20
12.964688391599999
 30
0.0
 11
3.7244783361999998
 21
12.987404870400001
 31
0.0
  0
LINE
  5
2012
  8
0
 10
3.7304417954
 20
13.0207911396
 30
0.0
 11
3.7304417954
 21
12.9980746607
 31
0.0
  0
LINE
  5
2013
  8
0
 10
3.7304417954
 20
12.9540186012
 30
0.0
 11
3.7304417954
 21
12.9313021224
 31
0.0
  0
LINE
  5
2014
  8
0
 10
3.7304417954
 20
12.887246062899999
 30
0.0
 11
3.7304417954
 21
12.864529584
 31
0.0
  0
LINE
  5
2015
  8
0
 10
3.7304417954
 20
12.820473524600001
 30
0.0
 11
3.7304417954
 21
12.797757045699999
 31
0.0
  0
LINE
  5
2016
  8
0
 10
3.7304417954
 20
12.7537009862
 30
0.0
 11
3.7304417954
 21
12.730984507300001
 31
0.0
  0
LINE
  5
2017
  8
0
 10
3.7304417954
 20
12.6869284479
 30
0.0
 11
3.7304417954
 21
12.664211969
 31
0.0
  0
LINE
  5
2018
  8
0
 10
3.7304417954
 20
12.620155909499999
 30
0.0
 11
3.7304417954
 21
12.5974394307
 31
0.0
  0
LINE
  5
2019
  8
0
 10
3.7304417954
 20
12.553383371200001
 30
0.0
 11
3.7304417954
 21
12.530666892299999
 31
0.0
  0
LINE
  5
201A
  8
0
 10
3.7304417954
 20
12.4866108328
 30
0.0
 11
3.7304417954
 21
12.463894354000001
 31
0.0
  0
LINE
  5
201B
  8
0
 10
3.744163375599999
 20
12.5254471589
 30
0.0
 11
3.744163375599999
 21
12.531355341399999
 31
0.0
  0
LINE
  5
201C
  8
0
 10
3.744163375599999
 20
12.592219697299999
 30
0.0
 11
3.744163375599999
 21
12.5981278798
 31
0.0
  0
LINE
  5
201D
  8
0
 10
3.744163375599999
 20
12.6589922356
 30
0.0
 11
3.744163375599999
 21
12.6649004181
 31
0.0
  0
LINE
  5
201E
  8
0
 10
3.744163375599999
 20
12.725764774
 30
0.0
 11
3.744163375599999
 21
12.731672956500001
 31
0.0
  0
LINE
  5
201F
  8
0
 10
3.744163375599999
 20
12.7925373123
 30
0.0
 11
3.744163375599999
 21
12.798445494799999
 31
0.0
  0
LINE
  5
2020
  8
0
 10
3.744163375599999
 20
12.859309850600001
 30
0.0
 11
3.744163375599999
 21
12.8652180332
 31
0.0
  0
LINE
  5
2021
  8
0
 10
3.744163375599999
 20
12.926082388999999
 30
0.0
 11
3.744163375599999
 21
12.9319905715
 31
0.0
  0
LINE
  5
2022
  8
0
 10
3.744163375599999
 20
12.9928549273
 30
0.0
 11
3.744163375599999
 21
12.998763109900001
 31
0.0
  0
LINE
  5
2023
  8
0
 10
3.7578849557999989
 20
12.530666892299999
 30
0.0
 11
3.7578849557999989
 21
12.553383371200001
 31
0.0
  0
LINE
  5
2024
  8
0
 10
3.7578849557999989
 20
12.5974394307
 30
0.0
 11
3.7578849557999989
 21
12.620155909499999
 31
0.0
  0
LINE
  5
2025
  8
0
 10
3.7578849557999989
 20
12.664211969
 30
0.0
 11
3.7578849557999989
 21
12.6869284479
 31
0.0
  0
LINE
  5
2026
  8
0
 10
3.7578849557999989
 20
12.730984507300001
 30
0.0
 11
3.7578849557999989
 21
12.7537009862
 31
0.0
  0
LINE
  5
2027
  8
0
 10
3.7578849557999989
 20
12.797757045699999
 30
0.0
 11
3.7578849557999989
 21
12.820473524600001
 31
0.0
  0
LINE
  5
2028
  8
0
 10
3.7578849557999989
 20
12.864529584
 30
0.0
 11
3.7578849557999989
 21
12.887246062899999
 31
0.0
  0
LINE
  5
2029
  8
0
 10
3.7578849557999989
 20
12.9313021224
 30
0.0
 11
3.7578849557999989
 21
12.9540186012
 31
0.0
  0
LINE
  5
202A
  8
0
 10
3.763848415
 20
12.987404870400001
 30
0.0
 11
3.763848415
 21
12.964688391599999
 31
0.0
  0
LINE
  5
202B
  8
0
 10
3.763848415
 20
12.9206323321
 30
0.0
 11
3.763848415
 21
12.897915853200001
 31
0.0
  0
LINE
  5
202C
  8
0
 10
3.763848415
 20
12.8538597937
 30
0.0
 11
3.763848415
 21
12.8311433149
 31
0.0
  0
LINE
  5
202D
  8
0
 10
3.763848415
 20
12.787087255399999
 30
0.0
 11
3.763848415
 21
12.7643707765
 31
0.0
  0
LINE
  5
202E
  8
0
 10
3.763848415
 20
12.720314717000001
 30
0.0
 11
3.763848415
 21
12.697598238199999
 31
0.0
  0
LINE
  5
202F
  8
0
 10
3.763848415
 20
12.6535421787
 30
0.0
 11
3.763848415
 21
12.630825699800001
 31
0.0
  0
LINE
  5
2030
  8
0
 10
3.763848415
 20
12.5867696403
 30
0.0
 11
3.763848415
 21
12.5640531615
 31
0.0
  0
LINE
  5
2031
  8
0
 10
3.763848415
 20
12.519997102
 30
0.0
 11
3.763848415
 21
12.4972806231
 31
0.0
  0
LINE
  5
2032
  8
0
 10
3.7775699951999999
 20
12.5588334281
 30
0.0
 11
3.7775699951999999
 21
12.5647416106
 31
0.0
  0
LINE
  5
2033
  8
0
 10
3.7775699951999999
 20
12.6256059664
 30
0.0
 11
3.7775699951999999
 21
12.631514148899999
 31
0.0
  0
LINE
  5
2034
  8
0
 10
3.7775699951999999
 20
12.692378504800001
 30
0.0
 11
3.7775699951999999
 21
12.6982866873
 31
0.0
  0
LINE
  5
2035
  8
0
 10
3.7775699951999999
 20
12.759151043099999
 30
0.0
 11
3.7775699951999999
 21
12.7650592256
 31
0.0
  0
LINE
  5
2036
  8
0
 10
3.7775699951999999
 20
12.8259235815
 30
0.0
 11
3.7775699951999999
 21
12.831831764
 31
0.0
  0
LINE
  5
2037
  8
0
 10
3.7775699951999999
 20
12.8926961198
 30
0.0
 11
3.7775699951999999
 21
12.898604302300001
 31
0.0
  0
LINE
  5
2038
  8
0
 10
3.7775699951999999
 20
12.9594686582
 30
0.0
 11
3.7775699951999999
 21
12.965376840699999
 31
0.0
  0
LINE
  5
2039
  8
0
 10
3.7912915753999998
 20
12.4972806231
 30
0.0
 11
3.7912915753999998
 21
12.519997102
 31
0.0
  0
LINE
  5
203A
  8
0
 10
3.7912915753999998
 20
12.5640531615
 30
0.0
 11
3.7912915753999998
 21
12.5867696403
 31
0.0
  0
LINE
  5
203B
  8
0
 10
3.7912915753999998
 20
12.630825699800001
 30
0.0
 11
3.7912915753999998
 21
12.6535421787
 31
0.0
  0
LINE
  5
203C
  8
0
 10
3.7912915753999998
 20
12.697598238199999
 30
0.0
 11
3.7912915753999998
 21
12.720314717000001
 31
0.0
  0
LINE
  5
203D
  8
0
 10
3.7912915753999998
 20
12.7643707765
 30
0.0
 11
3.7912915753999998
 21
12.787087255399999
 31
0.0
  0
LINE
  5
203E
  8
0
 10
3.7912915753999998
 20
12.8311433149
 30
0.0
 11
3.7912915753999998
 21
12.8538597937
 31
0.0
  0
LINE
  5
203F
  8
0
 10
3.7912915753999998
 20
12.897915853200001
 30
0.0
 11
3.7912915753999998
 21
12.9206323321
 31
0.0
  0
LINE
  5
2040
  8
0
 10
3.7912915753999998
 20
12.964688391599999
 30
0.0
 11
3.7912915753999998
 21
12.987404870400001
 31
0.0
  0
LINE
  5
2041
  8
0
 10
3.7972550345
 20
12.9540186012
 30
0.0
 11
3.7972550345
 21
12.9313021224
 31
0.0
  0
LINE
  5
2042
  8
0
 10
3.7972550345
 20
12.887246062899999
 30
0.0
 11
3.7972550345
 21
12.864529584
 31
0.0
  0
LINE
  5
2043
  8
0
 10
3.7972550345
 20
12.820473524600001
 30
0.0
 11
3.7972550345
 21
12.797757045699999
 31
0.0
  0
LINE
  5
2044
  8
0
 10
3.7972550345
 20
12.7537009862
 30
0.0
 11
3.7972550345
 21
12.730984507300001
 31
0.0
  0
LINE
  5
2045
  8
0
 10
3.7972550345
 20
12.6869284479
 30
0.0
 11
3.7972550345
 21
12.664211969
 31
0.0
  0
LINE
  5
2046
  8
0
 10
3.7972550345
 20
12.620155909499999
 30
0.0
 11
3.7972550345
 21
12.5974394307
 31
0.0
  0
LINE
  5
2047
  8
0
 10
3.7972550345
 20
12.553383371200001
 30
0.0
 11
3.7972550345
 21
12.530666892299999
 31
0.0
  0
LINE
  5
2048
  8
0
 10
3.8109766147999999
 20
12.5254471589
 30
0.0
 11
3.8109766147999999
 21
12.531355341399999
 31
0.0
  0
LINE
  5
2049
  8
0
 10
3.8109766147999999
 20
12.592219697299999
 30
0.0
 11
3.8109766147999999
 21
12.5981278798
 31
0.0
  0
LINE
  5
204A
  8
0
 10
3.8109766147999999
 20
12.6589922356
 30
0.0
 11
3.8109766147999999
 21
12.6649004181
 31
0.0
  0
LINE
  5
204B
  8
0
 10
3.8109766147999999
 20
12.725764774
 30
0.0
 11
3.8109766147999999
 21
12.731672956500001
 31
0.0
  0
LINE
  5
204C
  8
0
 10
3.8109766147999999
 20
12.7925373123
 30
0.0
 11
3.8109766147999999
 21
12.798445494799999
 31
0.0
  0
LINE
  5
204D
  8
0
 10
3.8109766147999999
 20
12.859309850600001
 30
0.0
 11
3.8109766147999999
 21
12.8652180332
 31
0.0
  0
LINE
  5
204E
  8
0
 10
3.8109766147999999
 20
12.926082388999999
 30
0.0
 11
3.8109766147999999
 21
12.9319905715
 31
0.0
  0
LINE
  5
204F
  8
0
 10
3.8109766147999999
 20
12.9928549273
 30
0.0
 11
3.8109766147999999
 21
12.998763109900001
 31
0.0
  0
LINE
  5
2050
  8
0
 10
3.824698194999999
 20
12.530666892299999
 30
0.0
 11
3.824698194999999
 21
12.553383371200001
 31
0.0
  0
LINE
  5
2051
  8
0
 10
3.824698194999999
 20
12.5974394307
 30
0.0
 11
3.824698194999999
 21
12.620155909499999
 31
0.0
  0
LINE
  5
2052
  8
0
 10
3.824698194999999
 20
12.664211969
 30
0.0
 11
3.824698194999999
 21
12.6869284479
 31
0.0
  0
LINE
  5
2053
  8
0
 10
3.824698194999999
 20
12.730984507300001
 30
0.0
 11
3.824698194999999
 21
12.7537009862
 31
0.0
  0
LINE
  5
2054
  8
0
 10
3.824698194999999
 20
12.797757045699999
 30
0.0
 11
3.824698194999999
 21
12.820473524600001
 31
0.0
  0
LINE
  5
2055
  8
0
 10
3.824698194999999
 20
12.864529584
 30
0.0
 11
3.824698194999999
 21
12.887246062899999
 31
0.0
  0
LINE
  5
2056
  8
0
 10
3.824698194999999
 20
12.9313021224
 30
0.0
 11
3.824698194999999
 21
12.9540186012
 31
0.0
  0
LINE
  5
2057
  8
0
 10
3.8306616541
 20
12.987404870400001
 30
0.0
 11
3.8306616541
 21
12.964688391599999
 31
0.0
  0
LINE
  5
2058
  8
0
 10
3.8306616541
 20
12.9206323321
 30
0.0
 11
3.8306616541
 21
12.897915853200001
 31
0.0
  0
LINE
  5
2059
  8
0
 10
3.8306616541
 20
12.8538597937
 30
0.0
 11
3.8306616541
 21
12.8311433149
 31
0.0
  0
LINE
  5
205A
  8
0
 10
3.8306616541
 20
12.787087255399999
 30
0.0
 11
3.8306616541
 21
12.7643707765
 31
0.0
  0
LINE
  5
205B
  8
0
 10
3.8306616541
 20
12.720314717000001
 30
0.0
 11
3.8306616541
 21
12.697598238199999
 31
0.0
  0
LINE
  5
205C
  8
0
 10
3.8306616541
 20
12.6535421787
 30
0.0
 11
3.8306616541
 21
12.630825699800001
 31
0.0
  0
LINE
  5
205D
  8
0
 10
3.8306616541
 20
12.5867696403
 30
0.0
 11
3.8306616541
 21
12.5640531615
 31
0.0
  0
LINE
  5
205E
  8
0
 10
3.8306616541
 20
12.519997102
 30
0.0
 11
3.8306616541
 21
12.4972806231
 31
0.0
  0
LINE
  5
205F
  8
0
 10
3.8443832343
 20
12.5588334281
 30
0.0
 11
3.8443832343
 21
12.5647416106
 31
0.0
  0
LINE
  5
2060
  8
0
 10
3.8443832343
 20
12.6256059664
 30
0.0
 11
3.8443832343
 21
12.631514148899999
 31
0.0
  0
LINE
  5
2061
  8
0
 10
3.8443832343
 20
12.692378504800001
 30
0.0
 11
3.8443832343
 21
12.6982866873
 31
0.0
  0
LINE
  5
2062
  8
0
 10
3.8443832343
 20
12.759151043099999
 30
0.0
 11
3.8443832343
 21
12.7650592256
 31
0.0
  0
LINE
  5
2063
  8
0
 10
3.8443832343
 20
12.8259235815
 30
0.0
 11
3.8443832343
 21
12.831831764
 31
0.0
  0
LINE
  5
2064
  8
0
 10
3.8443832343
 20
12.8926961198
 30
0.0
 11
3.8443832343
 21
12.898604302300001
 31
0.0
  0
LINE
  5
2065
  8
0
 10
3.8443832343
 20
12.9594686582
 30
0.0
 11
3.8443832343
 21
12.965376840699999
 31
0.0
  0
LINE
  5
2066
  8
0
 10
3.858104814499999
 20
12.5640531615
 30
0.0
 11
3.858104814499999
 21
12.5867696403
 31
0.0
  0
LINE
  5
2067
  8
0
 10
3.858104814499999
 20
12.630825699800001
 30
0.0
 11
3.858104814499999
 21
12.6535421787
 31
0.0
  0
LINE
  5
2068
  8
0
 10
3.858104814499999
 20
12.697598238199999
 30
0.0
 11
3.858104814499999
 21
12.720314717000001
 31
0.0
  0
LINE
  5
2069
  8
0
 10
3.858104814499999
 20
12.7643707765
 30
0.0
 11
3.858104814499999
 21
12.787087255399999
 31
0.0
  0
LINE
  5
206A
  8
0
 10
3.858104814499999
 20
12.8311433149
 30
0.0
 11
3.858104814499999
 21
12.8538597937
 31
0.0
  0
LINE
  5
206B
  8
0
 10
3.858104814499999
 20
12.897915853200001
 30
0.0
 11
3.858104814499999
 21
12.9206323321
 31
0.0
  0
LINE
  5
206C
  8
0
 10
3.8640682737000001
 20
12.9540186012
 30
0.0
 11
3.8640682737000001
 21
12.9313021224
 31
0.0
  0
LINE
  5
206D
  8
0
 10
3.8640682737000001
 20
12.887246062899999
 30
0.0
 11
3.8640682737000001
 21
12.864529584
 31
0.0
  0
LINE
  5
206E
  8
0
 10
3.8640682737000001
 20
12.820473524600001
 30
0.0
 11
3.8640682737000001
 21
12.797757045699999
 31
0.0
  0
LINE
  5
206F
  8
0
 10
3.8640682737000001
 20
12.7537009862
 30
0.0
 11
3.8640682737000001
 21
12.730984507300001
 31
0.0
  0
LINE
  5
2070
  8
0
 10
3.8640682737000001
 20
12.6869284479
 30
0.0
 11
3.8640682737000001
 21
12.664211969
 31
0.0
  0
LINE
  5
2071
  8
0
 10
3.8640682737000001
 20
12.620155909499999
 30
0.0
 11
3.8640682737000001
 21
12.5974394307
 31
0.0
  0
LINE
  5
2072
  8
0
 10
3.8640682737000001
 20
12.553383371200001
 30
0.0
 11
3.8640682737000001
 21
12.530666892299999
 31
0.0
  0
LINE
  5
2073
  8
0
 10
3.8777898538999991
 20
12.592219697299999
 30
0.0
 11
3.8777898538999991
 21
12.5981278798
 31
0.0
  0
LINE
  5
2074
  8
0
 10
3.8777898538999991
 20
12.6589922356
 30
0.0
 11
3.8777898538999991
 21
12.6649004181
 31
0.0
  0
LINE
  5
2075
  8
0
 10
3.8777898538999991
 20
12.725764774
 30
0.0
 11
3.8777898538999991
 21
12.731672956500001
 31
0.0
  0
LINE
  5
2076
  8
0
 10
3.8777898538999991
 20
12.7925373123
 30
0.0
 11
3.8777898538999991
 21
12.798445494799999
 31
0.0
  0
LINE
  5
2077
  8
0
 10
3.8777898538999991
 20
12.859309850600001
 30
0.0
 11
3.8777898538999991
 21
12.8652180332
 31
0.0
  0
LINE
  5
2078
  8
0
 10
3.8777898538999991
 20
12.926082388999999
 30
0.0
 11
3.8777898538999991
 21
12.9319905715
 31
0.0
  0
LINE
  5
2079
  8
0
 10
3.891511434099999
 20
12.5974394307
 30
0.0
 11
3.891511434099999
 21
12.620155909499999
 31
0.0
  0
LINE
  5
207A
  8
0
 10
3.891511434099999
 20
12.664211969
 30
0.0
 11
3.891511434099999
 21
12.6869284479
 31
0.0
  0
LINE
  5
207B
  8
0
 10
3.891511434099999
 20
12.730984507300001
 30
0.0
 11
3.891511434099999
 21
12.7537009862
 31
0.0
  0
LINE
  5
207C
  8
0
 10
3.891511434099999
 20
12.797757045699999
 30
0.0
 11
3.891511434099999
 21
12.820473524600001
 31
0.0
  0
LINE
  5
207D
  8
0
 10
3.891511434099999
 20
12.864529584
 30
0.0
 11
3.891511434099999
 21
12.887246062899999
 31
0.0
  0
LINE
  5
207E
  8
0
 10
3.8974748933000001
 20
12.9206323321
 30
0.0
 11
3.8974748933000001
 21
12.897915853200001
 31
0.0
  0
LINE
  5
207F
  8
0
 10
3.8974748933000001
 20
12.8538597937
 30
0.0
 11
3.8974748933000001
 21
12.8311433149
 31
0.0
  0
LINE
  5
2080
  8
0
 10
3.8974748933000001
 20
12.787087255399999
 30
0.0
 11
3.8974748933000001
 21
12.7643707765
 31
0.0
  0
LINE
  5
2081
  8
0
 10
3.8974748933000001
 20
12.720314717000001
 30
0.0
 11
3.8974748933000001
 21
12.697598238199999
 31
0.0
  0
LINE
  5
2082
  8
0
 10
3.8974748933000001
 20
12.6535421787
 30
0.0
 11
3.8974748933000001
 21
12.630825699800001
 31
0.0
  0
LINE
  5
2083
  8
0
 10
3.8974748933000001
 20
12.5867696403
 30
0.0
 11
3.8974748933000001
 21
12.5640531615
 31
0.0
  0
LINE
  5
2084
  8
0
 10
3.9111964735
 20
12.6256059664
 30
0.0
 11
3.9111964735
 21
12.631514148899999
 31
0.0
  0
LINE
  5
2085
  8
0
 10
3.9111964735
 20
12.692378504800001
 30
0.0
 11
3.9111964735
 21
12.6982866873
 31
0.0
  0
LINE
  5
2086
  8
0
 10
3.9111964735
 20
12.759151043099999
 30
0.0
 11
3.9111964735
 21
12.7650592256
 31
0.0
  0
LINE
  5
2087
  8
0
 10
3.9111964735
 20
12.8259235815
 30
0.0
 11
3.9111964735
 21
12.831831764
 31
0.0
  0
LINE
  5
2088
  8
0
 10
3.9111964735
 20
12.8926961198
 30
0.0
 11
3.9111964735
 21
12.898604302300001
 31
0.0
  0
LINE
  5
2089
  8
0
 10
3.924918053699999
 20
12.630825699800001
 30
0.0
 11
3.924918053699999
 21
12.6535421787
 31
0.0
  0
LINE
  5
208A
  8
0
 10
3.924918053699999
 20
12.697598238199999
 30
0.0
 11
3.924918053699999
 21
12.720314717000001
 31
0.0
  0
LINE
  5
208B
  8
0
 10
3.924918053699999
 20
12.7643707765
 30
0.0
 11
3.924918053699999
 21
12.787087255399999
 31
0.0
  0
LINE
  5
208C
  8
0
 10
3.924918053699999
 20
12.8311433149
 30
0.0
 11
3.924918053699999
 21
12.8538597937
 31
0.0
  0
LINE
  5
208D
  8
0
 10
3.9308815129000001
 20
12.887246062899999
 30
0.0
 11
3.9308815129000001
 21
12.864529584
 31
0.0
  0
LINE
  5
208E
  8
0
 10
3.9308815129000001
 20
12.820473524600001
 30
0.0
 11
3.9308815129000001
 21
12.797757045699999
 31
0.0
  0
LINE
  5
208F
  8
0
 10
3.9308815129000001
 20
12.7537009862
 30
0.0
 11
3.9308815129000001
 21
12.730984507300001
 31
0.0
  0
LINE
  5
2090
  8
0
 10
3.9308815129000001
 20
12.6869284479
 30
0.0
 11
3.9308815129000001
 21
12.664211969
 31
0.0
  0
LINE
  5
2091
  8
0
 10
3.9308815129000001
 20
12.620155909499999
 30
0.0
 11
3.9308815129000001
 21
12.5974394307
 31
0.0
  0
LINE
  5
2092
  8
0
 10
3.9446030930999991
 20
12.6589922356
 30
0.0
 11
3.9446030930999991
 21
12.6649004181
 31
0.0
  0
LINE
  5
2093
  8
0
 10
3.9446030930999991
 20
12.725764774
 30
0.0
 11
3.9446030930999991
 21
12.731672956500001
 31
0.0
  0
LINE
  5
2094
  8
0
 10
3.9446030930999991
 20
12.7925373123
 30
0.0
 11
3.9446030930999991
 21
12.798445494799999
 31
0.0
  0
LINE
  5
2095
  8
0
 10
3.9446030930999991
 20
12.859309850600001
 30
0.0
 11
3.9446030930999991
 21
12.8652180332
 31
0.0
  0
LINE
  5
2096
  8
0
 10
3.958324673299999
 20
12.730984507300001
 30
0.0
 11
3.958324673299999
 21
12.7537009862
 31
0.0
  0
LINE
  5
2097
  8
0
 10
3.9642881325000001
 20
12.8538597937
 30
0.0
 11
3.9642881325000001
 21
12.8311433149
 31
0.0
  0
LINE
  5
2098
  8
0
 10
3.9642881325000001
 20
12.787087255399999
 30
0.0
 11
3.9642881325000001
 21
12.7643707765
 31
0.0
  0
LINE
  5
2099
  8
0
 10
3.9642881325000001
 20
12.720314717000001
 30
0.0
 11
3.9642881325000001
 21
12.697598238199999
 31
0.0
  0
LINE
  5
209A
  8
0
 10
3.9642881325000001
 20
12.6535421787
 30
0.0
 11
3.9642881325000001
 21
12.630825699800001
 31
0.0
  0
LINE
  5
209B
  8
0
 10
3.9780097126999991
 20
12.759151043099999
 30
0.0
 11
3.9780097126999991
 21
12.7650592256
 31
0.0
  0
LINE
  5
209C
  8
0
 10
3.9976947519999988
 20
12.7537009862
 30
0.0
 11
3.9976947519999988
 21
12.730984507300001
 31
0.0
  0
LINE
  5
209D
  8
0
 10
3.5908518579000002
 20
12.4972806231
 30
0.0
 11
3.6105368972999998
 21
12.4859223837
 31
0.0
  0
LINE
  5
209E
  8
0
 10
3.5574452382999988
 20
12.530666892299999
 30
0.0
 11
3.5771302776999998
 21
12.5193086529
 31
0.0
  0
LINE
  5
209F
  8
0
 10
3.6910717165999989
 20
12.463894354000001
 30
0.0
 11
3.7107567559999999
 21
12.452536114500001
 31
0.0
  0
LINE
  5
20A0
  8
0
 10
3.5240386187000001
 20
12.5640531615
 30
0.0
 11
3.5437236580999998
 21
12.552694922100001
 31
0.0
  0
LINE
  5
20A1
  8
0
 10
3.6576650969999989
 20
12.4972806231
 30
0.0
 11
3.677350136399999
 21
12.4859223837
 31
0.0
  0
LINE
  5
20A2
  8
0
 10
3.6105368972999998
 20
12.5254471589
 30
0.0
 11
3.630221936599999
 21
12.514088919500001
 31
0.0
  0
LINE
  5
20A3
  8
0
 10
3.630221936599999
 20
12.519997102
 30
0.0
 11
3.6105368972999998
 21
12.531355341399999
 31
0.0
  0
LINE
  5
20A4
  8
0
 10
3.6242584774999989
 20
12.530666892299999
 30
0.0
 11
3.6439435167999998
 21
12.5193086529
 31
0.0
  0
LINE
  5
20A5
  8
0
 10
3.5771302776999998
 20
12.5588334281
 30
0.0
 11
3.596815316999999
 21
12.5474751887
 31
0.0
  0
LINE
  5
20A6
  8
0
 10
3.4572253795000001
 20
12.630825699800001
 30
0.0
 11
3.4769104188999989
 21
12.619467460399999
 31
0.0
  0
LINE
  5
20A7
  8
0
 10
3.596815316999999
 20
12.553383371200001
 30
0.0
 11
3.5771302776999998
 21
12.5647416106
 31
0.0
  0
LINE
  5
20A8
  8
0
 10
3.7107567559999999
 20
12.492060889699999
 30
0.0
 11
3.7304417954
 21
12.4807026503
 31
0.0
  0
LINE
  5
20A9
  8
0
 10
3.5908518579000002
 20
12.5640531615
 30
0.0
 11
3.6105368972999998
 21
12.552694922100001
 31
0.0
  0
LINE
  5
20AA
  8
0
 10
3.5437236580999998
 20
12.592219697299999
 30
0.0
 11
3.563408697499999
 21
12.580861457799999
 31
0.0
  0
LINE
  5
20AB
  8
0
 10
3.7304417954
 20
12.4866108328
 30
0.0
 11
3.7107567559999999
 21
12.4979690722
 31
0.0
  0
LINE
  5
20AC
  8
0
 10
3.563408697499999
 20
12.5867696403
 30
0.0
 11
3.5437236580999998
 21
12.5981278798
 31
0.0
  0
LINE
  5
20AD
  8
0
 10
3.7244783361999998
 20
12.4972806231
 30
0.0
 11
3.744163375599999
 21
12.4859223837
 31
0.0
  0
LINE
  5
20AE
  8
0
 10
3.677350136399999
 20
12.5254471589
 30
0.0
 11
3.6970351757999991
 21
12.514088919500001
 31
0.0
  0
LINE
  5
20AF
  8
0
 10
3.5574452382999988
 20
12.5974394307
 30
0.0
 11
3.5771302776999998
 21
12.5860811912
 31
0.0
  0
LINE
  5
20B0
  8
0
 10
3.5103170385000002
 20
12.6256059664
 30
0.0
 11
3.5300020778999999
 21
12.614247727
 31
0.0
  0
LINE
  5
20B1
  8
0
 10
3.6970351757999991
 20
12.519997102
 30
0.0
 11
3.677350136399999
 21
12.531355341399999
 31
0.0
  0
LINE
  5
20B2
  8
0
 10
3.5300020778999999
 20
12.620155909499999
 30
0.0
 11
3.5103170385000002
 21
12.631514148899999
 31
0.0
  0
LINE
  5
20B3
  8
0
 10
3.6910717165999989
 20
12.530666892299999
 30
0.0
 11
3.7107567559999999
 21
12.5193086529
 31
0.0
  0
LINE
  5
20B4
  8
0
 10
3.6439435167999998
 20
12.5588334281
 30
0.0
 11
3.6636285561999991
 21
12.5474751887
 31
0.0
  0
LINE
  5
20B5
  8
0
 10
3.5240386187000001
 20
12.630825699800001
 30
0.0
 11
3.5437236580999998
 21
12.619467460399999
 31
0.0
  0
LINE
  5
20B6
  8
0
 10
3.4769104188999989
 20
12.6589922356
 30
0.0
 11
3.496595458299999
 21
12.6476339962
 31
0.0
  0
LINE
  5
20B7
  8
0
 10
3.6636285561999991
 20
12.553383371200001
 30
0.0
 11
3.6439435167999998
 21
12.5647416106
 31
0.0
  0
LINE
  5
20B8
  8
0
 10
3.496595458299999
 20
12.6535421787
 30
0.0
 11
3.4769104188999989
 21
12.6649004181
 31
0.0
  0
LINE
  5
20B9
  8
0
 10
3.6576650969999989
 20
12.5640531615
 30
0.0
 11
3.677350136399999
 21
12.552694922100001
 31
0.0
  0
LINE
  5
20BA
  8
0
 10
3.6105368972999998
 20
12.592219697299999
 30
0.0
 11
3.630221936599999
 21
12.580861457799999
 31
0.0
  0
LINE
  5
20BB
  8
0
 10
3.4906319990999992
 20
12.664211969
 30
0.0
 11
3.5103170385000002
 21
12.6528537296
 31
0.0
  0
LINE
  5
20BC
  8
0
 10
3.630221936599999
 20
12.5867696403
 30
0.0
 11
3.6105368972999998
 21
12.5981278798
 31
0.0
  0
LINE
  5
20BD
  8
0
 10
3.7912915753999998
 20
12.4972806231
 30
0.0
 11
3.8109766147999999
 21
12.4859223837
 31
0.0
  0
LINE
  5
20BE
  8
0
 10
3.744163375599999
 20
12.5254471589
 30
0.0
 11
3.763848415
 21
12.514088919500001
 31
0.0
  0
LINE
  5
20BF
  8
0
 10
3.6242584774999989
 20
12.5974394307
 30
0.0
 11
3.6439435167999998
 21
12.5860811912
 31
0.0
  0
LINE
  5
20C0
  8
0
 10
3.5771302776999998
 20
12.6256059664
 30
0.0
 11
3.596815316999999
 21
12.614247727
 31
0.0
  0
LINE
  5
20C1
  8
0
 10
3.763848415
 20
12.519997102
 30
0.0
 11
3.744163375599999
 21
12.531355341399999
 31
0.0
  0
LINE
  5
20C2
  8
0
 10
3.4572253795000001
 20
12.697598238199999
 30
0.0
 11
3.4769104188999989
 21
12.6862399987
 31
0.0
  0
LINE
  5
20C3
  8
0
 10
3.596815316999999
 20
12.620155909499999
 30
0.0
 11
3.5771302776999998
 21
12.631514148899999
 31
0.0
  0
LINE
  5
20C4
  8
0
 10
3.7578849557999989
 20
12.530666892299999
 30
0.0
 11
3.7775699951999999
 21
12.5193086529
 31
0.0
  0
LINE
  5
20C5
  8
0
 10
3.7107567559999999
 20
12.5588334281
 30
0.0
 11
3.7304417954
 21
12.5474751887
 31
0.0
  0
LINE
  5
20C6
  8
0
 10
3.5908518579000002
 20
12.630825699800001
 30
0.0
 11
3.6105368972999998
 21
12.619467460399999
 31
0.0
  0
LINE
  5
20C7
  8
0
 10
3.5437236580999998
 20
12.6589922356
 30
0.0
 11
3.563408697499999
 21
12.6476339962
 31
0.0
  0
LINE
  5
20C8
  8
0
 10
3.7304417954
 20
12.553383371200001
 30
0.0
 11
3.7107567559999999
 21
12.5647416106
 31
0.0
  0
LINE
  5
20C9
  8
0
 10
3.4238187599999992
 20
12.730984507300001
 30
0.0
 11
3.4435037993000002
 21
12.719626267900001
 31
0.0
  0
LINE
  5
20CA
  8
0
 10
3.563408697499999
 20
12.6535421787
 30
0.0
 11
3.5437236580999998
 21
12.6649004181
 31
0.0
  0
LINE
  5
20CB
  8
0
 10
3.7244783361999998
 20
12.5640531615
 30
0.0
 11
3.744163375599999
 21
12.552694922100001
 31
0.0
  0
LINE
  5
20CC
  8
0
 10
3.677350136399999
 20
12.592219697299999
 30
0.0
 11
3.6970351757999991
 21
12.580861457799999
 31
0.0
  0
LINE
  5
20CD
  8
0
 10
3.5574452382999988
 20
12.664211969
 30
0.0
 11
3.5771302776999998
 21
12.6528537296
 31
0.0
  0
LINE
  5
20CE
  8
0
 10
3.5103170385000002
 20
12.692378504800001
 30
0.0
 11
3.5300020778999999
 21
12.681020265300001
 31
0.0
  0
LINE
  5
20CF
  8
0
 10
3.6970351757999991
 20
12.5867696403
 30
0.0
 11
3.677350136399999
 21
12.5981278798
 31
0.0
  0
LINE
  5
20D0
  8
0
 10
3.5300020778999999
 20
12.6869284479
 30
0.0
 11
3.5103170385000002
 21
12.6982866873
 31
0.0
  0
LINE
  5
20D1
  8
0
 10
3.8109766147999999
 20
12.5254471589
 30
0.0
 11
3.8306616541
 21
12.514088919500001
 31
0.0
  0
LINE
  5
20D2
  8
0
 10
3.6910717165999989
 20
12.5974394307
 30
0.0
 11
3.7107567559999999
 21
12.5860811912
 31
0.0
  0
LINE
  5
20D3
  8
0
 10
3.6439435167999998
 20
12.6256059664
 30
0.0
 11
3.6636285561999991
 21
12.614247727
 31
0.0
  0
LINE
  5
20D4
  8
0
 10
3.8306616541
 20
12.519997102
 30
0.0
 11
3.8109766147999999
 21
12.531355341399999
 31
0.0
  0
LINE
  5
20D5
  8
0
 10
3.5240386187000001
 20
12.697598238199999
 30
0.0
 11
3.5437236580999998
 21
12.6862399987
 31
0.0
  0
LINE
  5
20D6
  8
0
 10
3.4769104188999989
 20
12.725764774
 30
0.0
 11
3.496595458299999
 21
12.7144065345
 31
0.0
  0
LINE
  5
20D7
  8
0
 10
3.6636285561999991
 20
12.620155909499999
 30
0.0
 11
3.6439435167999998
 21
12.631514148899999
 31
0.0
  0
LINE
  5
20D8
  8
0
 10
3.824698194999999
 20
12.530666892299999
 30
0.0
 11
3.8443832343
 21
12.5193086529
 31
0.0
  0
LINE
  5
20D9
  8
0
 10
3.496595458299999
 20
12.720314717000001
 30
0.0
 11
3.4769104188999989
 21
12.731672956500001
 31
0.0
  0
LINE
  5
20DA
  8
0
 10
3.7775699951999999
 20
12.5588334281
 30
0.0
 11
3.7972550345
 21
12.5474751887
 31
0.0
  0
LINE
  5
20DB
  8
0
 10
3.6576650969999989
 20
12.630825699800001
 30
0.0
 11
3.677350136399999
 21
12.619467460399999
 31
0.0
  0
LINE
  5
20DC
  8
0
 10
3.6105368972999998
 20
12.6589922356
 30
0.0
 11
3.630221936599999
 21
12.6476339962
 31
0.0
  0
LINE
  5
20DD
  8
0
 10
3.7972550345
 20
12.553383371200001
 30
0.0
 11
3.7775699951999999
 21
12.5647416106
 31
0.0
  0
LINE
  5
20DE
  8
0
 10
3.4906319990999992
 20
12.730984507300001
 30
0.0
 11
3.5103170385000002
 21
12.719626267900001
 31
0.0
  0
LINE
  5
20DF
  8
0
 10
3.4435037993000002
 20
12.759151043099999
 30
0.0
 11
3.4631888386999989
 21
12.747792803699999
 31
0.0
  0
LINE
  5
20E0
  8
0
 10
3.630221936599999
 20
12.6535421787
 30
0.0
 11
3.6105368972999998
 21
12.6649004181
 31
0.0
  0
LINE
  5
20E1
  8
0
 10
3.7912915753999998
 20
12.5640531615
 30
0.0
 11
3.8109766147999999
 21
12.552694922100001
 31
0.0
  0
LINE
  5
20E2
  8
0
 10
3.4631888386999989
 20
12.7537009862
 30
0.0
 11
3.4435037993000002
 21
12.7650592256
 31
0.0
  0
LINE
  5
20E3
  8
0
 10
3.744163375599999
 20
12.592219697299999
 30
0.0
 11
3.763848415
 21
12.580861457799999
 31
0.0
  0
LINE
  5
20E4
  8
0
 10
3.6242584774999989
 20
12.664211969
 30
0.0
 11
3.6439435167999998
 21
12.6528537296
 31
0.0
  0
LINE
  5
20E5
  8
0
 10
3.5771302776999998
 20
12.692378504800001
 30
0.0
 11
3.596815316999999
 21
12.681020265300001
 31
0.0
  0
LINE
  5
20E6
  8
0
 10
3.763848415
 20
12.5867696403
 30
0.0
 11
3.744163375599999
 21
12.5981278798
 31
0.0
  0
LINE
  5
20E7
  8
0
 10
3.4572253795000001
 20
12.7643707765
 30
0.0
 11
3.4769104188999989
 21
12.7530125371
 31
0.0
  0
LINE
  5
20E8
  8
0
 10
3.596815316999999
 20
12.6869284479
 30
0.0
 11
3.5771302776999998
 21
12.6982866873
 31
0.0
  0
LINE
  5
20E9
  8
0
 10
3.7578849557999989
 20
12.5974394307
 30
0.0
 11
3.7775699951999999
 21
12.5860811912
 31
0.0
  0
LINE
  5
20EA
  8
0
 10
3.7107567559999999
 20
12.6256059664
 30
0.0
 11
3.7304417954
 21
12.614247727
 31
0.0
  0
LINE
  5
20EB
  8
0
 10
3.5908518579000002
 20
12.697598238199999
 30
0.0
 11
3.6105368972999998
 21
12.6862399987
 31
0.0
  0
LINE
  5
20EC
  8
0
 10
3.5437236580999998
 20
12.725764774
 30
0.0
 11
3.563408697499999
 21
12.7144065345
 31
0.0
  0
LINE
  5
20ED
  8
0
 10
3.7304417954
 20
12.620155909499999
 30
0.0
 11
3.7107567559999999
 21
12.631514148899999
 31
0.0
  0
LINE
  5
20EE
  8
0
 10
3.563408697499999
 20
12.720314717000001
 30
0.0
 11
3.5437236580999998
 21
12.731672956500001
 31
0.0
  0
LINE
  5
20EF
  8
0
 10
3.8443832343
 20
12.5588334281
 30
0.0
 11
3.8640682737000001
 21
12.5474751887
 31
0.0
  0
LINE
  5
20F0
  8
0
 10
3.7244783361999998
 20
12.630825699800001
 30
0.0
 11
3.744163375599999
 21
12.619467460399999
 31
0.0
  0
LINE
  5
20F1
  8
0
 10
3.677350136399999
 20
12.6589922356
 30
0.0
 11
3.6970351757999991
 21
12.6476339962
 31
0.0
  0
LINE
  5
20F2
  8
0
 10
3.8640682737000001
 20
12.553383371200001
 30
0.0
 11
3.8443832343
 21
12.5647416106
 31
0.0
  0
LINE
  5
20F3
  8
0
 10
3.5574452382999988
 20
12.730984507300001
 30
0.0
 11
3.5771302776999998
 21
12.719626267900001
 31
0.0
  0
LINE
  5
20F4
  8
0
 10
3.5103170385000002
 20
12.759151043099999
 30
0.0
 11
3.5300020778999999
 21
12.747792803699999
 31
0.0
  0
LINE
  5
20F5
  8
0
 10
3.6970351757999991
 20
12.6535421787
 30
0.0
 11
3.677350136399999
 21
12.6649004181
 31
0.0
  0
LINE
  5
20F6
  8
0
 10
3.858104814499999
 20
12.5640531615
 30
0.0
 11
3.8777898538999991
 21
12.552694922100001
 31
0.0
  0
LINE
  5
20F7
  8
0
 10
3.5300020778999999
 20
12.7537009862
 30
0.0
 11
3.5103170385000002
 21
12.7650592256
 31
0.0
  0
LINE
  5
20F8
  8
0
 10
3.8109766147999999
 20
12.592219697299999
 30
0.0
 11
3.8306616541
 21
12.580861457799999
 31
0.0
  0
LINE
  5
20F9
  8
0
 10
3.6910717165999989
 20
12.664211969
 30
0.0
 11
3.7107567559999999
 21
12.6528537296
 31
0.0
  0
LINE
  5
20FA
  8
0
 10
3.6439435167999998
 20
12.692378504800001
 30
0.0
 11
3.6636285561999991
 21
12.681020265300001
 31
0.0
  0
LINE
  5
20FB
  8
0
 10
3.8306616541
 20
12.5867696403
 30
0.0
 11
3.8109766147999999
 21
12.5981278798
 31
0.0
  0
LINE
  5
20FC
  8
0
 10
3.5240386187000001
 20
12.7643707765
 30
0.0
 11
3.5437236580999998
 21
12.7530125371
 31
0.0
  0
LINE
  5
20FD
  8
0
 10
3.4769104188999989
 20
12.7925373123
 30
0.0
 11
3.496595458299999
 21
12.781179072900001
 31
0.0
  0
LINE
  5
20FE
  8
0
 10
3.6636285561999991
 20
12.6869284479
 30
0.0
 11
3.6439435167999998
 21
12.6982866873
 31
0.0
  0
LINE
  5
20FF
  8
0
 10
3.824698194999999
 20
12.5974394307
 30
0.0
 11
3.8443832343
 21
12.5860811912
 31
0.0
  0
LINE
  5
2100
  8
0
 10
3.496595458299999
 20
12.787087255399999
 30
0.0
 11
3.4769104188999989
 21
12.798445494799999
 31
0.0
  0
LINE
  5
2101
  8
0
 10
3.7775699951999999
 20
12.6256059664
 30
0.0
 11
3.7972550345
 21
12.614247727
 31
0.0
  0
LINE
  5
2102
  8
0
 10
3.6576650969999989
 20
12.697598238199999
 30
0.0
 11
3.677350136399999
 21
12.6862399987
 31
0.0
  0
LINE
  5
2103
  8
0
 10
3.6105368972999998
 20
12.725764774
 30
0.0
 11
3.630221936599999
 21
12.7144065345
 31
0.0
  0
LINE
  5
2104
  8
0
 10
3.7972550345
 20
12.620155909499999
 30
0.0
 11
3.7775699951999999
 21
12.631514148899999
 31
0.0
  0
LINE
  5
2105
  8
0
 10
3.4906319990999992
 20
12.797757045699999
 30
0.0
 11
3.5103170385000002
 21
12.786398806299999
 31
0.0
  0
LINE
  5
2106
  8
0
 10
3.630221936599999
 20
12.720314717000001
 30
0.0
 11
3.6105368972999998
 21
12.731672956500001
 31
0.0
  0
LINE
  5
2107
  8
0
 10
3.7912915753999998
 20
12.630825699800001
 30
0.0
 11
3.8109766147999999
 21
12.619467460399999
 31
0.0
  0
LINE
  5
2108
  8
0
 10
3.744163375599999
 20
12.6589922356
 30
0.0
 11
3.763848415
 21
12.6476339962
 31
0.0
  0
LINE
  5
2109
  8
0
 10
3.6242584774999989
 20
12.730984507300001
 30
0.0
 11
3.6439435167999998
 21
12.719626267900001
 31
0.0
  0
LINE
  5
210A
  8
0
 10
3.5771302776999998
 20
12.759151043099999
 30
0.0
 11
3.596815316999999
 21
12.747792803699999
 31
0.0
  0
LINE
  5
210B
  8
0
 10
3.763848415
 20
12.6535421787
 30
0.0
 11
3.744163375599999
 21
12.6649004181
 31
0.0
  0
LINE
  5
210C
  8
0
 10
3.4572253795000001
 20
12.8311433149
 30
0.0
 11
3.4769104188999989
 21
12.8197850754
 31
0.0
  0
LINE
  5
210D
  8
0
 10
3.596815316999999
 20
12.7537009862
 30
0.0
 11
3.5771302776999998
 21
12.7650592256
 31
0.0
  0
LINE
  5
210E
  8
0
 10
3.8777898538999991
 20
12.592219697299999
 30
0.0
 11
3.8974748933000001
 21
12.580861457799999
 31
0.0
  0
LINE
  5
210F
  8
0
 10
3.7578849557999989
 20
12.664211969
 30
0.0
 11
3.7775699951999999
 21
12.6528537296
 31
0.0
  0
LINE
  5
2110
  8
0
 10
3.7107567559999999
 20
12.692378504800001
 30
0.0
 11
3.7304417954
 21
12.681020265300001
 31
0.0
  0
LINE
  5
2111
  8
0
 10
3.8974748933000001
 20
12.5867696403
 30
0.0
 11
3.8777898538999991
 21
12.5981278798
 31
0.0
  0
LINE
  5
2112
  8
0
 10
3.5908518579000002
 20
12.7643707765
 30
0.0
 11
3.6105368972999998
 21
12.7530125371
 31
0.0
  0
LINE
  5
2113
  8
0
 10
3.5437236580999998
 20
12.7925373123
 30
0.0
 11
3.563408697499999
 21
12.781179072900001
 31
0.0
  0
LINE
  5
2114
  8
0
 10
3.7304417954
 20
12.6869284479
 30
0.0
 11
3.7107567559999999
 21
12.6982866873
 31
0.0
  0
LINE
  5
2115
  8
0
 10
3.891511434099999
 20
12.5974394307
 30
0.0
 11
3.9111964735
 21
12.5860811912
 31
0.0
  0
LINE
  5
2116
  8
0
 10
3.563408697499999
 20
12.787087255399999
 30
0.0
 11
3.5437236580999998
 21
12.798445494799999
 31
0.0
  0
LINE
  5
2117
  8
0
 10
3.8443832343
 20
12.6256059664
 30
0.0
 11
3.8640682737000001
 21
12.614247727
 31
0.0
  0
LINE
  5
2118
  8
0
 10
3.7244783361999998
 20
12.697598238199999
 30
0.0
 11
3.744163375599999
 21
12.6862399987
 31
0.0
  0
LINE
  5
2119
  8
0
 10
3.677350136399999
 20
12.725764774
 30
0.0
 11
3.6970351757999991
 21
12.7144065345
 31
0.0
  0
LINE
  5
211A
  8
0
 10
3.8640682737000001
 20
12.620155909499999
 30
0.0
 11
3.8443832343
 21
12.631514148899999
 31
0.0
  0
LINE
  5
211B
  8
0
 10
3.5574452382999988
 20
12.797757045699999
 30
0.0
 11
3.5771302776999998
 21
12.786398806299999
 31
0.0
  0
LINE
  5
211C
  8
0
 10
3.5103170385000002
 20
12.8259235815
 30
0.0
 11
3.5300020778999999
 21
12.814565342
 31
0.0
  0
LINE
  5
211D
  8
0
 10
3.6970351757999991
 20
12.720314717000001
 30
0.0
 11
3.677350136399999
 21
12.731672956500001
 31
0.0
  0
LINE
  5
211E
  8
0
 10
3.858104814499999
 20
12.630825699800001
 30
0.0
 11
3.8777898538999991
 21
12.619467460399999
 31
0.0
  0
LINE
  5
211F
  8
0
 10
3.5300020778999999
 20
12.820473524600001
 30
0.0
 11
3.5103170385000002
 21
12.831831764
 31
0.0
  0
LINE
  5
2120
  8
0
 10
3.8109766147999999
 20
12.6589922356
 30
0.0
 11
3.8306616541
 21
12.6476339962
 31
0.0
  0
LINE
  5
2121
  8
0
 10
3.6910717165999989
 20
12.730984507300001
 30
0.0
 11
3.7107567559999999
 21
12.719626267900001
 31
0.0
  0
LINE
  5
2122
  8
0
 10
3.6439435167999998
 20
12.759151043099999
 30
0.0
 11
3.6636285561999991
 21
12.747792803699999
 31
0.0
  0
LINE
  5
2123
  8
0
 10
3.8306616541
 20
12.6535421787
 30
0.0
 11
3.8109766147999999
 21
12.6649004181
 31
0.0
  0
LINE
  5
2124
  8
0
 10
3.5240386187000001
 20
12.8311433149
 30
0.0
 11
3.5437236580999998
 21
12.8197850754
 31
0.0
  0
LINE
  5
2125
  8
0
 10
3.4769104188999989
 20
12.859309850600001
 30
0.0
 11
3.496595458299999
 21
12.847951611199999
 31
0.0
  0
LINE
  5
2126
  8
0
 10
3.6636285561999991
 20
12.7537009862
 30
0.0
 11
3.6439435167999998
 21
12.7650592256
 31
0.0
  0
LINE
  5
2127
  8
0
 10
3.824698194999999
 20
12.664211969
 30
0.0
 11
3.8443832343
 21
12.6528537296
 31
0.0
  0
LINE
  5
2128
  8
0
 10
3.496595458299999
 20
12.8538597937
 30
0.0
 11
3.4769104188999989
 21
12.8652180332
 31
0.0
  0
LINE
  5
2129
  8
0
 10
3.7775699951999999
 20
12.692378504800001
 30
0.0
 11
3.7972550345
 21
12.681020265300001
 31
0.0
  0
LINE
  5
212A
  8
0
 10
3.6576650969999989
 20
12.7643707765
 30
0.0
 11
3.677350136399999
 21
12.7530125371
 31
0.0
  0
LINE
  5
212B
  8
0
 10
3.6105368972999998
 20
12.7925373123
 30
0.0
 11
3.630221936599999
 21
12.781179072900001
 31
0.0
  0
LINE
  5
212C
  8
0
 10
3.7972550345
 20
12.6869284479
 30
0.0
 11
3.7775699951999999
 21
12.6982866873
 31
0.0
  0
LINE
  5
212D
  8
0
 10
3.4906319990999992
 20
12.864529584
 30
0.0
 11
3.5103170385000002
 21
12.8531713446
 31
0.0
  0
LINE
  5
212E
  8
0
 10
3.630221936599999
 20
12.787087255399999
 30
0.0
 11
3.6105368972999998
 21
12.798445494799999
 31
0.0
  0
LINE
  5
212F
  8
0
 10
3.9111964735
 20
12.6256059664
 30
0.0
 11
3.9308815129000001
 21
12.614247727
 31
0.0
  0
LINE
  5
2130
  8
0
 10
3.7912915753999998
 20
12.697598238199999
 30
0.0
 11
3.8109766147999999
 21
12.6862399987
 31
0.0
  0
LINE
  5
2131
  8
0
 10
3.744163375599999
 20
12.725764774
 30
0.0
 11
3.763848415
 21
12.7144065345
 31
0.0
  0
LINE
  5
2132
  8
0
 10
3.9308815129000001
 20
12.620155909499999
 30
0.0
 11
3.9111964735
 21
12.631514148899999
 31
0.0
  0
LINE
  5
2133
  8
0
 10
3.6242584774999989
 20
12.797757045699999
 30
0.0
 11
3.6439435167999998
 21
12.786398806299999
 31
0.0
  0
LINE
  5
2134
  8
0
 10
3.5771302776999998
 20
12.8259235815
 30
0.0
 11
3.596815316999999
 21
12.814565342
 31
0.0
  0
LINE
  5
2135
  8
0
 10
3.763848415
 20
12.720314717000001
 30
0.0
 11
3.744163375599999
 21
12.731672956500001
 31
0.0
  0
LINE
  5
2136
  8
0
 10
3.924918053699999
 20
12.630825699800001
 30
0.0
 11
3.9446030930999991
 21
12.619467460399999
 31
0.0
  0
LINE
  5
2137
  8
0
 10
3.596815316999999
 20
12.820473524600001
 30
0.0
 11
3.5771302776999998
 21
12.831831764
 31
0.0
  0
LINE
  5
2138
  8
0
 10
3.8777898538999991
 20
12.6589922356
 30
0.0
 11
3.8974748933000001
 21
12.6476339962
 31
0.0
  0
LINE
  5
2139
  8
0
 10
3.7578849557999989
 20
12.730984507300001
 30
0.0
 11
3.7775699951999999
 21
12.719626267900001
 31
0.0
  0
LINE
  5
213A
  8
0
 10
3.7107567559999999
 20
12.759151043099999
 30
0.0
 11
3.7304417954
 21
12.747792803699999
 31
0.0
  0
LINE
  5
213B
  8
0
 10
3.8974748933000001
 20
12.6535421787
 30
0.0
 11
3.8777898538999991
 21
12.6649004181
 31
0.0
  0
LINE
  5
213C
  8
0
 10
3.5908518579000002
 20
12.8311433149
 30
0.0
 11
3.6105368972999998
 21
12.8197850754
 31
0.0
  0
LINE
  5
213D
  8
0
 10
3.5437236580999998
 20
12.859309850600001
 30
0.0
 11
3.563408697499999
 21
12.847951611199999
 31
0.0
  0
LINE
  5
213E
  8
0
 10
3.7304417954
 20
12.7537009862
 30
0.0
 11
3.7107567559999999
 21
12.7650592256
 31
0.0
  0
LINE
  5
213F
  8
0
 10
3.891511434099999
 20
12.664211969
 30
0.0
 11
3.9111964735
 21
12.6528537296
 31
0.0
  0
LINE
  5
2140
  8
0
 10
3.563408697499999
 20
12.8538597937
 30
0.0
 11
3.5437236580999998
 21
12.8652180332
 31
0.0
  0
LINE
  5
2141
  8
0
 10
3.8443832343
 20
12.692378504800001
 30
0.0
 11
3.8640682737000001
 21
12.681020265300001
 31
0.0
  0
LINE
  5
2142
  8
0
 10
3.7244783361999998
 20
12.7643707765
 30
0.0
 11
3.744163375599999
 21
12.7530125371
 31
0.0
  0
LINE
  5
2143
  8
0
 10
3.677350136399999
 20
12.7925373123
 30
0.0
 11
3.6970351757999991
 21
12.781179072900001
 31
0.0
  0
LINE
  5
2144
  8
0
 10
3.8640682737000001
 20
12.6869284479
 30
0.0
 11
3.8443832343
 21
12.6982866873
 31
0.0
  0
LINE
  5
2145
  8
0
 10
3.5574452382999988
 20
12.864529584
 30
0.0
 11
3.5771302776999998
 21
12.8531713446
 31
0.0
  0
LINE
  5
2146
  8
0
 10
3.5103170385000002
 20
12.8926961198
 30
0.0
 11
3.5300020778999999
 21
12.8813378804
 31
0.0
  0
LINE
  5
2147
  8
0
 10
3.6970351757999991
 20
12.787087255399999
 30
0.0
 11
3.677350136399999
 21
12.798445494799999
 31
0.0
  0
LINE
  5
2148
  8
0
 10
3.858104814499999
 20
12.697598238199999
 30
0.0
 11
3.8777898538999991
 21
12.6862399987
 31
0.0
  0
LINE
  5
2149
  8
0
 10
3.5300020778999999
 20
12.887246062899999
 30
0.0
 11
3.5103170385000002
 21
12.898604302300001
 31
0.0
  0
LINE
  5
214A
  8
0
 10
3.8109766147999999
 20
12.725764774
 30
0.0
 11
3.8306616541
 21
12.7144065345
 31
0.0
  0
LINE
  5
214B
  8
0
 10
3.6910717165999989
 20
12.797757045699999
 30
0.0
 11
3.7107567559999999
 21
12.786398806299999
 31
0.0
  0
LINE
  5
214C
  8
0
 10
3.6439435167999998
 20
12.8259235815
 30
0.0
 11
3.6636285561999991
 21
12.814565342
 31
0.0
  0
LINE
  5
214D
  8
0
 10
3.8306616541
 20
12.720314717000001
 30
0.0
 11
3.8109766147999999
 21
12.731672956500001
 31
0.0
  0
LINE
  5
214E
  8
0
 10
3.5240386187000001
 20
12.897915853200001
 30
0.0
 11
3.5437236580999998
 21
12.886557613800001
 31
0.0
  0
LINE
  5
214F
  8
0
 10
3.6636285561999991
 20
12.820473524600001
 30
0.0
 11
3.6439435167999998
 21
12.831831764
 31
0.0
  0
LINE
  5
2150
  8
0
 10
3.9446030930999991
 20
12.6589922356
 30
0.0
 11
3.9642881325000001
 21
12.6476339962
 31
0.0
  0
LINE
  5
2151
  8
0
 10
3.824698194999999
 20
12.730984507300001
 30
0.0
 11
3.8443832343
 21
12.719626267900001
 31
0.0
  0
LINE
  5
2152
  8
0
 10
3.7775699951999999
 20
12.759151043099999
 30
0.0
 11
3.7972550345
 21
12.747792803699999
 31
0.0
  0
LINE
  5
2153
  8
0
 10
3.9642881325000001
 20
12.6535421787
 30
0.0
 11
3.9446030930999991
 21
12.6649004181
 31
0.0
  0
LINE
  5
2154
  8
0
 10
3.6576650969999989
 20
12.8311433149
 30
0.0
 11
3.677350136399999
 21
12.8197850754
 31
0.0
  0
LINE
  5
2155
  8
0
 10
3.6105368972999998
 20
12.859309850600001
 30
0.0
 11
3.630221936599999
 21
12.847951611199999
 31
0.0
  0
LINE
  5
2156
  8
0
 10
3.7972550345
 20
12.7537009862
 30
0.0
 11
3.7775699951999999
 21
12.7650592256
 31
0.0
  0
LINE
  5
2157
  8
0
 10
3.630221936599999
 20
12.8538597937
 30
0.0
 11
3.6105368972999998
 21
12.8652180332
 31
0.0
  0
LINE
  5
2158
  8
0
 10
3.9111964735
 20
12.692378504800001
 30
0.0
 11
3.9308815129000001
 21
12.681020265300001
 31
0.0
  0
LINE
  5
2159
  8
0
 10
3.7912915753999998
 20
12.7643707765
 30
0.0
 11
3.8109766147999999
 21
12.7530125371
 31
0.0
  0
LINE
  5
215A
  8
0
 10
3.744163375599999
 20
12.7925373123
 30
0.0
 11
3.763848415
 21
12.781179072900001
 31
0.0
  0
LINE
  5
215B
  8
0
 10
3.9308815129000001
 20
12.6869284479
 30
0.0
 11
3.9111964735
 21
12.6982866873
 31
0.0
  0
LINE
  5
215C
  8
0
 10
3.6242584774999989
 20
12.864529584
 30
0.0
 11
3.6439435167999998
 21
12.8531713446
 31
0.0
  0
LINE
  5
215D
  8
0
 10
3.5771302776999998
 20
12.8926961198
 30
0.0
 11
3.596815316999999
 21
12.8813378804
 31
0.0
  0
LINE
  5
215E
  8
0
 10
3.763848415
 20
12.787087255399999
 30
0.0
 11
3.744163375599999
 21
12.798445494799999
 31
0.0
  0
LINE
  5
215F
  8
0
 10
3.924918053699999
 20
12.697598238199999
 30
0.0
 11
3.9446030930999991
 21
12.6862399987
 31
0.0
  0
LINE
  5
2160
  8
0
 10
3.596815316999999
 20
12.887246062899999
 30
0.0
 11
3.5771302776999998
 21
12.898604302300001
 31
0.0
  0
LINE
  5
2161
  8
0
 10
3.8777898538999991
 20
12.725764774
 30
0.0
 11
3.8974748933000001
 21
12.7144065345
 31
0.0
  0
LINE
  5
2162
  8
0
 10
3.7578849557999989
 20
12.797757045699999
 30
0.0
 11
3.7775699951999999
 21
12.786398806299999
 31
0.0
  0
LINE
  5
2163
  8
0
 10
3.7107567559999999
 20
12.8259235815
 30
0.0
 11
3.7304417954
 21
12.814565342
 31
0.0
  0
LINE
  5
2164
  8
0
 10
3.8974748933000001
 20
12.720314717000001
 30
0.0
 11
3.8777898538999991
 21
12.731672956500001
 31
0.0
  0
LINE
  5
2165
  8
0
 10
3.5908518579000002
 20
12.897915853200001
 30
0.0
 11
3.6105368972999998
 21
12.886557613800001
 31
0.0
  0
LINE
  5
2166
  8
0
 10
3.5437236580999998
 20
12.926082388999999
 30
0.0
 11
3.563408697499999
 21
12.9147241496
 31
0.0
  0
LINE
  5
2167
  8
0
 10
3.7304417954
 20
12.820473524600001
 30
0.0
 11
3.7107567559999999
 21
12.831831764
 31
0.0
  0
LINE
  5
2168
  8
0
 10
3.891511434099999
 20
12.730984507300001
 30
0.0
 11
3.9111964735
 21
12.719626267900001
 31
0.0
  0
LINE
  5
2169
  8
0
 10
3.563408697499999
 20
12.9206323321
 30
0.0
 11
3.5437236580999998
 21
12.9319905715
 31
0.0
  0
LINE
  5
216A
  8
0
 10
3.8443832343
 20
12.759151043099999
 30
0.0
 11
3.8640682737000001
 21
12.747792803699999
 31
0.0
  0
LINE
  5
216B
  8
0
 10
3.7244783361999998
 20
12.8311433149
 30
0.0
 11
3.744163375599999
 21
12.8197850754
 31
0.0
  0
LINE
  5
216C
  8
0
 10
3.677350136399999
 20
12.859309850600001
 30
0.0
 11
3.6970351757999991
 21
12.847951611199999
 31
0.0
  0
LINE
  5
216D
  8
0
 10
3.8640682737000001
 20
12.7537009862
 30
0.0
 11
3.8443832343
 21
12.7650592256
 31
0.0
  0
LINE
  5
216E
  8
0
 10
3.5574452382999988
 20
12.9313021224
 30
0.0
 11
3.5771302776999998
 21
12.919943883
 31
0.0
  0
LINE
  5
216F
  8
0
 10
3.6970351757999991
 20
12.8538597937
 30
0.0
 11
3.677350136399999
 21
12.8652180332
 31
0.0
  0
LINE
  5
2170
  8
0
 10
3.858104814499999
 20
12.7643707765
 30
0.0
 11
3.8777898538999991
 21
12.7530125371
 31
0.0
  0
LINE
  5
2171
  8
0
 10
3.8109766147999999
 20
12.7925373123
 30
0.0
 11
3.8306616541
 21
12.781179072900001
 31
0.0
  0
LINE
  5
2172
  8
0
 10
3.6910717165999989
 20
12.864529584
 30
0.0
 11
3.7107567559999999
 21
12.8531713446
 31
0.0
  0
LINE
  5
2173
  8
0
 10
3.6439435167999998
 20
12.8926961198
 30
0.0
 11
3.6636285561999991
 21
12.8813378804
 31
0.0
  0
LINE
  5
2174
  8
0
 10
3.8306616541
 20
12.787087255399999
 30
0.0
 11
3.8109766147999999
 21
12.798445494799999
 31
0.0
  0
LINE
  5
2175
  8
0
 10
3.6636285561999991
 20
12.887246062899999
 30
0.0
 11
3.6439435167999998
 21
12.898604302300001
 31
0.0
  0
LINE
  5
2176
  8
0
 10
3.9446030930999991
 20
12.725764774
 30
0.0
 11
3.9642881325000001
 21
12.7144065345
 31
0.0
  0
LINE
  5
2177
  8
0
 10
3.824698194999999
 20
12.797757045699999
 30
0.0
 11
3.8443832343
 21
12.786398806299999
 31
0.0
  0
LINE
  5
2178
  8
0
 10
3.7775699951999999
 20
12.8259235815
 30
0.0
 11
3.7972550345
 21
12.814565342
 31
0.0
  0
LINE
  5
2179
  8
0
 10
3.9642881325000001
 20
12.720314717000001
 30
0.0
 11
3.9446030930999991
 21
12.731672956500001
 31
0.0
  0
LINE
  5
217A
  8
0
 10
3.6576650969999989
 20
12.897915853200001
 30
0.0
 11
3.677350136399999
 21
12.886557613800001
 31
0.0
  0
LINE
  5
217B
  8
0
 10
3.6105368972999998
 20
12.926082388999999
 30
0.0
 11
3.630221936599999
 21
12.9147241496
 31
0.0
  0
LINE
  5
217C
  8
0
 10
3.7972550345
 20
12.820473524600001
 30
0.0
 11
3.7775699951999999
 21
12.831831764
 31
0.0
  0
LINE
  5
217D
  8
0
 10
3.958324673299999
 20
12.730984507300001
 30
0.0
 11
3.9780097126999991
 21
12.719626267900001
 31
0.0
  0
LINE
  5
217E
  8
0
 10
3.630221936599999
 20
12.9206323321
 30
0.0
 11
3.6105368972999998
 21
12.9319905715
 31
0.0
  0
LINE
  5
217F
  8
0
 10
3.9111964735
 20
12.759151043099999
 30
0.0
 11
3.9308815129000001
 21
12.747792803699999
 31
0.0
  0
LINE
  5
2180
  8
0
 10
3.7912915753999998
 20
12.8311433149
 30
0.0
 11
3.8109766147999999
 21
12.8197850754
 31
0.0
  0
LINE
  5
2181
  8
0
 10
3.744163375599999
 20
12.859309850600001
 30
0.0
 11
3.763848415
 21
12.847951611199999
 31
0.0
  0
LINE
  5
2182
  8
0
 10
3.9308815129000001
 20
12.7537009862
 30
0.0
 11
3.9111964735
 21
12.7650592256
 31
0.0
  0
LINE
  5
2183
  8
0
 10
3.6242584774999989
 20
12.9313021224
 30
0.0
 11
3.6439435167999998
 21
12.919943883
 31
0.0
  0
LINE
  5
2184
  8
0
 10
3.5771302776999998
 20
12.9594686582
 30
0.0
 11
3.596815316999999
 21
12.948110418700001
 31
0.0
  0
LINE
  5
2185
  8
0
 10
3.763848415
 20
12.8538597937
 30
0.0
 11
3.744163375599999
 21
12.8652180332
 31
0.0
  0
LINE
  5
2186
  8
0
 10
3.924918053699999
 20
12.7643707765
 30
0.0
 11
3.9446030930999991
 21
12.7530125371
 31
0.0
  0
LINE
  5
2187
  8
0
 10
3.596815316999999
 20
12.9540186012
 30
0.0
 11
3.5771302776999998
 21
12.965376840699999
 31
0.0
  0
LINE
  5
2188
  8
0
 10
3.8777898538999991
 20
12.7925373123
 30
0.0
 11
3.8974748933000001
 21
12.781179072900001
 31
0.0
  0
LINE
  5
2189
  8
0
 10
3.7578849557999989
 20
12.864529584
 30
0.0
 11
3.7775699951999999
 21
12.8531713446
 31
0.0
  0
LINE
  5
218A
  8
0
 10
3.7107567559999999
 20
12.8926961198
 30
0.0
 11
3.7304417954
 21
12.8813378804
 31
0.0
  0
LINE
  5
218B
  8
0
 10
3.8974748933000001
 20
12.787087255399999
 30
0.0
 11
3.8777898538999991
 21
12.798445494799999
 31
0.0
  0
LINE
  5
218C
  8
0
 10
3.5908518579000002
 20
12.964688391599999
 30
0.0
 11
3.6105368972999998
 21
12.953330152099999
 31
0.0
  0
LINE
  5
218D
  8
0
 10
3.7304417954
 20
12.887246062899999
 30
0.0
 11
3.7107567559999999
 21
12.898604302300001
 31
0.0
  0
LINE
  5
218E
  8
0
 10
3.891511434099999
 20
12.797757045699999
 30
0.0
 11
3.9111964735
 21
12.786398806299999
 31
0.0
  0
LINE
  5
218F
  8
0
 10
3.8443832343
 20
12.8259235815
 30
0.0
 11
3.8640682737000001
 21
12.814565342
 31
0.0
  0
LINE
  5
2190
  8
0
 10
3.7244783361999998
 20
12.897915853200001
 30
0.0
 11
3.744163375599999
 21
12.886557613800001
 31
0.0
  0
LINE
  5
2191
  8
0
 10
3.677350136399999
 20
12.926082388999999
 30
0.0
 11
3.6970351757999991
 21
12.9147241496
 31
0.0
  0
LINE
  5
2192
  8
0
 10
3.8640682737000001
 20
12.820473524600001
 30
0.0
 11
3.8443832343
 21
12.831831764
 31
0.0
  0
LINE
  5
2193
  8
0
 10
3.6970351757999991
 20
12.9206323321
 30
0.0
 11
3.677350136399999
 21
12.9319905715
 31
0.0
  0
LINE
  5
2194
  8
0
 10
3.9780097126999991
 20
12.759151043099999
 30
0.0
 11
3.9976947519999988
 21
12.747792803699999
 31
0.0
  0
LINE
  5
2195
  8
0
 10
3.858104814499999
 20
12.8311433149
 30
0.0
 11
3.8777898538999991
 21
12.8197850754
 31
0.0
  0
LINE
  5
2196
  8
0
 10
3.8109766147999999
 20
12.859309850600001
 30
0.0
 11
3.8306616541
 21
12.847951611199999
 31
0.0
  0
LINE
  5
2197
  8
0
 10
3.9976947519999988
 20
12.7537009862
 30
0.0
 11
3.9780097126999991
 21
12.7650592256
 31
0.0
  0
LINE
  5
2198
  8
0
 10
3.6910717165999989
 20
12.9313021224
 30
0.0
 11
3.7107567559999999
 21
12.919943883
 31
0.0
  0
LINE
  5
2199
  8
0
 10
3.6439435167999998
 20
12.9594686582
 30
0.0
 11
3.6636285561999991
 21
12.948110418700001
 31
0.0
  0
LINE
  5
219A
  8
0
 10
3.8306616541
 20
12.8538597937
 30
0.0
 11
3.8109766147999999
 21
12.8652180332
 31
0.0
  0
LINE
  5
219B
  8
0
 10
3.6636285561999991
 20
12.9540186012
 30
0.0
 11
3.6439435167999998
 21
12.965376840699999
 31
0.0
  0
LINE
  5
219C
  8
0
 10
3.9446030930999991
 20
12.7925373123
 30
0.0
 11
3.9642881325000001
 21
12.781179072900001
 31
0.0
  0
LINE
  5
219D
  8
0
 10
3.824698194999999
 20
12.864529584
 30
0.0
 11
3.8443832343
 21
12.8531713446
 31
0.0
  0
LINE
  5
219E
  8
0
 10
3.7775699951999999
 20
12.8926961198
 30
0.0
 11
3.7972550345
 21
12.8813378804
 31
0.0
  0
LINE
  5
219F
  8
0
 10
3.9642881325000001
 20
12.787087255399999
 30
0.0
 11
3.9446030930999991
 21
12.798445494799999
 31
0.0
  0
LINE
  5
21A0
  8
0
 10
3.6576650969999989
 20
12.964688391599999
 30
0.0
 11
3.677350136399999
 21
12.953330152099999
 31
0.0
  0
LINE
  5
21A1
  8
0
 10
3.6105368972999998
 20
12.9928549273
 30
0.0
 11
3.630221936599999
 21
12.9814966879
 31
0.0
  0
LINE
  5
21A2
  8
0
 10
3.7972550345
 20
12.887246062899999
 30
0.0
 11
3.7775699951999999
 21
12.898604302300001
 31
0.0
  0
LINE
  5
21A3
  8
0
 10
3.630221936599999
 20
12.987404870400001
 30
0.0
 11
3.6105368972999998
 21
12.998763109900001
 31
0.0
  0
LINE
  5
21A4
  8
0
 10
3.9111964735
 20
12.8259235815
 30
0.0
 11
3.9308815129000001
 21
12.814565342
 31
0.0
  0
LINE
  5
21A5
  8
0
 10
3.7912915753999998
 20
12.897915853200001
 30
0.0
 11
3.8109766147999999
 21
12.886557613800001
 31
0.0
  0
LINE
  5
21A6
  8
0
 10
3.744163375599999
 20
12.926082388999999
 30
0.0
 11
3.763848415
 21
12.9147241496
 31
0.0
  0
LINE
  5
21A7
  8
0
 10
3.9308815129000001
 20
12.820473524600001
 30
0.0
 11
3.9111964735
 21
12.831831764
 31
0.0
  0
LINE
  5
21A8
  8
0
 10
3.763848415
 20
12.9206323321
 30
0.0
 11
3.744163375599999
 21
12.9319905715
 31
0.0
  0
LINE
  5
21A9
  8
0
 10
3.924918053699999
 20
12.8311433149
 30
0.0
 11
3.9446030930999991
 21
12.8197850754
 31
0.0
  0
LINE
  5
21AA
  8
0
 10
3.8777898538999991
 20
12.859309850600001
 30
0.0
 11
3.8974748933000001
 21
12.847951611199999
 31
0.0
  0
LINE
  5
21AB
  8
0
 10
3.7578849557999989
 20
12.9313021224
 30
0.0
 11
3.7775699951999999
 21
12.919943883
 31
0.0
  0
LINE
  5
21AC
  8
0
 10
3.7107567559999999
 20
12.9594686582
 30
0.0
 11
3.7304417954
 21
12.948110418700001
 31
0.0
  0
LINE
  5
21AD
  8
0
 10
3.8974748933000001
 20
12.8538597937
 30
0.0
 11
3.8777898538999991
 21
12.8652180332
 31
0.0
  0
LINE
  5
21AE
  8
0
 10
3.7304417954
 20
12.9540186012
 30
0.0
 11
3.7107567559999999
 21
12.965376840699999
 31
0.0
  0
LINE
  5
21AF
  8
0
 10
3.891511434099999
 20
12.864529584
 30
0.0
 11
3.9111964735
 21
12.8531713446
 31
0.0
  0
LINE
  5
21B0
  8
0
 10
3.8443832343
 20
12.8926961198
 30
0.0
 11
3.8640682737000001
 21
12.8813378804
 31
0.0
  0
LINE
  5
21B1
  8
0
 10
3.7244783361999998
 20
12.964688391599999
 30
0.0
 11
3.744163375599999
 21
12.953330152099999
 31
0.0
  0
LINE
  5
21B2
  8
0
 10
3.677350136399999
 20
12.9928549273
 30
0.0
 11
3.6970351757999991
 21
12.9814966879
 31
0.0
  0
LINE
  5
21B3
  8
0
 10
3.8640682737000001
 20
12.887246062899999
 30
0.0
 11
3.8443832343
 21
12.898604302300001
 31
0.0
  0
LINE
  5
21B4
  8
0
 10
3.6970351757999991
 20
12.987404870400001
 30
0.0
 11
3.677350136399999
 21
12.998763109900001
 31
0.0
  0
LINE
  5
21B5
  8
0
 10
3.858104814499999
 20
12.897915853200001
 30
0.0
 11
3.8777898538999991
 21
12.886557613800001
 31
0.0
  0
LINE
  5
21B6
  8
0
 10
3.8109766147999999
 20
12.926082388999999
 30
0.0
 11
3.8306616541
 21
12.9147241496
 31
0.0
  0
LINE
  5
21B7
  8
0
 10
3.6910717165999989
 20
12.9980746607
 30
0.0
 11
3.7107567559999999
 21
12.986716421300001
 31
0.0
  0
LINE
  5
21B8
  8
0
 10
3.8306616541
 20
12.9206323321
 30
0.0
 11
3.8109766147999999
 21
12.9319905715
 31
0.0
  0
LINE
  5
21B9
  8
0
 10
3.9446030930999991
 20
12.859309850600001
 30
0.0
 11
3.9642881325000001
 21
12.847951611199999
 31
0.0
  0
LINE
  5
21BA
  8
0
 10
3.824698194999999
 20
12.9313021224
 30
0.0
 11
3.8443832343
 21
12.919943883
 31
0.0
  0
LINE
  5
21BB
  8
0
 10
3.7775699951999999
 20
12.9594686582
 30
0.0
 11
3.7972550345
 21
12.948110418700001
 31
0.0
  0
LINE
  5
21BC
  8
0
 10
3.9642881325000001
 20
12.8538597937
 30
0.0
 11
3.9446030930999991
 21
12.8652180332
 31
0.0
  0
LINE
  5
21BD
  8
0
 10
3.7972550345
 20
12.9540186012
 30
0.0
 11
3.7775699951999999
 21
12.965376840699999
 31
0.0
  0
LINE
  5
21BE
  8
0
 10
3.9111964735
 20
12.8926961198
 30
0.0
 11
3.9308815129000001
 21
12.8813378804
 31
0.0
  0
LINE
  5
21BF
  8
0
 10
3.7912915753999998
 20
12.964688391599999
 30
0.0
 11
3.8109766147999999
 21
12.953330152099999
 31
0.0
  0
LINE
  5
21C0
  8
0
 10
3.744163375599999
 20
12.9928549273
 30
0.0
 11
3.763848415
 21
12.9814966879
 31
0.0
  0
LINE
  5
21C1
  8
0
 10
3.9308815129000001
 20
12.887246062899999
 30
0.0
 11
3.9111964735
 21
12.898604302300001
 31
0.0
  0
LINE
  5
21C2
  8
0
 10
3.763848415
 20
12.987404870400001
 30
0.0
 11
3.744163375599999
 21
12.998763109900001
 31
0.0
  0
LINE
  5
21C3
  8
0
 10
3.8777898538999991
 20
12.926082388999999
 30
0.0
 11
3.8974748933000001
 21
12.9147241496
 31
0.0
  0
LINE
  5
21C4
  8
0
 10
3.7107567559999999
 20
13.026241196499999
 30
0.0
 11
3.7304417954
 21
13.014882957099999
 31
0.0
  0
LINE
  5
21C5
  8
0
 10
3.8974748933000001
 20
12.9206323321
 30
0.0
 11
3.8777898538999991
 21
12.9319905715
 31
0.0
  0
LINE
  5
21C6
  8
0
 10
3.7304417954
 20
13.0207911396
 30
0.0
 11
3.7107567559999999
 21
13.032149379
 31
0.0
  0
LINE
  5
21C7
  8
0
 10
3.8443832343
 20
12.9594686582
 30
0.0
 11
3.8640682737000001
 21
12.948110418700001
 31
0.0
  0
LINE
  5
21C8
  8
0
 10
3.8640682737000001
 20
12.9540186012
 30
0.0
 11
3.8443832343
 21
12.965376840699999
 31
0.0
  0
LINE
  5
21C9
  8
0
 10
3.8109766147999999
 20
12.9928549273
 30
0.0
 11
3.8306616541
 21
12.9814966879
 31
0.0
  0
LINE
  5
21CA
  8
0
 10
3.8306616541
 20
12.987404870400001
 30
0.0
 11
3.8109766147999999
 21
12.998763109900001
 31
0.0
  0
LINE
  5
21D5
  8
0
 10
3.4906319990999992
 20
12.5974394306
 30
0.0
 11
3.4906319990999992
 21
12.620155909499999
 31
0.0
  0
LINE
  5
21D6
  8
0
 10
3.4906319990999992
 20
12.5974394306
 30
0.0
 11
3.510317038499998
 21
12.5860811912
 31
0.0
  0
CIRCLE
  5
21DE
  8
0
 10
3.7107571477757251
 20
12.743302840052809
 30
0.0
 40
0.2913376161784024
  0
CIRCLE
  5
21DF
  8
0
 10
3.7107567559999999
 20
12.742823645350001
 30
0.0
 40
0.3093477486499996
  0
CIRCLE
  5
21E0
  8
0
 10
3.7107573015501818
 20
12.742823645386011
 30
0.0
 40
0.3280589992860122
  0
CIRCLE
  5
21E1
  8
0
 10
3.7107567550499989
 20
12.74330454395
 30
0.0
 40
0.3639513838504965
  0
CIRCLE
  5
21E2
  8
0
 10
3.710776245715949
 20
12.74454125883708
 30
0.0
 40
0.3914932544574588
  0
ARC
  5
21E3
  8
0
 10
3.7106405593140388
 20
12.717601083959909
 30
0.0
 40
0.3955559409266164
 50
181.48243894984799
 51
270.0168309437575
  0
ARC
  5
21E4
  8
0
 10
3.7108729525913779
 20
12.717601084081601
 30
0.0
 40
0.3955559410482779
 50
269.98316906994768
 51
358.51754747199089
  0
ARC
  5
21E5
  8
0
 10
3.9241258293138692
 20
12.65957526075165
 30
0.0
 40
0.610781531791475
 50
172.00363395801111
 51
175.51211915217431
  0
ARC
  5
21E6
  8
0
 10
3.8874809229731122
 20
12.72091355726028
 30
0.0
 40
0.2192344533935339
 50
356.45761479302871
 51
12.45776879595323
  0
ARC
  5
21EE
  8
0
 10
3.0888802009838998
 20
12.40818221660909
 30
0.0
 40
0.228851837013028
 50
87.004829056174799
 51
98.950180234585645
  0
ARC
  5
21EF
  8
0
 10
3.104846861134841
 20
12.4449411362849
 30
0.0
 40
0.1918221848736054
 50
23.896386504546129
 51
91.197467013066188
  0
ARC
  5
21F0
  8
0
 10
3.7107564031828271
 20
12.716858360027629
 30
0.0
 40
0.4723083865423107
 50
204.28023011079651
 51
335.71980516543999
  0
ARC
  5
21F1
  8
0
 10
4.3193935642422101
 20
12.44290638925861
 30
0.0
 40
0.1951410524559207
 50
101.50045793825051
 51
155.88173063051141
  0
ARC
  5
21F2
  8
0
 10
4.324679423880962
 20
12.41692662194057
 30
0.0
 40
0.221653099189806
 50
78.653498286300305
 51
101.5004579382507
  0
ARC
  5
21F3
  8
0
 10
3.0553427573579142
 20
12.472288371251979
 30
0.0
 40
0.033563961642762
 50
108.38576197112219
 51
179.443653880829
  0
ARC
  5
21F4
  8
0
 10
3.1155425544762458
 20
12.42464931138689
 30
0.0
 40
0.1824365697772419
 50
26.527067429467419
 51
94.623069749403157
  0
ARC
  5
21F5
  8
0
 10
4.3063607120902869
 20
12.423662126058231
 30
0.0
 40
0.1833897262765616
 50
85.523162772675974
 51
147.8778049485268
  0
ARC
  5
21F6
  8
0
 10
3.7116626035961708
 20
12.70185226331356
 30
0.0
 40
0.4750800528239719
 50
204.32921679356329
 51
337.64721440715471
  0
ARC
  5
21F7
  8
0
 10
3.055463359167887
 20
12.536078199345271
 30
0.0
 40
0.0336860837515032
 50
180.77855227397211
 51
251.4670524456875
  0
ARC
  5
21F8
  8
0
 10
4.366038619762489
 20
12.53608036336632
 30
0.0
 40
0.0336973677431863
 50
288.55343728480022
 51
359.25434839405341
  0
ARC
  5
21F9
  8
0
 10
4.3661824530137059
 20
12.47229473576051
 30
0.0
 40
0.0335508672304895
 50
0.54581293699739
 51
71.621597594820756
  0
ARC
  5
21FA
  8
0
 10
3.054004679458588
 20
13.153399609468289
 30
0.0
 40
0.0322250246693903
 50
99.088568454823616
 51
179.6161387570248
  0
ARC
  5
21FB
  8
0
 10
4.3668811567938981
 20
13.1532305485962
 30
0.0
 40
0.0328542325585782
 50
0.6713541281057863
 51
89.961921640081286
  0
ARC
  5
21FC
  8
0
 10
3.7477083120890211
 20
-47.4765543076021
 30
0.0
 40
60.66579911600499
 50
89.415191782689419
 51
90.659990127031818
  0
ARC
  5
21FD
  8
0
 10
3.2807404900377648
 20
10.881009451160089
 30
0.0
 40
1.6401945713685939
 50
90.363694449365823
 51
98.27218270898608
  0
ARC
  5
21FE
  8
0
 10
4.1407401250334646
 20
10.88130857688653
 30
0.0
 40
1.6398991397706879
 50
81.725032316482952
 51
89.639959117898286
  0
ARC
  5
2206
  8
0
 10
5.8261114525770497
 20
10.794348795994891
 30
0.0
 40
0.0314951494381374
 50
270.49933339176903
 51
0.0425864077299048
  0
ARC
  5
2207
  8
0
 10
5.5759365452466989
 20
10.103915028016839
 30
0.0
 40
0.6687050482697861
 50
79.64013745304193
 51
101.3598625370245
  0
ARC
  5
2208
  8
0
 10
5.5738051174067822
 20
10.575946801559789
 30
0.0
 40
1.1741628152473951
 50
176.36337617278261
 51
180.71268123864601
  0
ARC
  5
2209
  8
0
 10
4.5091775337174758
 20
10.65513790894601
 30
0.0
 40
0.1072746263455913
 50
127.4801387195719
 51
182.51952659744501
  0
ARC
  5
220A
  8
0
 10
4.5201236082402296
 20
10.586723443022841
 30
0.0
 40
0.1714216082075159
 50
91.005922395820576
 51
116.40042769750811
  0
ARC
  5
220B
  8
0
 10
4.5954601746403823
 20
9.2706640384912191
 30
0.0
 40
1.489516453756244
 50
89.199557789351374
 51
93.015050728572305
  0
ARC
  5
220C
  8
0
 10
7.606050462161746
 20
12.39376564653343
 30
0.0
 40
3.2077678148529478
 50
181.72309573668241
 51
183.7541994998117
  0
ARC
  5
220D
  8
0
 10
4.4888609167519622
 20
12.189224792142911
 30
0.0
 40
0.0838747912161175
 50
183.75419949981199
 51
259.37441990659852
  0
ARC
  5
220E
  8
0
 10
4.5865480561707272
 20
12.832183218463831
 30
0.0
 40
0.7341672202449345
 50
261.13400234256687
 51
272.32007809119631
  0
ARC
  5
220F
  8
0
 10
5.281746159540079
 20
31.452263597002641
 30
0.0
 40
20.663476285392498
 50
269.24639433027289
 51
269.3025381026705
  0
ARC
  5
2210
  8
0
 10
4.8466545985744016
 20
11.412088442031241
 30
0.0
 40
0.6482999599150658
 50
286.44783686182029
 51
287.5621436298141
  0
LINE
  5
2211
  8
0
 10
3.7760746254000002
 20
13.064332263100001
 30
0.0
 11
3.7833730765807081
 21
13.09993289457646
 31
0.0
  0
LINE
  5
2212
  8
0
 10
3.8913774147356519
 20
13.016683247601099
 30
0.0
 11
3.9115242821128069
 21
13.04687168624932
 31
0.0
  0
LINE
  5
2213
  8
0
 10
3.9839698206427392
 20
12.92442107494832
 30
0.0
 11
4.0143437919367679
 21
12.94404198649872
 31
0.0
  0
LINE
  5
2214
  8
0
 10
4.0321007643192877
 20
12.8088621640558
 30
0.0
 11
4.0673635146058276
 21
12.816052250757719
 31
0.0
  0
LINE
  5
2215
  8
0
 10
4.03254892759848
 20
12.67900471075269
 30
0.0
 11
4.0675772893511164
 21
12.67161273055574
 31
0.0
  0
LINE
  5
2216
  8
0
 10
3.9852127748036952
 20
12.5631102618729
 30
0.0
 11
4.0148142281070349
 21
12.5432803881966
 31
0.0
  0
LINE
  5
2217
  8
0
 10
3.6452105591338482
 20
13.06428502902601
 30
0.0
 11
3.6381404322161019
 21
13.099932910259261
 31
0.0
  0
LINE
  5
2218
  8
0
 10
3.530534640272919
 20
13.016944967750179
 30
0.0
 11
3.5104952591103258
 21
13.047205750019829
 31
0.0
  0
LINE
  5
2219
  8
0
 10
3.4377565199784219
 20
12.9247392309573
 30
0.0
 11
3.4075835820013158
 21
12.94466649902167
 31
0.0
  0
LINE
  5
221A
  8
0
 10
3.3895893406533522
 20
12.80971047447748
 30
0.0
 11
3.3543726256172071
 21
12.81710603134518
 31
0.0
  0
LINE
  5
221B
  8
0
 10
3.388968806967652
 20
12.67898892311945
 30
0.0
 11
3.353936121867882
 21
12.67161322270255
 31
0.0
  0
LINE
  5
221C
  8
0
 10
3.4363014988555549
 20
12.563110764991229
 30
0.0
 11
3.4065761174537159
 21
12.543467736734179
 31
0.0
  0
LINE
  5
221D
  8
0
 10
3.5290624347887261
 20
12.46967591538432
 30
0.0
 11
3.5099520142
 21
12.439762016684289
 31
0.0
  0
LINE
  5
221E
  8
0
 10
3.6447968086253111
 20
12.4214641576069
 30
0.0
 11
3.637620129968655
 21
12.38677734459713
 31
0.0
  0
LINE
  5
221F
  8
0
 10
3.7765047874999991
 20
12.4214205105167
 30
0.0
 11
3.7835884360339449
 21
12.3867209911866
 31
0.0
  0
LINE
  5
2220
  8
0
 10
3.8924514105656201
 20
12.469675411341511
 30
0.0
 11
3.9115614977999988
 21
12.439762017941209
 31
0.0
  0
ATTDEF
  5
22B1
  8
DEFPOINTS
 10
3.6960291854132938
 20
8.5131671207775597
 30
0.0
 40
0.001
  1
K-73176-4
  3

  2
MODELNUMBER
 70
     0
1001
AcDbAttr
1070
     0
1070
     1
  0
ATTDEF
  5
22B2
  8
DEFPOINTS
 10
3.6960291854132938
 20
8.5115004541108945
 30
0.0
 40
0.001
  1
COMPOSED
  3

  2
TRADENAME
 70
     0
1001
AcDbAttr
1070
     0
1070
     1
  0
ATTDEF
  5
22B3
  8
DEFPOINTS
 10
3.6960291854132938
 20
8.5098337874442223
 30
0.0
 40
0.001
  1
BIDET FAUCET
  3

  2
PRODUCT
 70
     0
1001
AcDbAttr
1070
     0
1070
     1
  0
ATTDEF
  5
22B4
  8
DEFPOINTS
 10
3.6960291854132938
 20
8.5081671207775571
 30
0.0
 40
0.001
  1
METAL
  3

  2
MATERIAL
 70
     0
1001
AcDbAttr
1070
     0
1070
     1
  0
ENDSEC
  0
EOF
