  0
SECTION
  2
HEADER
  9
$ACADVER
  1
AC1009
  9
$INSBASE
 10
3767.7177896130669978
 20
198.9336597105721012
 30
0.0
  9
$EXTMIN
 10
3766.7138526051171539
 20
191.1245397537732913
 30
0.0
  9
$EXTMAX
 10
3769.8646400067668765
 20
200.6914889527949128
 30
0.0
  9
$LIMMIN
 10
0.0
 20
0.0
  9
$LIMMAX
 10
11.6929133858000007
 20
8.2677165353999982
  9
$ORTHOMODE
 70
     0
  9
$REGENMODE
 70
     1
  9
$FILLMODE
 70
     1
  9
$QTEXTMODE
 70
     0
  9
$MIRRTEXT
 70
     0
  9
$DRAGMODE
 70
     2
  9
$LTSCALE
 40
0.6431102362
  9
$OSMODE
 70
     7
  9
$ATTMODE
 70
     1
  9
$TEXTSIZE
 40
0.2
  9
$TRACEWID
 40
0.05
  9
$TEXTSTYLE
  7
STANDARD
  9
$CLAYER
  8
0
  9
$CELTYPE
  6
BYLAYER
  9
$CECOLOR
 62
   256
  9
$DIMSCALE
 40
1.0
  9
$DIMASZ
 40
0.1875
  9
$DIMEXO
 40
0.0625
  9
$DIMDLI
 40
0.4443307087
  9
$DIMRND
 40
0.0
  9
$DIMDLE
 40
0.0
  9
$DIMEXE
 40
0.125
  9
$DIMTP
 40
0.01
  9
$DIMTM
 40
0.01
  9
$DIMTXT
 40
2.0
  9
$DIMCEN
 40
0.1052362205
  9
$DIMTSZ
 40
0.0
  9
$DIMTOL
 70
     1
  9
$DIMLIM
 70
     0
  9
$DIMTIH
 70
     1
  9
$DIMTOH
 70
     1
  9
$DIMSE1
 70
     0
  9
$DIMSE2
 70
     0
  9
$DIMTAD
 70
     0
  9
$DIMZIN
 70
     0
  9
$DIMBLK
  1

  9
$DIMASO
 70
     1
  9
$DIMSHO
 70
     1
  9
$DIMPOST
  1
\X
  9
$DIMAPOST
  1

  9
$DIMALT
 70
     1
  9
$DIMALTD
 70
     2
  9
$DIMALTF
 40
25.3999999999999986
  9
$DIMLFAC
 40
1.0
  9
$DIMTOFL
 70
     0
  9
$DIMTVP
 40
0.0
  9
$DIMTIX
 70
     0
  9
$DIMSOXD
 70
     0
  9
$DIMSAH
 70
     0
  9
$DIMBLK1
  1

  9
$DIMBLK2
  1

  9
$DIMSTYLE
  2
STANDARD
  9
$DIMCLRD
 70
     0
  9
$DIMCLRE
 70
     0
  9
$DIMCLRT
 70
     0
  9
$DIMTFAC
 40
1.0
  9
$DIMGAP
 40
0.09
  9
$LUNITS
 70
     2
  9
$LUPREC
 70
     4
  9
$SKETCHINC
 40
0.1
  9
$FILLETRAD
 40
0.0
  9
$AUNITS
 70
     0
  9
$AUPREC
 70
     0
  9
$MENU
  1
.
  9
$ELEVATION
 40
0.0
  9
$PELEVATION
 40
0.0
  9
$THICKNESS
 40
0.0
  9
$LIMCHECK
 70
     0
  9
$BLIPMODE
 70
     0
  9
$CHAMFERA
 40
0.0
  9
$CHAMFERB
 40
0.0
  9
$SKPOLY
 70
     0
  9
$TDCREATE
 40
2458060.468368056230247
  9
$TDUPDATE
 40
2459636.5583217591047287
  9
$TDINDWG
 40
0.9871829861
  9
$TDUSRTIMER
 40
0.9871829861
  9
$USRTIMER
 70
     1
  9
$ANGBASE
 50
0.0
  9
$ANGDIR
 70
     0
  9
$PDMODE
 70
     0
  9
$PDSIZE
 40
0.3125
  9
$PLINEWID
 40
0.0
  9
$COORDS
 70
     1
  9
$SPLFRAME
 70
     0
  9
$SPLINETYPE
 70
     6
  9
$SPLINESEGS
 70
     8
  9
$ATTDIA
 70
     1
  9
$ATTREQ
 70
     1
  9
$HANDLING
 70
     1
  9
$HANDSEED
  5
2CA2E
  9
$SURFTAB1
 70
     6
  9
$SURFTAB2
 70
     6
  9
$SURFTYPE
 70
     6
  9
$SURFU
 70
     6
  9
$SURFV
 70
     6
  9
$UCSNAME
  2

  9
$UCSORG
 10
0.0
 20
0.0
 30
0.0
  9
$UCSXDIR
 10
1.0
 20
0.0
 30
0.0
  9
$UCSYDIR
 10
0.0
 20
1.0
 30
0.0
  9
$PUCSNAME
  2

  9
$PUCSORG
 10
0.0
 20
0.0
 30
0.0
  9
$PUCSXDIR
 10
1.0
 20
0.0
 30
0.0
  9
$PUCSYDIR
 10
0.0
 20
1.0
 30
0.0
  9
$USERI1
 70
     0
  9
$USERI2
 70
     0
  9
$USERI3
 70
     0
  9
$USERI4
 70
     0
  9
$USERI5
 70
     0
  9
$USERR1
 40
0.0
  9
$USERR2
 40
0.0
  9
$USERR3
 40
0.0
  9
$USERR4
 40
0.0
  9
$USERR5
 40
0.0
  9
$WORLDVIEW
 70
     1
  9
$SHADEDGE
 70
     3
  9
$SHADEDIF
 70
    70
  9
$TILEMODE
 70
     1
  9
$MAXACTVP
 70
    64
  9
$PLIMCHECK
 70
     0
  9
$PEXTMIN
 10
1.0000000000000000E+20
 20
1.0000000000000000E+20
 30
1.0000000000000000E+20
  9
$PEXTMAX
 10
-1.0000000000000000E+20
 20
-1.0000000000000000E+20
 30
-1.0000000000000000E+20
  9
$PLIMMIN
 10
0.0
 20
0.0
  9
$PLIMMAX
 10
12.0
 20
9.0
  9
$UNITMODE
 70
     0
  9
$VISRETAIN
 70
     1
  9
$PLINEGEN
 70
     0
  9
$PSLTSCALE
 70
     1
  0
ENDSEC
  0
SECTION
  2
TABLES
  0
TABLE
  2
VPORT
 70
     1
  0
VPORT
  2
*ACTIVE
 70
     0
 10
0.0
 20
0.0
 11
1.0
 21
1.0
 12
504.8970005490638755
 22
44.1863117776005367
 13
0.0
 23
0.0
 14
1.0
 24
1.0
 15
0.0
 25
0.0
 16
0.0
 26
0.0
 36
92.3385285193394054
 17
3263.3890380859379547
 27
151.7217025756835938
 37
0.0
 40
9.639667562659989
 41
2.2831541218637992
 42
50.0
 43
0.0
 44
0.0
 50
0.0
 51
0.0
 71
     0
 72
   100
 73
     1
 74
     1
 75
     0
 76
     0
 77
     0
 78
     0
  0
ENDTAB
  0
TABLE
  2
LTYPE
 70
     2
  0
LTYPE
  2
CONTINUOUS
 70
     0
  3
Solid line
 72
    65
 73
     0
 40
0.0
  0
LTYPE
  2
PHANTOM2
 70
     0
  3
___ _ _ ___ _ _ ___ _ _ ___ _ _
 72
    65
 73
     6
 40
1.25
 49
0.625
 49
-0.125
 49
0.125
 49
-0.125
 49
0.125
 49
-0.125
  0
ENDTAB
  0
TABLE
  2
LAYER
 70
     2
  0
LAYER
  2
0
 70
     0
 62
   255
  6
CONTINUOUS
  0
LAYER
  2
DEFPOINTS
 70
     0
 62
     7
  6
CONTINUOUS
  0
ENDTAB
  0
TABLE
  2
STYLE
 70
     1
  0
STYLE
  2
STANDARD
 70
     0
 40
0.0
 41
0.8
 50
0.0
 71
     0
 42
0.2
  3
txt
  4

  0
ENDTAB
  0
TABLE
  2
VIEW
 70
     0
  0
ENDTAB
  0
TABLE
  2
UCS
 70
     0
  0
ENDTAB
  0
TABLE
  2
APPID
 70
    10
  0
APPID
  2
ACAD
 70
     0
  0
APPID
  2
ACAD_MLEADERVER
 70
     0
  0
APPID
  2
ACAD_EXEMPT_FROM_CAD_STANDARDS
 70
     0
  0
APPID
  2
ACAD_NAV_VCDISPLAY
 70
     0
  0
APPID
  2
ACAECLAYERSTANDARD
 70
     0
  0
APPID
  2
ACCMTRANSPARENCY
 70
     0
  0
APPID
  2
ACAD_DSTYLE_DIMJAG
 70
     0
  0
APPID
  2
ACAD_DSTYLE_DIMTALN
 70
     0
  0
APPID
  2
ACDBATTR
 70
     0
  0
APPID
  2
ACADANNOTATIVE
 70
     0
  0
ENDTAB
  0
TABLE
  2
DIMSTYLE
 70
     1
  0
DIMSTYLE
  2
STANDARD
 70
     0
  3

  4

  5

  6

  7

 40
1.0
 41
0.1875
 42
0.0625
 43
0.38
 44
0.125
 45
0.0
 46
0.0
 47
0.01
 48
0.01
140
0.15625
141
0.09
142
0.0
143
25.3999999999999986
144
1.0
145
0.0
146
1.0
147
0.09
 71
     1
 72
     0
 73
     1
 74
     1
 75
     0
 76
     0
 77
     0
 78
     4
170
     0
171
     2
172
     0
173
     0
174
     0
175
     0
176
     0
177
     0
178
     0
  0
ENDTAB
  0
ENDSEC
  0
SECTION
  2
BLOCKS
  0
BLOCK
  8
0
  2
$MODEL_SPACE
 70
     0
 10
0.0
 20
0.0
 30
0.0
  3
$MODEL_SPACE
  1

  0
ENDBLK
  5
21
  8
0
  0
BLOCK
 67
     1
  8
0
  2
$PAPER_SPACE
 70
     0
 10
0.0
 20
0.0
 30
0.0
  3
$PAPER_SPACE
  1

  0
ENDBLK
  5
1D
 67
     1
  8
0
  0
ENDSEC
  0
SECTION
  2
ENTITIES
  0
ATTDEF
  5
2143C
  8
DEFPOINTS
 10
3767.7178690434921009
 20
198.9370902986399017
 30
0.0
 40
0.001
  1
K-73168-4
  3

  2
MODELNUMBER
 70
     0
1001
ACDBATTR
1070
     0
1070
     1
  0
ATTDEF
  5
2143D
  8
DEFPOINTS
 10
3767.7178690434921009
 20
198.9354236319732081
 30
0.0
 40
0.001
  1
COMPOSED
  3

  2
TRADENAME
 70
     0
1001
ACDBATTR
1070
     0
1070
     1
  0
ATTDEF
  5
2143E
  8
DEFPOINTS
 10
3767.7178690434921009
 20
198.9337569653064861
 30
0.0
 40
0.001
  1
BATHROOM SINK FAUCET
  3

  2
PRODUCT
 70
     0
1001
ACDBATTR
1070
     0
1070
     1
  0
LINE
  5
2C8FC
  8
0
 10
3767.0288132351170134
 20
191.2740741034220946
 30
0.0
 11
3767.0288132351170134
 21
198.9332475832721059
 31
0.0
  0
LINE
  5
2C8FD
  8
0
 10
3767.6095125781648676
 20
199.6140746834103084
 30
0.0
 11
3767.6095125781648676
 21
200.6718039133720879
 31
0.0
  0
LINE
  5
2C8FE
  8
0
 10
3767.8260480112639925
 20
199.6197176400243052
 30
0.0
 11
3767.8260480112639925
 21
200.6718039133720879
 31
0.0
  0
LINE
  5
2C8FF
  8
0
 10
3768.4067659910160728
 20
198.9332475832721059
 30
0.0
 11
3768.4067659910160728
 21
191.2740741034220946
 31
0.0
  0
LINE
  5
2C900
  8
0
 10
3767.8063620241641729
 20
200.6914889527720902
 30
0.0
 11
3767.629198565164188
 21
200.6914889527720902
 31
0.0
  0
ARC
  5
2C901
  8
0
 10
3767.1784067338858222
 20
191.2741332636931872
 30
0.0
 40
0.1495935104675409
 50
180.0226589638018027
 51
269.9950973132457079
  0
ARC
  5
2C902
  8
0
 10
3767.6291976176030403
 20
200.6718039133560012
 30
0.0
 40
0.0196850394389376
 50
89.9972420045311452
 51
179.9999999530535888
  0
ARC
  5
2C903
  8
0
 10
3768.2571724922481735
 20
191.2741332636933009
 30
0.0
 40
0.1495935104676034
 50
270.0049026901155003
 51
359.9773410361738115
  0
ARC
  5
2C904
  8
0
 10
3767.7177896130169756
 20
198.9336597105721012
 30
0.0
 40
1.0039370079000001
 50
313.3359227383904795
 51
318.1141312818646156
  0
ARC
  5
2C905
  8
0
 10
3767.7177896130169756
 20
198.9336597105721012
 30
0.0
 40
1.0039370079000001
 50
41.8858687181354625
 51
83.8095381663371484
  0
ARC
  5
2C906
  8
0
 10
3767.7177896130169756
 20
198.9336597105721012
 30
0.0
 40
1.0039370079000001
 50
96.1915316845126256
 51
226.6640772694543955
  0
ARC
  5
2C907
  8
0
 10
3767.8063629718249103
 20
200.6718039133560012
 30
0.0
 40
0.0196850394389454
 50
0.0000000469561827
 51
90.0027582865304367
  0
ARC
  5
2C908
  8
0
 10
3767.7177896130669978
 20
198.9336595874335103
 30
0.0
 40
0.6889765011381228
 50
359.9657374366803992
 51
180.0342625633196008
  0
LINE
  5
2C909
  8
0
 10
3767.1783939334650313
 20
191.1245397537732913
 30
0.0
 11
3768.2571852926780593
 21
191.1245397537732913
 31
0.0
  0
LINE
  5
2C90A
  8
0
 10
3769.5103092980671136
 20
199.5727726983805042
 30
0.0
 11
3769.5103092980671136
 21
198.2945467227636982
 31
0.0
  0
LINE
  5
2C90B
  8
0
 10
3768.9973171720671417
 20
199.6029510491721055
 30
0.0
 11
3768.623301424066085
 21
199.6029510491721055
 31
0.0
  0
LINE
  5
2C90C
  8
0
 10
3769.0170022114662061
 20
199.5832660097721032
 30
0.0
 11
3769.0170022114662061
 21
198.2840534113720992
 31
0.0
  0
LINE
  5
2C90D
  8
0
 10
3769.1362935500660569
 20
199.606215035072097
 30
0.0
 11
3769.1362935500660569
 21
198.2611043860721054
 31
0.0
  0
ARC
  5
2C90E
  8
0
 10
3768.9973171720671417
 20
199.5832660097721032
 30
0.0
 40
0.0196850394000059
 50
359.9999976715091066
 51
89.9999999999739515
  0
ARC
  5
2C910
  8
0
 10
3768.6790656755088094
 20
221.217679073839804
 30
0.0
 40
21.6147999581789492
 50
267.6572804249872206
 51
269.8521818473457756
  0
LINE
  5
2C911
  8
0
 10
3767.795522298466949
 20
199.62094486857211
 30
0.0
 11
3767.7386424008368522
 21
199.6223204476272031
 31
0.0
  0
LINE
  5
2C912
  8
0
 10
3769.0170022114662061
 20
199.5773604979721085
 30
0.0
 11
3769.0372485970660819
 21
199.5771838103721052
 31
0.0
  0
LINE
  5
2C913
  8
0
 10
3769.0372485970660819
 20
199.5771838103721052
 30
0.0
 11
3769.0372485970660819
 21
198.2901356107720972
 31
0.0
  0
ARC
  5
2C914
  8
0
 10
3768.8343865727360935
 20
198.9336597358029053
 30
0.0
 40
0.6747416064435372
 50
63.4203884429165683
 51
72.5032666919554742
  0
LINE
  5
2C915
  8
0
 10
3769.1362935500660569
 20
199.606215035072097
 30
0.0
 11
3769.8270098785460505
 21
199.6001872450434007
 31
0.0
  0
ARC
  5
2C916
  8
0
 10
3769.8267350270348288
 20
199.5686923811724114
 30
0.0
 40
0.031496063234073
 50
1.157354442684861
 51
89.5000000042034713
  0
ARC
  5
2C917
  8
0
 10
3769.541939108448787
 20
199.5710400142534127
 30
0.0
 40
0.0316772331346738
 50
92.5006725191022525
 51
176.8644654834241123
  0
LINE
  5
2C918
  8
0
 10
3768.9973171720671417
 20
198.2643683719720968
 30
0.0
 11
3768.623301424066085
 21
198.2643683719720968
 31
0.0
  0
ARC
  5
2C919
  8
0
 10
3768.9973171720671417
 20
198.2840534113720992
 30
0.0
 40
0.0196850394000059
 50
270.0000000000259774
 51
0.0000023284909014
  0
ARC
  5
2C91A
  8
0
 10
3768.6790656755088094
 20
176.6496403473043983
 30
0.0
 40
21.6147999581789492
 50
90.1478181526542386
 51
90.7218218730028809
  0
LINE
  5
2C91B
  8
0
 10
3769.0170022114662061
 20
198.2899589231720938
 30
0.0
 11
3769.0372485970660819
 21
198.2901356107720972
 31
0.0
  0
ARC
  5
2C91C
  8
0
 10
3768.8343865727360935
 20
198.9336596853412971
 30
0.0
 40
0.6747416064435372
 50
287.4967333080444973
 51
296.5796115570835241
  0
LINE
  5
2C91D
  8
0
 10
3769.1362935500660569
 20
198.2611043860721054
 30
0.0
 11
3769.8270098785460505
 21
198.2671321761008016
 31
0.0
  0
ARC
  5
2C91E
  8
0
 10
3769.8267350270348288
 20
198.298627039971791
 30
0.0
 40
0.031496063234073
 50
270.4999999957965997
 51
358.8426455573151088
  0
ARC
  5
2C91F
  8
0
 10
3769.541939108448787
 20
198.2962794068907897
 30
0.0
 40
0.0316772331346738
 50
183.1355345165758877
 51
267.4993274808977048
  0
ARC
  5
2C920
  8
0
 10
3738.3685769169060222
 20
198.933659709585811
 30
0.0
 40
31.4960630898610496
 50
358.843550243464108
 51
1.156449760004836
  0
ENDSEC
  0
EOF
