  0
SECTION
  2
HEADER
  9
$ACADVER
  1
AC1009
  9
$INSBASE
 10
3761.5008866630578268
 20
192.220813866380297
 30
0.0
  9
$EXTMIN
 10
3760.4969496551079828
 20
192.220813866380297
 30
0.0
  9
$EXTMAX
 10
3763.6477370567581602
 20
200.9685765627596084
 30
0.0
  9
$LIMMIN
 10
0.0
 20
0.0
  9
$LIMMAX
 10
11.6929133858000007
 20
8.2677165353999982
  9
$ORTHOMODE
 70
     0
  9
$REGENMODE
 70
     1
  9
$FILLMODE
 70
     1
  9
$QTEXTMODE
 70
     0
  9
$MIRRTEXT
 70
     0
  9
$DRAGMODE
 70
     2
  9
$LTSCALE
 40
0.6431102362
  9
$OSMODE
 70
     7
  9
$ATTMODE
 70
     1
  9
$TEXTSIZE
 40
0.2
  9
$TRACEWID
 40
0.05
  9
$TEXTSTYLE
  7
STANDARD
  9
$CLAYER
  8
0
  9
$CELTYPE
  6
BYLAYER
  9
$CECOLOR
 62
   256
  9
$DIMSCALE
 40
1.0
  9
$DIMASZ
 40
0.1875
  9
$DIMEXO
 40
0.0625
  9
$DIMDLI
 40
0.4443307087
  9
$DIMRND
 40
0.0
  9
$DIMDLE
 40
0.0
  9
$DIMEXE
 40
0.125
  9
$DIMTP
 40
0.01
  9
$DIMTM
 40
0.01
  9
$DIMTXT
 40
2.0
  9
$DIMCEN
 40
0.1052362205
  9
$DIMTSZ
 40
0.0
  9
$DIMTOL
 70
     1
  9
$DIMLIM
 70
     0
  9
$DIMTIH
 70
     1
  9
$DIMTOH
 70
     1
  9
$DIMSE1
 70
     0
  9
$DIMSE2
 70
     0
  9
$DIMTAD
 70
     0
  9
$DIMZIN
 70
     0
  9
$DIMBLK
  1

  9
$DIMASO
 70
     1
  9
$DIMSHO
 70
     1
  9
$DIMPOST
  1
\X
  9
$DIMAPOST
  1

  9
$DIMALT
 70
     1
  9
$DIMALTD
 70
     2
  9
$DIMALTF
 40
25.3999999999999986
  9
$DIMLFAC
 40
1.0
  9
$DIMTOFL
 70
     0
  9
$DIMTVP
 40
0.0
  9
$DIMTIX
 70
     0
  9
$DIMSOXD
 70
     0
  9
$DIMSAH
 70
     0
  9
$DIMBLK1
  1

  9
$DIMBLK2
  1

  9
$DIMSTYLE
  2
STANDARD
  9
$DIMCLRD
 70
     0
  9
$DIMCLRE
 70
     0
  9
$DIMCLRT
 70
     0
  9
$DIMTFAC
 40
1.0
  9
$DIMGAP
 40
0.09
  9
$LUNITS
 70
     2
  9
$LUPREC
 70
     4
  9
$SKETCHINC
 40
0.1
  9
$FILLETRAD
 40
0.0
  9
$AUNITS
 70
     0
  9
$AUPREC
 70
     0
  9
$MENU
  1
.
  9
$ELEVATION
 40
0.0
  9
$PELEVATION
 40
0.0
  9
$THICKNESS
 40
0.0
  9
$LIMCHECK
 70
     0
  9
$BLIPMODE
 70
     0
  9
$CHAMFERA
 40
0.0
  9
$CHAMFERB
 40
0.0
  9
$SKPOLY
 70
     0
  9
$TDCREATE
 40
2458060.468368056230247
  9
$TDUPDATE
 40
2459636.5585532411932945
  9
$TDINDWG
 40
0.9869167824
  9
$TDUSRTIMER
 40
0.9869167824
  9
$USRTIMER
 70
     1
  9
$ANGBASE
 50
0.0
  9
$ANGDIR
 70
     0
  9
$PDMODE
 70
     0
  9
$PDSIZE
 40
0.3125
  9
$PLINEWID
 40
0.0
  9
$COORDS
 70
     1
  9
$SPLFRAME
 70
     0
  9
$SPLINETYPE
 70
     6
  9
$SPLINESEGS
 70
     8
  9
$ATTDIA
 70
     1
  9
$ATTREQ
 70
     1
  9
$HANDLING
 70
     1
  9
$HANDSEED
  5
2C997
  9
$SURFTAB1
 70
     6
  9
$SURFTAB2
 70
     6
  9
$SURFTYPE
 70
     6
  9
$SURFU
 70
     6
  9
$SURFV
 70
     6
  9
$UCSNAME
  2

  9
$UCSORG
 10
0.0
 20
0.0
 30
0.0
  9
$UCSXDIR
 10
1.0
 20
0.0
 30
0.0
  9
$UCSYDIR
 10
0.0
 20
1.0
 30
0.0
  9
$PUCSNAME
  2

  9
$PUCSORG
 10
0.0
 20
0.0
 30
0.0
  9
$PUCSXDIR
 10
1.0
 20
0.0
 30
0.0
  9
$PUCSYDIR
 10
0.0
 20
1.0
 30
0.0
  9
$USERI1
 70
     0
  9
$USERI2
 70
     0
  9
$USERI3
 70
     0
  9
$USERI4
 70
     0
  9
$USERI5
 70
     0
  9
$USERR1
 40
0.0
  9
$USERR2
 40
0.0
  9
$USERR3
 40
0.0
  9
$USERR4
 40
0.0
  9
$USERR5
 40
0.0
  9
$WORLDVIEW
 70
     1
  9
$SHADEDGE
 70
     3
  9
$SHADEDIF
 70
    70
  9
$TILEMODE
 70
     1
  9
$MAXACTVP
 70
    64
  9
$PLIMCHECK
 70
     0
  9
$PEXTMIN
 10
1.0000000000000000E+20
 20
1.0000000000000000E+20
 30
1.0000000000000000E+20
  9
$PEXTMAX
 10
-1.0000000000000000E+20
 20
-1.0000000000000000E+20
 30
-1.0000000000000000E+20
  9
$PLIMMIN
 10
0.0
 20
0.0
  9
$PLIMMAX
 10
12.0
 20
9.0
  9
$UNITMODE
 70
     0
  9
$VISRETAIN
 70
     1
  9
$PLINEGEN
 70
     0
  9
$PSLTSCALE
 70
     1
  0
ENDSEC
  0
SECTION
  2
TABLES
  0
TABLE
  2
VPORT
 70
     1
  0
VPORT
  2
*ACTIVE
 70
     0
 10
0.0
 20
0.0
 11
1.0
 21
1.0
 12
498.6833052699956284
 22
44.8729926388863092
 13
0.0
 23
0.0
 14
1.0
 24
1.0
 15
0.0
 25
0.0
 16
0.0
 26
0.0
 36
92.3385285193394054
 17
3263.3890380859379547
 27
151.7217025756835938
 37
0.0
 40
8.8136994313282635
 41
2.2831541218637992
 42
50.0
 43
0.0
 44
0.0
 50
0.0
 51
0.0
 71
     0
 72
   100
 73
     1
 74
     1
 75
     0
 76
     0
 77
     0
 78
     0
  0
ENDTAB
  0
TABLE
  2
LTYPE
 70
     2
  0
LTYPE
  2
CONTINUOUS
 70
     0
  3
Solid line
 72
    65
 73
     0
 40
0.0
  0
LTYPE
  2
PHANTOM2
 70
     0
  3
___ _ _ ___ _ _ ___ _ _ ___ _ _
 72
    65
 73
     6
 40
1.25
 49
0.625
 49
-0.125
 49
0.125
 49
-0.125
 49
0.125
 49
-0.125
  0
ENDTAB
  0
TABLE
  2
LAYER
 70
     2
  0
LAYER
  2
0
 70
     0
 62
   255
  6
CONTINUOUS
  0
LAYER
  2
DEFPOINTS
 70
     0
 62
     7
  6
CONTINUOUS
  0
ENDTAB
  0
TABLE
  2
STYLE
 70
     1
  0
STYLE
  2
STANDARD
 70
     0
 40
0.0
 41
0.8
 50
0.0
 71
     0
 42
0.2
  3
txt
  4

  0
ENDTAB
  0
TABLE
  2
VIEW
 70
     0
  0
ENDTAB
  0
TABLE
  2
UCS
 70
     0
  0
ENDTAB
  0
TABLE
  2
APPID
 70
    10
  0
APPID
  2
ACAD
 70
     0
  0
APPID
  2
ACAD_MLEADERVER
 70
     0
  0
APPID
  2
ACAD_EXEMPT_FROM_CAD_STANDARDS
 70
     0
  0
APPID
  2
ACAD_NAV_VCDISPLAY
 70
     0
  0
APPID
  2
ACAECLAYERSTANDARD
 70
     0
  0
APPID
  2
ACCMTRANSPARENCY
 70
     0
  0
APPID
  2
ACAD_DSTYLE_DIMJAG
 70
     0
  0
APPID
  2
ACAD_DSTYLE_DIMTALN
 70
     0
  0
APPID
  2
ACDBATTR
 70
     0
  0
APPID
  2
ACADANNOTATIVE
 70
     0
  0
ENDTAB
  0
TABLE
  2
DIMSTYLE
 70
     1
  0
DIMSTYLE
  2
STANDARD
 70
     0
  3

  4

  5

  6

  7

 40
1.0
 41
0.1875
 42
0.0625
 43
0.38
 44
0.125
 45
0.0
 46
0.0
 47
0.01
 48
0.01
140
0.15625
141
0.09
142
0.0
143
25.3999999999999986
144
1.0
145
0.0
146
1.0
147
0.09
 71
     1
 72
     0
 73
     1
 74
     1
 75
     0
 76
     0
 77
     0
 78
     4
170
     0
171
     2
172
     0
173
     0
174
     0
175
     0
176
     0
177
     0
178
     0
  0
ENDTAB
  0
ENDSEC
  0
SECTION
  2
BLOCKS
  0
BLOCK
  8
0
  2
$MODEL_SPACE
 70
     0
 10
0.0
 20
0.0
 30
0.0
  3
$MODEL_SPACE
  1

  0
ENDBLK
  5
21
  8
0
  0
BLOCK
 67
     1
  8
0
  2
$PAPER_SPACE
 70
     0
 10
0.0
 20
0.0
 30
0.0
  3
$PAPER_SPACE
  1

  0
ENDBLK
  5
1D
 67
     1
  8
0
  0
ENDSEC
  0
SECTION
  2
ENTITIES
  0
ATTDEF
  5
2143C
  8
DEFPOINTS
 10
3761.5009660934838394
 20
192.2242444544480122
 30
0.0
 40
0.001
  1
K-73168-4
  3

  2
MODELNUMBER
 70
     0
1001
ACDBATTR
1070
     0
1070
     1
  0
ATTDEF
  5
2143D
  8
DEFPOINTS
 10
3761.5009660934838394
 20
192.2225777877812902
 30
0.0
 40
0.001
  1
COMPOSED
  3

  2
TRADENAME
 70
     0
1001
ACDBATTR
1070
     0
1070
     1
  0
ATTDEF
  5
2143E
  8
DEFPOINTS
 10
3761.5009660934838394
 20
192.2209111211147103
 30
0.0
 40
0.001
  1
BATHROOM SINK FAUCET
  3

  2
PRODUCT
 70
     0
1001
ACDBATTR
1070
     0
1070
     1
  0
LINE
  5
2C7B5
  8
0
 10
3760.4969496552080273
 20
192.220813866380297
 30
0.0
 11
3762.5048236709089906
 21
192.220813866380297
 31
0.0
  0
LINE
  5
2C7B6
  8
0
 10
3762.4851386315081072
 20
192.378294181380312
 30
0.0
 11
3760.5166346945079567
 21
192.378294181380312
 31
0.0
  0
LINE
  5
2C7B7
  8
0
 10
3760.4969496552080273
 20
192.220813866380297
 30
0.0
 11
3760.4969496552080273
 21
192.3586091419803097
 31
0.0
  0
LINE
  5
2C7B8
  8
0
 10
3760.8119102851078424
 20
192.4097902442802024
 30
0.0
 11
3760.8119102851078424
 21
200.1144945041756955
 31
0.0
  0
LINE
  5
2C7B9
  8
0
 10
3760.8119102851078424
 20
200.1775256829766079
 30
0.0
 11
3760.8119102851078424
 21
200.932896186580308
 31
0.0
  0
LINE
  5
2C7BA
  8
0
 10
3760.9615165843079012
 20
200.9685142369802975
 30
0.0
 11
3762.0402567418082072
 21
200.9685142369802975
 31
0.0
  0
ARC
  5
2C7BB
  8
0
 10
3760.8434063479371616
 20
192.4097902442094892
 30
0.0
 40
0.0314960628292872
 50
179.9999998713659011
 51
270.0000003105507744
  0
ARC
  5
2C7BC
  8
0
 10
3760.5166346945079567
 20
192.3586091419803097
 30
0.0
 40
0.0196850394
 50
90.0
 51
180.0
  0
ARC
  5
2C7BD
  8
0
 10
3760.8450210735800283
 20
200.9322448929056009
 30
0.0
 40
0.03311719336196
 50
90.5416338532920548
 51
178.8731303008106863
  0
ARC
  5
2C7BE
  8
0
 10
3760.9472364429498157
 20
199.3326056692756083
 30
0.0
 40
1.6359708934839541
 50
89.4998674949874555
 51
93.5931560466365937
  0
ARC
  5
2C7BF
  8
0
 10
3760.8455615324769497
 20
200.1141023920021098
 30
0.0
 40
0.0336535317830702
 50
108.4948714269346937
 51
179.3324064419583976
  0
ARC
  5
2C7C0
  8
0
 10
3760.8457240661527976
 20
200.1780518994185911
 30
0.0
 40
0.0338178753355335
 50
180.8915757648221927
 51
251.3077820557325879
  0
ARC
  5
2C7C1
  8
0
 10
3760.8670474656000806
 20
200.0543356984852892
 30
0.0
 40
0.0971594953401335
 50
96.6925161819097667
 51
109.3305486624654037
  0
ARC
  5
2C7C2
  8
0
 10
3761.039788586197119
 20
198.5483789518800961
 30
0.0
 40
1.6129907133580399
 50
91.4340980556667944
 51
96.5525018400310131
  0
ARC
  5
2C7C3
  8
0
 10
3761.3832944644000236
 20
189.9528091173852999
 30
0.0
 40
10.2152705720392998
 50
91.2014064424073041
 51
92.1535956441705366
  0
LINE
  5
2C7C4
  8
0
 10
3760.960592817873021
 20
200.4176497126296965
 30
0.0
 11
3762.0411805082430874
 21
200.4176497126296965
 31
0.0
  0
ARC
  5
2C7C5
  8
0
 10
3760.9610551804080387
 20
197.4774720118340099
 30
0.0
 40
2.9401777371504818
 50
90.0090101430223939
 51
91.4915725896636758
  0
ARC
  5
2C7C6
  8
0
 10
3760.8952940039671375
 20
200.0029854780796086
 30
0.0
 40
0.4138082470491391
 50
91.4915725896636758
 51
97.2033118078878147
  0
ARC
  5
2C7C7
  8
0
 10
3760.8434042471280918
 20
200.4450249346429871
 30
0.0
 40
0.0314972097327986
 50
180.8227998226321063
 51
270.0038217503523015
  0
ARC
  5
2C7C8
  8
0
 10
3761.3865594328271982
 20
194.631447516339108
 30
0.0
 40
5.779699042459681
 50
90.3477467272140018
 51
93.062884994527991
  0
ARC
  5
2C7C9
  8
0
 10
3761.1137923815567774
 20
199.8357640223709097
 30
0.0
 40
0.5682710456961014
 50
93.6375437076835766
 51
98.3768502931783217
  0
ARC
  5
2C7CA
  8
0
 10
3761.0352529805868471
 20
200.3742612224999959
 30
0.0
 40
0.0240886777472398
 50
100.1576377329043055
 51
114.6273794951670055
  0
ARC
  5
2C7CB
  8
0
 10
3761.0256876615972033
 20
200.3952536420555077
 30
0.0
 40
0.0010211330897063
 50
117.5818359312107049
 51
242.418164068822108
  0
ARC
  5
2C7CC
  8
0
 10
3761.0360843493990615
 20
200.4186651386660003
 30
0.0
 40
0.0266353477070942
 50
245.9154013004537092
 51
259.0058899253011759
  0
LINE
  5
2C7CD
  8
0
 10
3761.0310047732577914
 20
200.3979723407803135
 30
0.0
 11
3761.0310047732577914
 21
200.3704180962706971
 31
0.0
  0
LINE
  5
2C7CE
  8
0
 10
3761.0688000488580656
 20
200.3550721592802972
 30
0.0
 11
3761.0688000488580656
 21
200.2352475842803017
 31
0.0
  0
LINE
  5
2C7CF
  8
0
 10
3761.0688000488580656
 20
200.2352475842803017
 30
0.0
 11
3761.0784331910581386
 21
200.2296968135802899
 31
0.0
  0
ARC
  5
2C7D0
  8
0
 10
3761.0319177900728391
 20
200.3679884612730007
 30
0.0
 40
0.0029437140813762
 50
81.4462976026013905
 51
98.5537023973986237
  0
ARC
  5
2C7D1
  8
0
 10
3761.0316316514231403
 20
200.3700612682820861
 30
0.0
 40
0.0008517811015137
 50
100.2588621476141952
 51
121.5190768258294014
  0
ARC
  5
2C7D2
  8
0
 10
3761.0313783960759793
 20
200.3704742347480021
 30
0.0
 40
0.0003673437238937
 50
121.5190768259257936
 51
158.6208479855631026
  0
ARC
  5
2C7D3
  8
0
 10
3761.0315928367608649
 20
200.3704180962706971
 30
0.0
 40
0.0005880635023762
 50
161.1447707485349952
 51
198.8552292514648911
  0
ARC
  5
2C7D4
  8
0
 10
3761.0343009321068166
 20
200.3715060605821066
 30
0.0
 40
0.0035058446470242
 50
201.3791520144353058
 51
217.5488475211402886
  0
ARC
  5
2C7D5
  8
0
 10
3761.0822214145318867
 20
200.4195857230311901
 30
0.0
 40
0.071359413911004
 50
224.7253336242374075
 51
233.4478426092532004
  0
ARC
  5
2C7D6
  8
0
 10
3761.4469185236671365
 20
200.9209040304278062
 30
0.0
 40
0.6912955353120038
 50
233.9116207754416052
 51
236.8405553571103042
  0
ARC
  5
2C7D7
  8
0
 10
3761.0248284573208366
 20
200.3348820046072092
 30
0.0
 40
0.036795561840305
 50
67.1262417634357149
 51
78.1958276215166563
  0
ARC
  5
2C7D8
  8
0
 10
3760.850599037108168
 20
199.9218956219696963
 30
0.0
 40
0.4850294774601589
 50
63.2645504969533832
 51
67.1262417634357149
  0
ARC
  5
2C7D9
  8
0
 10
3761.5008866630578268
 20
190.8917327325526117
 30
0.0
 40
9.382175105527601
 50
87.3603669888144765
 51
92.6396330111855235
  0
ARC
  5
2C7DA
  8
0
 10
3761.0789985511219129
 20
200.2305893580100076
 30
0.0
 40
0.0010565356407857
 50
122.3511968205277043
 51
237.6488031794133917
  0
ARC
  5
2C7DB
  8
0
 10
3761.094811169561126
 20
200.2757335327738986
 30
0.0
 40
0.0488632550484638
 50
250.4165250964612142
 51
261.7661148464364942
  0
ARC
  5
2C7DC
  8
0
 10
3761.2240945235262188
 20
201.5294145475228049
 30
0.0
 40
1.3091532523399001
 50
264.0247535149248961
 51
267.6552423631893021
  0
ARC
  5
2C7DD
  8
0
 10
3761.094811169561126
 20
200.1854451832462019
 30
0.0
 40
0.0488632550484638
 50
98.2338851535634916
 51
109.5834749035388
  0
ARC
  5
2C7DE
  8
0
 10
3761.2240945235262188
 20
198.9317641684970965
 30
0.0
 40
1.3091532523399001
 50
92.3447576368107264
 51
95.9752464850751039
  0
ARC
  5
2C7DF
  8
0
 10
3761.1528008795921778
 20
200.0423434714074915
 30
0.0
 40
0.1944110525681301
 50
93.8389684671633688
 51
104.4668581364829976
  0
ARC
  5
2C7E0
  8
0
 10
3761.1528008795921778
 20
200.4188369245530055
 30
0.0
 40
0.1944110525681301
 50
255.5331418635169882
 51
266.1610315328366028
  0
ARC
  5
2C7E1
  8
0
 10
3761.367366865339136
 20
196.4122778636387068
 30
0.0
 40
3.8308065650395999
 50
91.3068987293558934
 51
93.4058591022967732
  0
ARC
  5
2C7E2
  8
0
 10
3761.367366865339136
 20
204.0489025323217902
 30
0.0
 40
3.8308065650395999
 50
266.5941408977031983
 51
268.6931012706440924
  0
ARC
  5
2C7E3
  8
0
 10
3761.1744659578430401
 20
200.2557865353913087
 30
0.0
 40
0.0246936026704949
 50
228.2618147616132944
 51
255.6099417579582962
  0
ARC
  5
2C7E4
  8
0
 10
3761.1909279262758901
 20
200.3208254619235902
 30
0.0
 40
0.091783434775013
 50
255.7460887054110117
 51
262.3488784007303138
  0
ARC
  5
2C7E5
  8
0
 10
3761.2837704793569173
 20
201.2580036938153967
 30
0.0
 40
1.0334985932204019
 50
264.1653873255989993
 51
267.4711260218182929
  0
ARC
  5
2C7E6
  8
0
 10
3761.5008866630578268
 20
195.8102014388906014
 30
0.0
 40
4.4331419302897777
 50
86.0024276016080336
 51
93.9975723983919806
  0
ARC
  5
2C7E7
  8
0
 10
3761.5008866630578268
 20
204.6548996900588122
 30
0.0
 40
4.4331279799027943
 50
266.0024150013962867
 51
273.9975849986035996
  0
ARC
  5
2C7E8
  8
0
 10
3761.3871844702339331
 20
194.9825175742190027
 30
0.0
 40
5.2617658717253706
 50
91.1435349302243623
 51
92.3597906794712884
  0
ARC
  5
2C7E9
  8
0
 10
3761.3855803021010615
 20
205.4175550326255006
 30
0.0
 40
5.20064561165323
 50
267.6301485034910002
 51
268.9200527034142283
  0
LINE
  5
2C7EA
  8
0
 10
3762.5048236709089906
 20
192.220813866380297
 30
0.0
 11
3762.5048236709089906
 21
192.3586091419803097
 31
0.0
  0
LINE
  5
2C7EB
  8
0
 10
3762.1898630410091755
 20
192.4097902442802024
 30
0.0
 11
3762.1898630410091755
 21
198.2717855431588134
 31
0.0
  0
LINE
  5
2C7EC
  8
0
 10
3762.1898630410091755
 20
199.9189095188758927
 30
0.0
 11
3762.1898630410091755
 21
200.1144945041756955
 31
0.0
  0
LINE
  5
2C7ED
  8
0
 10
3762.1898630410091755
 20
200.1775256829760963
 30
0.0
 11
3762.1898630410091755
 21
200.932896186580308
 31
0.0
  0
ARC
  5
2C7EE
  8
0
 10
3762.1583669781789467
 20
192.4097902442094892
 30
0.0
 40
0.0314960628292872
 50
269.9999996894492256
 51
0.0000001286340482
  0
ARC
  5
2C7EF
  8
0
 10
3762.4851386316081516
 20
192.3586091419803097
 30
0.0
 40
0.0196850394
 50
0.0
 51
90.0
  0
ARC
  5
2C7F0
  8
0
 10
3762.1567522525360801
 20
200.9322448929056009
 30
0.0
 40
0.03311719336196
 50
1.126869699189297
 51
89.4583661467079452
  0
ARC
  5
2C7F1
  8
0
 10
3762.0545368831658379
 20
199.3326056692756083
 30
0.0
 40
1.6359708934839541
 50
86.4068439533634063
 51
90.5001325050125445
  0
ARC
  5
2C7F2
  8
0
 10
3762.1562117936391587
 20
200.1141023920021098
 30
0.0
 40
0.0336535317830702
 50
0.6675935580416452
 51
71.5051285730653348
  0
ARC
  5
2C7F3
  8
0
 10
3762.1560492599651297
 20
200.1780518994185911
 30
0.0
 40
0.0338178753355335
 50
288.6922179442673269
 51
359.108424235177722
  0
ARC
  5
2C7F4
  8
0
 10
3762.1347258605160278
 20
200.0543356984852892
 30
0.0
 40
0.0971594953401335
 50
70.6694513375345963
 51
83.3074838180902049
  0
ARC
  5
2C7F5
  8
0
 10
3761.9619847399198989
 20
198.5483789518800961
 30
0.0
 40
1.6129907133580399
 50
83.4474981599690153
 51
88.5659019443332056
  0
ARC
  5
2C7F6
  8
0
 10
3761.6184788617169943
 20
189.9528091173852999
 30
0.0
 40
10.2152705720392998
 50
87.8464043558294634
 51
88.7985935575926959
  0
ARC
  5
2C7F7
  8
0
 10
3762.0407181457080696
 20
197.4774720118340099
 30
0.0
 40
2.9401777371504818
 50
88.5084274103362958
 51
89.9909898569775919
  0
ARC
  5
2C7F8
  8
0
 10
3762.1064793221498803
 20
200.0029854780796086
 30
0.0
 40
0.4138082470491391
 50
82.7966881921121711
 51
88.5084274103362958
  0
ARC
  5
2C7F9
  8
0
 10
3762.158369078988926
 20
200.4450249346429871
 30
0.0
 40
0.0314972097327986
 50
269.9961782496476985
 51
359.1772001773679222
  0
ARC
  5
2C7FA
  8
0
 10
3761.6152138932880007
 20
194.631447516339108
 30
0.0
 40
5.779699042459681
 50
86.9371150054719948
 51
89.6522532727860266
  0
ARC
  5
2C7FB
  8
0
 10
3761.8879809445597857
 20
199.8357640223709097
 30
0.0
 40
0.5682710456961014
 50
81.6231497068216925
 51
86.3624562923164092
  0
ARC
  5
2C7FC
  8
0
 10
3761.9665203455288065
 20
200.3742612224999959
 30
0.0
 40
0.0240886777472398
 50
65.3726205048329376
 51
79.8423622670957229
  0
ARC
  5
2C7FD
  8
0
 10
3761.9760856645198146
 20
200.3952536420555077
 30
0.0
 40
0.0010211330897063
 50
297.5818359311778067
 51
62.4181640687892525
  0
ARC
  5
2C7FE
  8
0
 10
3761.9656889767179564
 20
200.4186651386660003
 30
0.0
 40
0.0266353477070942
 50
280.9941100746988241
 51
294.0845986995462908
  0
LINE
  5
2C7FF
  8
0
 10
3761.9707685528578622
 20
200.3979723407803135
 30
0.0
 11
3761.9707685528578622
 21
200.3704180962706971
 31
0.0
  0
LINE
  5
2C800
  8
0
 10
3761.9329732772589523
 20
200.3550721592802972
 30
0.0
 11
3761.9329732772589523
 21
200.2352475842803017
 31
0.0
  0
LINE
  5
2C801
  8
0
 10
3761.9329732772589523
 20
200.2352475842803017
 30
0.0
 11
3761.9233401350579697
 21
200.2296968135802899
 31
0.0
  0
ARC
  5
2C802
  8
0
 10
3761.9698555360441787
 20
200.3679884612730007
 30
0.0
 40
0.0029437140813762
 50
81.4462976026013905
 51
98.5537023973986237
  0
ARC
  5
2C803
  8
0
 10
3761.9701416746938776
 20
200.3700612682820861
 30
0.0
 40
0.0008517811015137
 50
58.4809231741705986
 51
79.7411378523857621
  0
ARC
  5
2C804
  8
0
 10
3761.9703949300401291
 20
200.3704742347480021
 30
0.0
 40
0.0003673437238937
 50
21.3791520144368512
 51
58.4809231740741708
  0
ARC
  5
2C805
  8
0
 10
3761.970180489356153
 20
200.3704180962706971
 30
0.0
 40
0.0005880635023762
 50
341.1447707485351089
 51
18.8552292514649409
  0
ARC
  5
2C806
  8
0
 10
3761.967472394008837
 20
200.3715060605821066
 30
0.0
 40
0.0035058446470242
 50
322.4511524788597967
 51
338.6208479855646942
  0
ARC
  5
2C807
  8
0
 10
3761.9195519115842217
 20
200.4195857230311901
 30
0.0
 40
0.071359413911004
 50
306.5521573907469133
 51
315.2746663757627061
  0
ARC
  5
2C808
  8
0
 10
3761.5548548024498814
 20
200.9209040304278062
 30
0.0
 40
0.6912955353120038
 50
303.1594446428896958
 51
306.0883792245584232
  0
ARC
  5
2C809
  8
0
 10
3761.976944868794817
 20
200.3348820046072092
 30
0.0
 40
0.036795561840305
 50
101.804172378483301
 51
112.8737582365641998
  0
ARC
  5
2C80A
  8
0
 10
3762.1511742890088499
 20
199.9218956219696963
 30
0.0
 40
0.4850294774601589
 50
112.8737582365641998
 51
116.7354495030465955
  0
ARC
  5
2C80B
  8
0
 10
3761.922774774995105
 20
200.2305893580100076
 30
0.0
 40
0.0010565356407857
 50
302.3511968205866083
 51
57.6488031794722673
  0
ARC
  5
2C80C
  8
0
 10
3761.9069621565558919
 20
200.2757335327738986
 30
0.0
 40
0.0488632550484638
 50
278.2338851535635058
 51
289.5834749035387858
  0
ARC
  5
2C80D
  8
0
 10
3761.777678802590799
 20
201.5294145475228049
 30
0.0
 40
1.3091532523399001
 50
272.3447576368106979
 51
275.9752464850751039
  0
ARC
  5
2C80E
  8
0
 10
3761.9069621565558919
 20
200.1854451832462019
 30
0.0
 40
0.0488632550484638
 50
70.4165250964612142
 51
81.7661148464365368
  0
ARC
  5
2C80F
  8
0
 10
3761.777678802590799
 20
198.9317641684970965
 30
0.0
 40
1.3091532523399001
 50
84.0247535149248961
 51
87.6552423631892879
  0
ARC
  5
2C810
  8
0
 10
3761.8489724465239306
 20
200.0423434714074915
 30
0.0
 40
0.1944110525681301
 50
75.533141863516974
 51
86.1610315328366454
  0
ARC
  5
2C811
  8
0
 10
3761.8489724465239306
 20
200.4188369245530055
 30
0.0
 40
0.1944110525681301
 50
273.8389684671632835
 51
284.4668581364829834
  0
ARC
  5
2C812
  8
0
 10
3761.6344064607769724
 20
196.4122778636387068
 30
0.0
 40
3.8308065650395999
 50
86.5941408977032268
 51
88.6931012706440924
  0
ARC
  5
2C813
  8
0
 10
3761.6344064607769724
 20
204.0489025323217902
 30
0.0
 40
3.8308065650395999
 50
271.3068987293559076
 51
273.4058591022968017
  0
ARC
  5
2C814
  8
0
 10
3761.8273073682730683
 20
200.2557865353913087
 30
0.0
 40
0.0246936026704949
 50
284.3900582420416185
 51
311.7381852383866772
  0
ARC
  5
2C815
  8
0
 10
3761.8108453998402183
 20
200.3208254619235902
 30
0.0
 40
0.091783434775013
 50
277.6511215992697998
 51
284.2539112945889883
  0
ARC
  5
2C816
  8
0
 10
3761.718002846759191
 20
201.2580036938153967
 30
0.0
 40
1.0334985932204019
 50
272.5288739781817071
 51
275.834612674400887
  0
ARC
  5
2C817
  8
0
 10
3761.6145888558830848
 20
194.9825175742190027
 30
0.0
 40
5.2617658717253706
 50
87.6402093205287258
 51
88.8564650697756235
  0
ARC
  5
2C818
  8
0
 10
3761.6161930240150468
 20
205.4175550326255006
 30
0.0
 40
5.20064561165323
 50
271.0799472965857717
 51
272.3698514965088862
  0
ARC
  5
2C819
  8
0
 10
3761.5008866630578268
 20
187.1058430924960021
 30
0.0
 40
13.3060358372842593
 50
89.356644844863979
 51
90.6433551551360353
  0
ARC
  5
2C81A
  8
0
 10
3761.5008866630578268
 20
188.9897155478174966
 30
0.0
 40
11.2556450776627806
 50
88.8865979684592133
 51
91.1134020315408009
  0
ARC
  5
2C81B
  8
0
 10
3761.5008866630578268
 20
189.8407477666326031
 30
0.0
 40
10.4036854137102708
 50
88.7834009204250378
 51
91.216599079574948
  0
ARC
  5
2C81C
  8
0
 10
3761.5008866630578268
 20
210.6199670623344957
 30
0.0
 40
10.4032199516723391
 50
268.7833464790397784
 51
271.2166535209602216
  0
ARC
  5
2C81D
  8
0
 10
3761.5008866630578268
 20
207.839402819064702
 30
0.0
 40
7.6184223817632377
 50
268.0237949020807946
 51
271.9762050979192054
  0
ARC
  5
2C81E
  8
0
 10
3761.5008866630578268
 20
211.5175020125109029
 30
0.0
 40
11.3016822996306505
 50
268.9184455873228785
 51
271.0815544126771215
  0
LINE
  5
2C820
  8
0
 10
3763.6477370567581602
 20
200.6116949171326098
 30
0.0
 11
3763.6477370567581602
 21
198.4359079922741955
 31
0.0
  0
LINE
  5
2C821
  8
0
 10
3763.3251773395049895
 20
200.645732256903699
 30
0.0
 11
3763.6165247492908748
 21
200.6431897066269983
 31
0.0
  0
LINE
  5
2C822
  8
0
 10
3763.2934063480579425
 20
200.6142373169057862
 30
0.0
 11
3763.2934063480579425
 21
199.8199280178642994
 31
0.0
  0
LINE
  5
2C823
  8
0
 10
3762.7804142220588801
 20
199.7404977380761011
 30
0.0
 11
3762.4063984740578235
 21
199.7404977380761011
 31
0.0
  0
LINE
  5
2C824
  8
0
 10
3762.8000992614579445
 20
199.7208126986760988
 30
0.0
 11
3762.8000992614579445
 21
198.4216001002760947
 31
0.0
  0
LINE
  5
2C825
  8
0
 10
3762.9193906000577954
 20
199.7437617239760925
 30
0.0
 11
3762.9193906000577954
 21
198.398651074976101
 31
0.0
  0
ARC
  5
2C826
  8
0
 10
3762.7804142220588801
 20
199.7208126986760988
 30
0.0
 40
0.0196850394000059
 50
359.9999976715091066
 51
89.9999999999739515
  0
ARC
  5
2C828
  8
0
 10
3762.4621627255000931
 20
221.3552257627437996
 30
0.0
 40
21.6147999581789492
 50
269.6584953190982219
 51
269.8521818473457756
  0
LINE
  5
2C829
  8
0
 10
3762.8000992614579445
 20
199.7149071868761041
 30
0.0
 11
3762.8203456470591846
 21
199.7147304992761008
 31
0.0
  0
LINE
  5
2C82A
  8
0
 10
3762.8203456470591846
 20
199.7147304992761008
 30
0.0
 11
3762.8203456470591846
 21
198.4321981924493059
 31
0.0
  0
ARC
  5
2C82B
  8
0
 10
3762.617483622726013
 20
199.0712064247069009
 30
0.0
 40
0.6747416064435372
 50
63.420388442917293
 51
72.5032666919554742
  0
LINE
  5
2C82C
  8
0
 10
3762.9193906000577954
 20
199.7437617239760925
 30
0.0
 11
3763.2140487738947741
 21
199.7411902810711979
 31
0.0
  0
LINE
  5
2C82D
  8
0
 10
3762.7804142220588801
 20
198.4019150608760924
 30
0.0
 11
3762.4063984740578235
 21
198.4019150608760924
 31
0.0
  0
ARC
  5
2C82E
  8
0
 10
3762.7804142220588801
 20
198.4216001002760947
 30
0.0
 40
0.0196850394000059
 50
270.0000000000259774
 51
0.0000023284909014
  0
ARC
  5
2C82F
  8
0
 10
3762.3998903934989357
 20
194.9686575145586005
 30
0.0
 40
3.4332637146684002
 50
89.8913902912715486
 51
91.1108080844002757
  0
ARC
  5
2C830
  8
0
 10
3762.617483622726013
 20
199.0712063742452926
 30
0.0
 40
0.6747416064435372
 50
288.5866920327878802
 51
296.5796115570827283
  0
LINE
  5
2C831
  8
0
 10
3762.9193906000577954
 20
198.398651074976101
 30
0.0
 11
3763.2343513910459478
 21
198.401399696135087
 31
0.0
  0
LINE
  5
2C832
  8
0
 10
3763.4863195723141871
 20
198.403598589121998
 30
0.0
 11
3763.6165157947480111
 21
198.4047347656496925
 31
0.0
  0
ARC
  5
2C833
  8
0
 10
3763.6161229450221981
 20
198.4363495196541862
 30
0.0
 40
0.0316171948050334
 50
270.7119293997059799
 51
359.1998506546690919
  0
LINE
  5
2C834
  8
0
 10
3762.8325501986660129
 20
198.4316576244380883
 30
0.0
 11
3762.8324025576580425
 21
198.4358855082761011
 31
0.0
  0
LINE
  5
2C835
  8
0
 10
3762.8324025576580425
 20
198.4358855082761011
 30
0.0
 11
3762.8203456471192112
 21
198.4321981924485101
 31
0.0
  0
LINE
  5
2C836
  8
0
 10
3762.8203456471192112
 20
198.4321981924485101
 30
0.0
 11
3762.8000992614579445
 21
198.4324496245043861
 31
0.0
  0
ARC
  5
2C837
  8
0
 10
3763.3660672732257808
 20
197.7457008809402055
 30
0.0
 40
0.6687974356011145
 50
79.641669929355686
 51
101.3583300622372008
  0
ARC
  5
2C838
  8
0
 10
3763.2146661905871952
 20
199.8199280178642994
 30
0.0
 40
0.0787401574716735
 50
269.5507281894173843
 51
0.0000000085900421
  0
ARC
  5
2C839
  8
0
 10
3763.32490248733302
 20
200.6142373169057862
 30
0.0
 40
0.0314961392744671
 50
89.5000000097534354
 51
180.0
  0
ARC
  5
2C83A
  8
0
 10
3763.6162409889839182
 20
200.6116949171326098
 30
0.0
 40
0.0314960677737863
 50
359.9999999999984084
 51
89.4837930872411249
  0
ARC
  5
2C83B
  8
0
 10
3762.274047474298186
 20
199.8257829128230014
 30
0.0
 40
0.0766901046115183
 50
193.7599615516604104
 51
240.8895633220357979
  0
ARC
  5
2C83C
  8
0
 10
3762.2833589110000503
 20
199.8425050939837035
 30
0.0
 40
0.0958299634459411
 50
240.8895633220357979
 51
256.4340283148688968
  0
ARC
  5
2C83D
  8
0
 10
3762.3230611346189107
 20
200.0070419201609013
 30
0.0
 40
0.2650890362569818
 50
256.4340283148688968
 51
266.3718454279742787
  0
ARC
  5
2C83E
  8
0
 10
3762.0661396469768079
 20
195.6444701581067136
 30
0.0
 40
4.1050443704592086
 50
86.2680624015086153
 51
86.6462638393216338
  0
ARC
  5
2C83F
  8
0
 10
3762.3662110860891516
 20
199.8564351926208076
 30
0.0
 40
0.1736770216120528
 50
187.4383808970925998
 51
196.3508861655450062
  0
ARC
  5
2C840
  8
0
 10
3762.6085502643209111
 20
199.8882665006451873
 30
0.0
 40
0.4180977540452279
 50
182.5003239303541136
 51
187.4644512923318871
  0
ARC
  5
2C841
  8
0
 10
3763.2254529712031399
 20
199.9153789101366954
 30
0.0
 40
1.03559594858157
 50
179.804663805397098
 51
182.509961522529494
  0
ARC
  5
2C842
  8
0
 10
3762.274047474298186
 20
198.3166298861291921
 30
0.0
 40
0.0766901046115183
 50
119.1104366779642021
 51
166.2400384483395044
  0
ARC
  5
2C843
  8
0
 10
3762.2833589110000503
 20
198.29990770496849
 30
0.0
 40
0.0958299634459411
 50
103.5659716851311032
 51
119.1104366779642021
  0
ARC
  5
2C844
  8
0
 10
3762.3230611346189107
 20
198.1353708787912922
 30
0.0
 40
0.2650890362569818
 50
93.6281545720256787
 51
103.5659716851311032
  0
ARC
  5
2C845
  8
0
 10
3762.3521536758871662
 20
197.7513514798168046
 30
0.0
 40
0.6501969964460756
 50
91.658722496349796
 51
94.045244471349676
  0
ARC
  5
2C846
  8
0
 10
3762.3662110860891516
 20
198.2859776063313859
 30
0.0
 40
0.1736770216120528
 50
163.6491138344549938
 51
172.5616191029074002
  0
ARC
  5
2C847
  8
0
 10
3762.6085502643209111
 20
198.2541462983070062
 30
0.0
 40
0.4180977540452279
 50
172.5355487076679992
 51
177.4996760696458864
  0
ARC
  5
2C848
  8
0
 10
3763.2254529712031399
 20
198.2270338888154981
 30
0.0
 40
1.03559594858157
 50
177.4900384774703923
 51
179.8046638054003949
  0
ARC
  5
2C849
  8
0
 10
3761.5008866630578268
 20
182.5207234695116938
 30
0.0
 40
17.648229445480311
 50
88.9228126719047367
 51
91.0771873280952491
  0
ENDSEC
  0
EOF
