  0
SECTION
  2
HEADER
  9
$ACADVER
  1
AC1009
  9
$INSBASE
 10
3787.7755287475902151
 20
198.971093361857811
 30
0.0
  9
$EXTMIN
 10
3779.9164187750379824
 20
198.9666266466103934
 30
-0.0000000000112498
  9
$EXTMAX
 10
3789.7167100956758077
 20
207.7229567249484035
 30
0.0000000000002956
  9
$LIMMIN
 10
0.0
 20
0.0
  9
$LIMMAX
 10
11.6929133858000007
 20
8.2677165353999982
  9
$ORTHOMODE
 70
     0
  9
$REGENMODE
 70
     1
  9
$FILLMODE
 70
     1
  9
$QTEXTMODE
 70
     0
  9
$MIRRTEXT
 70
     0
  9
$DRAGMODE
 70
     2
  9
$LTSCALE
 40
0.6431102362
  9
$OSMODE
 70
     7
  9
$ATTMODE
 70
     1
  9
$TEXTSIZE
 40
0.2
  9
$TRACEWID
 40
0.05
  9
$TEXTSTYLE
  7
STANDARD
  9
$CLAYER
  8
0
  9
$CELTYPE
  6
BYLAYER
  9
$CECOLOR
 62
   256
  9
$DIMSCALE
 40
1.0
  9
$DIMASZ
 40
0.1875
  9
$DIMEXO
 40
0.0625
  9
$DIMDLI
 40
0.4443307087
  9
$DIMRND
 40
0.0
  9
$DIMDLE
 40
0.0
  9
$DIMEXE
 40
0.125
  9
$DIMTP
 40
0.01
  9
$DIMTM
 40
0.01
  9
$DIMTXT
 40
2.0
  9
$DIMCEN
 40
0.1052362205
  9
$DIMTSZ
 40
0.0
  9
$DIMTOL
 70
     1
  9
$DIMLIM
 70
     0
  9
$DIMTIH
 70
     1
  9
$DIMTOH
 70
     1
  9
$DIMSE1
 70
     0
  9
$DIMSE2
 70
     0
  9
$DIMTAD
 70
     0
  9
$DIMZIN
 70
     0
  9
$DIMBLK
  1

  9
$DIMASO
 70
     1
  9
$DIMSHO
 70
     1
  9
$DIMPOST
  1
\X
  9
$DIMAPOST
  1

  9
$DIMALT
 70
     1
  9
$DIMALTD
 70
     2
  9
$DIMALTF
 40
25.3999999999999986
  9
$DIMLFAC
 40
1.0
  9
$DIMTOFL
 70
     0
  9
$DIMTVP
 40
0.0
  9
$DIMTIX
 70
     0
  9
$DIMSOXD
 70
     0
  9
$DIMSAH
 70
     0
  9
$DIMBLK1
  1

  9
$DIMBLK2
  1

  9
$DIMSTYLE
  2
STANDARD
  9
$DIMCLRD
 70
     0
  9
$DIMCLRE
 70
     0
  9
$DIMCLRT
 70
     0
  9
$DIMTFAC
 40
1.0
  9
$DIMGAP
 40
0.09
  9
$LUNITS
 70
     2
  9
$LUPREC
 70
     4
  9
$SKETCHINC
 40
0.1
  9
$FILLETRAD
 40
0.0
  9
$AUNITS
 70
     0
  9
$AUPREC
 70
     0
  9
$MENU
  1
.
  9
$ELEVATION
 40
0.0
  9
$PELEVATION
 40
0.0
  9
$THICKNESS
 40
0.0
  9
$LIMCHECK
 70
     0
  9
$BLIPMODE
 70
     0
  9
$CHAMFERA
 40
0.0
  9
$CHAMFERB
 40
0.0
  9
$SKPOLY
 70
     0
  9
$TDCREATE
 40
2458060.468368056230247
  9
$TDUPDATE
 40
2459636.5443055550567806
  9
$TDINDWG
 40
1.0296251157
  9
$TDUSRTIMER
 40
1.0296251157
  9
$USRTIMER
 70
     1
  9
$ANGBASE
 50
0.0
  9
$ANGDIR
 70
     0
  9
$PDMODE
 70
     0
  9
$PDSIZE
 40
0.3125
  9
$PLINEWID
 40
0.0
  9
$COORDS
 70
     1
  9
$SPLFRAME
 70
     0
  9
$SPLINETYPE
 70
     6
  9
$SPLINESEGS
 70
     8
  9
$ATTDIA
 70
     1
  9
$ATTREQ
 70
     1
  9
$HANDLING
 70
     1
  9
$HANDSEED
  5
2E83F
  9
$SURFTAB1
 70
     6
  9
$SURFTAB2
 70
     6
  9
$SURFTYPE
 70
     6
  9
$SURFU
 70
     6
  9
$SURFV
 70
     6
  9
$UCSNAME
  2

  9
$UCSORG
 10
0.0
 20
0.0
 30
0.0
  9
$UCSXDIR
 10
1.0
 20
0.0
 30
0.0
  9
$UCSYDIR
 10
0.0
 20
1.0
 30
0.0
  9
$PUCSNAME
  2

  9
$PUCSORG
 10
0.0
 20
0.0
 30
0.0
  9
$PUCSXDIR
 10
1.0
 20
0.0
 30
0.0
  9
$PUCSYDIR
 10
0.0
 20
1.0
 30
0.0
  9
$USERI1
 70
     0
  9
$USERI2
 70
     0
  9
$USERI3
 70
     0
  9
$USERI4
 70
     0
  9
$USERI5
 70
     0
  9
$USERR1
 40
0.0
  9
$USERR2
 40
0.0
  9
$USERR3
 40
0.0
  9
$USERR4
 40
0.0
  9
$USERR5
 40
0.0
  9
$WORLDVIEW
 70
     1
  9
$SHADEDGE
 70
     3
  9
$SHADEDIF
 70
    70
  9
$TILEMODE
 70
     1
  9
$MAXACTVP
 70
    64
  9
$PLIMCHECK
 70
     0
  9
$PEXTMIN
 10
1.0000000000000000E+20
 20
1.0000000000000000E+20
 30
1.0000000000000000E+20
  9
$PEXTMAX
 10
-1.0000000000000000E+20
 20
-1.0000000000000000E+20
 30
-1.0000000000000000E+20
  9
$PLIMMIN
 10
0.0
 20
0.0
  9
$PLIMMAX
 10
12.0
 20
9.0
  9
$UNITMODE
 70
     0
  9
$VISRETAIN
 70
     1
  9
$PLINEGEN
 70
     0
  9
$PSLTSCALE
 70
     1
  0
ENDSEC
  0
SECTION
  2
TABLES
  0
TABLE
  2
VPORT
 70
     1
  0
VPORT
  2
*ACTIVE
 70
     0
 10
0.0
 20
0.0
 11
1.0
 21
1.0
 12
521.427526349419054
 22
51.6230891100958118
 13
0.0
 23
0.0
 14
1.0
 24
1.0
 15
0.0
 25
0.0
 16
0.0
 26
0.0
 36
92.3385285193394054
 17
3263.3890380859379547
 27
151.7217025756835938
 37
0.0
 40
8.8190245657724091
 41
2.2831541218637992
 42
50.0
 43
0.0
 44
0.0
 50
0.0
 51
0.0
 71
     0
 72
   100
 73
     1
 74
     1
 75
     0
 76
     0
 77
     0
 78
     0
  0
ENDTAB
  0
TABLE
  2
LTYPE
 70
     2
  0
LTYPE
  2
CONTINUOUS
 70
     0
  3
Solid line
 72
    65
 73
     0
 40
0.0
  0
LTYPE
  2
PHANTOM2
 70
     0
  3
___ _ _ ___ _ _ ___ _ _ ___ _ _
 72
    65
 73
     6
 40
1.25
 49
0.625
 49
-0.125
 49
0.125
 49
-0.125
 49
0.125
 49
-0.125
  0
ENDTAB
  0
TABLE
  2
LAYER
 70
     2
  0
LAYER
  2
0
 70
     0
 62
   255
  6
CONTINUOUS
  0
LAYER
  2
DEFPOINTS
 70
     0
 62
     7
  6
CONTINUOUS
  0
ENDTAB
  0
TABLE
  2
STYLE
 70
     1
  0
STYLE
  2
STANDARD
 70
     0
 40
0.0
 41
0.8
 50
0.0
 71
     0
 42
0.2
  3
txt
  4

  0
ENDTAB
  0
TABLE
  2
VIEW
 70
     0
  0
ENDTAB
  0
TABLE
  2
UCS
 70
     0
  0
ENDTAB
  0
TABLE
  2
APPID
 70
    10
  0
APPID
  2
ACAD
 70
     0
  0
APPID
  2
ACAD_MLEADERVER
 70
     0
  0
APPID
  2
ACAD_EXEMPT_FROM_CAD_STANDARDS
 70
     0
  0
APPID
  2
ACAD_NAV_VCDISPLAY
 70
     0
  0
APPID
  2
ACAECLAYERSTANDARD
 70
     0
  0
APPID
  2
ACCMTRANSPARENCY
 70
     0
  0
APPID
  2
ACAD_DSTYLE_DIMJAG
 70
     0
  0
APPID
  2
ACAD_DSTYLE_DIMTALN
 70
     0
  0
APPID
  2
ACDBATTR
 70
     0
  0
APPID
  2
ACADANNOTATIVE
 70
     0
  0
ENDTAB
  0
TABLE
  2
DIMSTYLE
 70
     1
  0
DIMSTYLE
  2
STANDARD
 70
     0
  3

  4

  5

  6

  7

 40
1.0
 41
0.1875
 42
0.0625
 43
0.38
 44
0.125
 45
0.0
 46
0.0
 47
0.01
 48
0.01
140
0.15625
141
0.09
142
0.0
143
25.3999999999999986
144
1.0
145
0.0
146
1.0
147
0.09
 71
     1
 72
     0
 73
     1
 74
     1
 75
     0
 76
     0
 77
     0
 78
     4
170
     0
171
     2
172
     0
173
     0
174
     0
175
     0
176
     0
177
     0
178
     0
  0
ENDTAB
  0
ENDSEC
  0
SECTION
  2
BLOCKS
  0
BLOCK
  8
0
  2
$MODEL_SPACE
 70
     0
 10
0.0
 20
0.0
 30
0.0
  3
$MODEL_SPACE
  1

  0
ENDBLK
  5
21
  8
0
  0
BLOCK
 67
     1
  8
0
  2
$PAPER_SPACE
 70
     0
 10
0.0
 20
0.0
 30
0.0
  3
$PAPER_SPACE
  1

  0
ENDBLK
  5
1D
 67
     1
  8
0
  0
ENDSEC
  0
SECTION
  2
ENTITIES
  0
ATTDEF
  5
2143C
  8
DEFPOINTS
 10
3787.7756251096370761
 20
198.9745145201598007
 30
0.0
 40
0.001
  1
K-73159-7
  3

  2
MODELNUMBER
 70
     0
1001
ACDBATTR
1070
     0
1070
     1
  0
ATTDEF
  5
2143D
  8
DEFPOINTS
 10
3787.7756251096370761
 20
198.9728478534931071
 30
0.0
 40
0.001
  1
COMPOSED
  3

  2
TRADENAME
 70
     0
1001
ACDBATTR
1070
     0
1070
     1
  0
ATTDEF
  5
2143E
  8
DEFPOINTS
 10
3787.7756251096370761
 20
198.9711811868264988
 30
0.0
 40
0.001
  1
BATHROOM SINK FAUCET
  3

  2
PRODUCT
 70
     0
1001
ACDBATTR
1070
     0
1070
     1
  0
ARC
  5
2E78C
  8
0
 10
3787.1180081451011574
 20
206.8877352757660901
 30
0.0
 40
0.0314977468391321
 50
88.036402773749785
 51
180.0010497931386055
  0
ARC
  5
2E78D
  8
0
 10
3788.4325024356739959
 20
206.9050250350288991
 30
0.0
 40
0.0316565619710809
 50
268.1234418035089107
 51
359.7502256983244138
  0
ARC
  5
2E78E
  8
0
 10
3788.4328898088119786
 20
206.8417456992721952
 30
0.0
 40
0.0316564061252775
 50
0.1220315869349962
 51
88.5163354606105486
  0
LINE
  5
2E78F
  8
0
 10
3779.9664279772910049
 20
207.2005052814577084
 30
0.0
 11
3779.983465526890086
 21
207.6883968663578059
 31
0.0
  0
LINE
  5
2E790
  8
0
 10
3788.4641586968409683
 20
206.9048870323578058
 30
0.0
 11
3788.4636822019278952
 21
207.3933853020753872
 31
0.0
  0
LINE
  5
2E791
  8
0
 10
3779.9968056569910004
 20
207.1679292082577888
 30
0.0
 11
3788.431465801540071
 21
206.8733854505578051
 31
0.0
  0
LINE
  5
2E792
  8
0
 10
3780.0160416000908299
 20
207.7187745460578014
 30
0.0
 11
3788.4332768330291401
 21
207.4248371681754008
 31
0.0
  0
ARC
  5
2E793
  8
0
 10
3779.9979048537911694
 20
207.1994060847578112
 30
0.0
 40
0.031496063
 50
177.9999999999992895
 51
267.9999999999964189
  0
ARC
  5
2E794
  8
0
 10
3780.0149424032902061
 20
207.6872976695578075
 30
0.0
 40
0.031496063
 50
87.9999999999963336
 51
177.9999999999992895
  0
ARC
  5
2E795
  8
0
 10
3788.4321696739730214
 20
207.3933440686583083
 30
0.0
 40
0.0315125549324413
 50
0.0749701652274323
 51
87.98656125283091
  0
LINE
  5
2E796
  8
0
 10
3786.7715917397408703
 20
198.971093361857811
 30
0.0
 11
3788.7794657554409241
 21
198.971093361857811
 31
0.0
  0
LINE
  5
2E797
  8
0
 10
3786.7912767790407997
 20
199.1285736768577124
 30
0.0
 11
3788.7597807160400407
 21
199.1285736768577124
 31
0.0
  0
LINE
  5
2E798
  8
0
 10
3786.7715917397408703
 20
198.971093361857811
 30
0.0
 11
3786.7715917397408703
 21
199.10888863745771
 31
0.0
  0
LINE
  5
2E799
  8
0
 10
3787.0865103982678193
 20
206.8877346986535031
 30
0.0
 11
3787.0865523696397759
 21
199.1482587161576987
 31
0.0
  0
LINE
  5
2E79A
  8
0
 10
3788.7794657554409241
 20
198.971093361857811
 30
0.0
 11
3788.7794657554409241
 21
199.10888863745771
 31
0.0
  0
ARC
  5
2E79B
  8
0
 10
3788.7597807160400407
 20
199.10888863745771
 30
0.0
 40
0.0196850394
 50
0.0
 51
90.0
  0
ARC
  5
2E79C
  8
0
 10
3786.7912767790407997
 20
199.10888863745771
 30
0.0
 40
0.0196850394
 50
90.0
 51
180.0
  0
ARC
  5
2E79D
  8
0
 10
3787.1062374089410696
 20
199.1482587161576987
 30
0.0
 40
0.0196850394
 50
180.0
 51
270.0
  0
ARC
  5
2E79E
  8
0
 10
3788.4448200861411351
 20
199.1482587161576987
 30
0.0
 40
0.0196850394
 50
270.0
 51
0.0
  0
CIRCLE
  5
2E79F
  8
0
 10
3787.7755287475411023
 20
205.821487062657809
 30
0.0
 40
0.5525437000000001
  0
CIRCLE
  5
2E7A0
  8
0
 10
3787.7755287475411023
 20
205.821487062657809
 30
0.0
 40
0.4198863508999997
  0
LINE
  5
2E7A2
  8
0
 10
3781.1077426703100173
 20
207.129134591222396
 30
0.0
 11
3781.1024310164912094
 21
206.9770287257578048
 31
0.0
  0
LINE
  5
2E7A3
  8
0
 10
3781.1024310164912094
 20
206.9770287257578048
 30
0.0
 11
3781.054865860091013
 21
206.9517378835577972
 31
0.0
  0
LINE
  5
2E7A4
  8
0
 10
3781.054865860091013
 20
206.9517378835577972
 30
0.0
 11
3780.2089248057909572
 21
206.9812787960578078
 31
0.0
  0
LINE
  5
2E7A5
  8
0
 10
3780.2089248057909572
 20
206.9812787960578078
 30
0.0
 11
3780.1632397156909065
 21
207.0098260087578126
 31
0.0
  0
LINE
  5
2E7A6
  8
0
 10
3780.1632397156909065
 20
207.0098260087578126
 30
0.0
 11
3780.1685513648408232
 21
207.1619317404135074
 31
0.0
  0
LINE
  5
2E7A7
  8
0
 10
3780.1632397156909065
 20
207.0098260087578126
 30
0.0
 11
3780.5186767278901243
 21
206.9974138747570862
 31
0.0
  0
LINE
  5
2E7A8
  8
0
 10
3780.8831098344890052
 20
206.9846875902169074
 30
0.0
 11
3781.1024310164912094
 21
206.9770287257578048
 31
0.0
  0
LINE
  5
2E7A9
  8
0
 10
3780.5186767278901243
 20
206.9974138747577967
 30
0.0
 11
3780.5218586825899365
 21
207.0885331339578102
 31
0.0
  0
LINE
  5
2E7AA
  8
0
 10
3780.5218586825899365
 20
207.0885331339578102
 30
0.0
 11
3780.8862917891910911
 21
207.0758068494577913
 31
0.0
  0
LINE
  5
2E7AB
  8
0
 10
3780.8862917891910911
 20
207.0758068494577913
 30
0.0
 11
3780.8831098344908241
 21
206.9846875902578063
 31
0.0
  0
ARC
  5
2E7AC
  8
0
 10
3780.7270963177670637
 20
207.7414075253088868
 30
0.0
 40
0.7726352810377966
 50
254.3505148883648133
 51
281.6494851149902843
  0
ARC
  5
2E7AD
  8
0
 10
3780.6778721992809551
 20
206.3318131979536076
 30
0.0
 40
0.7726352819645448
 50
74.3505149050590148
 51
101.6494850983098956
  0
LINE
  5
2E7AE
  8
0
 10
3789.4173519877899707
 20
200.9951589811578003
 30
0.0
 11
3788.9645960822908819
 21
200.9951589811578003
 31
0.0
  0
LINE
  5
2E7AF
  8
0
 10
3789.4173519877899707
 20
201.2116944142578063
 30
0.0
 11
3788.9645960822908819
 21
201.2116944142578063
 31
0.0
  0
LINE
  5
2E7B0
  8
0
 10
3788.492899983290954
 20
200.8814092499576986
 30
0.0
 11
3788.4605497870070394
 21
200.7925278161434903
 31
0.0
  0
LINE
  5
2E7B1
  8
0
 10
3788.6963767318898135
 20
200.8073497701577992
 30
0.0
 11
3788.4615649975630731
 21
200.1622098320679868
 31
0.0
  0
LINE
  5
2E7B2
  8
0
 10
3789.4370370271908541
 20
201.0148440205578027
 30
0.0
 11
3789.4370370271908541
 21
201.192009374857804
 31
0.0
  0
ARC
  5
2E7B3
  8
0
 10
3788.9645960822908819
 20
200.709725910357804
 30
0.0
 40
0.5019685039000003
 50
90.0
 51
160.0000000000015064
  0
ARC
  5
2E7B4
  8
0
 10
3788.9645960822908819
 20
200.709725910357804
 30
0.0
 40
0.2854330709
 50
90.0
 51
160.0000000000015064
  0
ARC
  5
2E7B5
  8
0
 10
3789.4173519877899707
 20
201.192009374857804
 30
0.0
 40
0.0196850394
 50
0.0
 51
90.0
  0
ARC
  5
2E7B6
  8
0
 10
3789.4173519877899707
 20
201.0148440205578027
 30
0.0
 40
0.0196850394
 50
270.0
 51
0.0
  0
ARC
  5
2E7B7
  8
0
 10
3794.3423311966880647
 20
200.4868413941433971
 30
0.0
 40
5.8897195807489764
 50
176.3567579392313007
 51
183.6426206278565019
  0
LINE
  5
2E7B8
  8
0
 10
3788.4645470969130656
 20
206.8877346986535031
 30
0.0
 11
3788.4645144143009929
 21
200.8610961370106907
 31
0.0
  0
LINE
  5
2E7B9
  8
0
 10
3788.4645103554607886
 20
200.1126504023951043
 30
0.0
 11
3788.464505125541109
 21
199.1482587161576987
 31
0.0
  0
CIRCLE
  5
2E7BA
  8
0
 10
3787.7755287475902151
 20
205.821487062657809
 30
0.0
 40
0.6692913331510804
  0
ENDSEC
  0
EOF
