  0
SECTION
  2
HEADER
  9
$ACADVER
  1
AC1009
  9
$INSBASE
 10
3796.3367007410088263
 20
196.734083094245392
 30
0.0
  9
$EXTMIN
 10
3795.3327637331090045
 20
196.734083094245392
 30
0.0
  9
$EXTMAX
 10
3799.089236174009784
 20
205.4817834649454937
 30
0.0
  9
$LIMMIN
 10
0.0
 20
0.0
  9
$LIMMAX
 10
11.6929133858000007
 20
8.2677165353999982
  9
$ORTHOMODE
 70
     0
  9
$REGENMODE
 70
     1
  9
$FILLMODE
 70
     1
  9
$QTEXTMODE
 70
     0
  9
$MIRRTEXT
 70
     0
  9
$DRAGMODE
 70
     2
  9
$LTSCALE
 40
0.6431102362
  9
$OSMODE
 70
     7
  9
$ATTMODE
 70
     1
  9
$TEXTSIZE
 40
0.2
  9
$TRACEWID
 40
0.05
  9
$TEXTSTYLE
  7
STANDARD
  9
$CLAYER
  8
0
  9
$CELTYPE
  6
BYLAYER
  9
$CECOLOR
 62
   256
  9
$DIMSCALE
 40
1.0
  9
$DIMASZ
 40
0.1875
  9
$DIMEXO
 40
0.0625
  9
$DIMDLI
 40
0.4443307087
  9
$DIMRND
 40
0.0
  9
$DIMDLE
 40
0.0
  9
$DIMEXE
 40
0.125
  9
$DIMTP
 40
0.01
  9
$DIMTM
 40
0.01
  9
$DIMTXT
 40
2.0
  9
$DIMCEN
 40
0.1052362205
  9
$DIMTSZ
 40
0.0
  9
$DIMTOL
 70
     1
  9
$DIMLIM
 70
     0
  9
$DIMTIH
 70
     1
  9
$DIMTOH
 70
     1
  9
$DIMSE1
 70
     0
  9
$DIMSE2
 70
     0
  9
$DIMTAD
 70
     0
  9
$DIMZIN
 70
     0
  9
$DIMBLK
  1

  9
$DIMASO
 70
     1
  9
$DIMSHO
 70
     1
  9
$DIMPOST
  1
\X
  9
$DIMAPOST
  1

  9
$DIMALT
 70
     1
  9
$DIMALTD
 70
     2
  9
$DIMALTF
 40
25.3999999999999986
  9
$DIMLFAC
 40
1.0
  9
$DIMTOFL
 70
     0
  9
$DIMTVP
 40
0.0
  9
$DIMTIX
 70
     0
  9
$DIMSOXD
 70
     0
  9
$DIMSAH
 70
     0
  9
$DIMBLK1
  1

  9
$DIMBLK2
  1

  9
$DIMSTYLE
  2
STANDARD
  9
$DIMCLRD
 70
     0
  9
$DIMCLRE
 70
     0
  9
$DIMCLRT
 70
     0
  9
$DIMTFAC
 40
1.0
  9
$DIMGAP
 40
0.09
  9
$LUNITS
 70
     2
  9
$LUPREC
 70
     4
  9
$SKETCHINC
 40
0.1
  9
$FILLETRAD
 40
0.0
  9
$AUNITS
 70
     0
  9
$AUPREC
 70
     0
  9
$MENU
  1
.
  9
$ELEVATION
 40
0.0
  9
$PELEVATION
 40
0.0
  9
$THICKNESS
 40
0.0
  9
$LIMCHECK
 70
     0
  9
$BLIPMODE
 70
     0
  9
$CHAMFERA
 40
0.0
  9
$CHAMFERB
 40
0.0
  9
$SKPOLY
 70
     0
  9
$TDCREATE
 40
2458060.468368056230247
  9
$TDUPDATE
 40
2459636.5444212961010635
  9
$TDINDWG
 40
1.0278774306
  9
$TDUSRTIMER
 40
1.0278774306
  9
$USRTIMER
 70
     1
  9
$ANGBASE
 50
0.0
  9
$ANGDIR
 70
     0
  9
$PDMODE
 70
     0
  9
$PDSIZE
 40
0.3125
  9
$PLINEWID
 40
0.0
  9
$COORDS
 70
     1
  9
$SPLFRAME
 70
     0
  9
$SPLINETYPE
 70
     6
  9
$SPLINESEGS
 70
     8
  9
$ATTDIA
 70
     1
  9
$ATTREQ
 70
     1
  9
$HANDLING
 70
     1
  9
$HANDSEED
  5
2E736
  9
$SURFTAB1
 70
     6
  9
$SURFTAB2
 70
     6
  9
$SURFTYPE
 70
     6
  9
$SURFU
 70
     6
  9
$SURFV
 70
     6
  9
$UCSNAME
  2

  9
$UCSORG
 10
0.0
 20
0.0
 30
0.0
  9
$UCSXDIR
 10
1.0
 20
0.0
 30
0.0
  9
$UCSYDIR
 10
0.0
 20
1.0
 30
0.0
  9
$PUCSNAME
  2

  9
$PUCSORG
 10
0.0
 20
0.0
 30
0.0
  9
$PUCSXDIR
 10
1.0
 20
0.0
 30
0.0
  9
$PUCSYDIR
 10
0.0
 20
1.0
 30
0.0
  9
$USERI1
 70
     0
  9
$USERI2
 70
     0
  9
$USERI3
 70
     0
  9
$USERI4
 70
     0
  9
$USERI5
 70
     0
  9
$USERR1
 40
0.0
  9
$USERR2
 40
0.0
  9
$USERR3
 40
0.0
  9
$USERR4
 40
0.0
  9
$USERR5
 40
0.0
  9
$WORLDVIEW
 70
     1
  9
$SHADEDGE
 70
     3
  9
$SHADEDIF
 70
    70
  9
$TILEMODE
 70
     1
  9
$MAXACTVP
 70
    64
  9
$PLIMCHECK
 70
     0
  9
$PEXTMIN
 10
1.0000000000000000E+20
 20
1.0000000000000000E+20
 30
1.0000000000000000E+20
  9
$PEXTMAX
 10
-1.0000000000000000E+20
 20
-1.0000000000000000E+20
 30
-1.0000000000000000E+20
  9
$PLIMMIN
 10
0.0
 20
0.0
  9
$PLIMMAX
 10
12.0
 20
9.0
  9
$UNITMODE
 70
     0
  9
$VISRETAIN
 70
     1
  9
$PLINEGEN
 70
     0
  9
$PSLTSCALE
 70
     1
  0
ENDSEC
  0
SECTION
  2
TABLES
  0
TABLE
  2
VPORT
 70
     1
  0
VPORT
  2
*ACTIVE
 70
     0
 10
0.0
 20
0.0
 11
1.0
 21
1.0
 12
533.8219618676215532
 22
49.3862307039118704
 13
0.0
 23
0.0
 14
1.0
 24
1.0
 15
0.0
 25
0.0
 16
0.0
 26
0.0
 36
92.3385285193394054
 17
3263.3890380859379547
 27
151.7217025756835938
 37
0.0
 40
8.8103330702515432
 41
2.2831541218637992
 42
50.0
 43
0.0
 44
0.0
 50
0.0
 51
0.0
 71
     0
 72
   100
 73
     1
 74
     1
 75
     0
 76
     0
 77
     0
 78
     0
  0
ENDTAB
  0
TABLE
  2
LTYPE
 70
     2
  0
LTYPE
  2
CONTINUOUS
 70
     0
  3
Solid line
 72
    65
 73
     0
 40
0.0
  0
LTYPE
  2
PHANTOM2
 70
     0
  3
___ _ _ ___ _ _ ___ _ _ ___ _ _
 72
    65
 73
     6
 40
1.25
 49
0.625
 49
-0.125
 49
0.125
 49
-0.125
 49
0.125
 49
-0.125
  0
ENDTAB
  0
TABLE
  2
LAYER
 70
     2
  0
LAYER
  2
0
 70
     0
 62
   255
  6
CONTINUOUS
  0
LAYER
  2
DEFPOINTS
 70
     0
 62
     7
  6
CONTINUOUS
  0
ENDTAB
  0
TABLE
  2
STYLE
 70
     1
  0
STYLE
  2
STANDARD
 70
     0
 40
0.0
 41
0.8
 50
0.0
 71
     0
 42
0.2
  3
txt
  4

  0
ENDTAB
  0
TABLE
  2
VIEW
 70
     0
  0
ENDTAB
  0
TABLE
  2
UCS
 70
     0
  0
ENDTAB
  0
TABLE
  2
APPID
 70
    10
  0
APPID
  2
ACAD
 70
     0
  0
APPID
  2
ACAD_MLEADERVER
 70
     0
  0
APPID
  2
ACAD_EXEMPT_FROM_CAD_STANDARDS
 70
     0
  0
APPID
  2
ACAD_NAV_VCDISPLAY
 70
     0
  0
APPID
  2
ACAECLAYERSTANDARD
 70
     0
  0
APPID
  2
ACCMTRANSPARENCY
 70
     0
  0
APPID
  2
ACAD_DSTYLE_DIMJAG
 70
     0
  0
APPID
  2
ACAD_DSTYLE_DIMTALN
 70
     0
  0
APPID
  2
ACDBATTR
 70
     0
  0
APPID
  2
ACADANNOTATIVE
 70
     0
  0
ENDTAB
  0
TABLE
  2
DIMSTYLE
 70
     1
  0
DIMSTYLE
  2
STANDARD
 70
     0
  3

  4

  5

  6

  7

 40
1.0
 41
0.1875
 42
0.0625
 43
0.38
 44
0.125
 45
0.0
 46
0.0
 47
0.01
 48
0.01
140
0.15625
141
0.09
142
0.0
143
25.3999999999999986
144
1.0
145
0.0
146
1.0
147
0.09
 71
     1
 72
     0
 73
     1
 74
     1
 75
     0
 76
     0
 77
     0
 78
     4
170
     0
171
     2
172
     0
173
     0
174
     0
175
     0
176
     0
177
     0
178
     0
  0
ENDTAB
  0
ENDSEC
  0
SECTION
  2
BLOCKS
  0
BLOCK
  8
0
  2
$MODEL_SPACE
 70
     0
 10
0.0
 20
0.0
 30
0.0
  3
$MODEL_SPACE
  1

  0
ENDBLK
  5
21
  8
0
  0
BLOCK
 67
     1
  8
0
  2
$PAPER_SPACE
 70
     0
 10
0.0
 20
0.0
 30
0.0
  3
$PAPER_SPACE
  1

  0
ENDBLK
  5
1D
 67
     1
  8
0
  0
ENDSEC
  0
SECTION
  2
ENTITIES
  0
ATTDEF
  5
2143C
  8
DEFPOINTS
 10
3796.3367801714348388
 20
196.7375136823131925
 30
0.0
 40
0.001
  1
K-73159-7
  3

  2
MODELNUMBER
 70
     0
1001
ACDBATTR
1070
     0
1070
     1
  0
ATTDEF
  5
2143D
  8
DEFPOINTS
 10
3796.3367801714348388
 20
196.7358470156466126
 30
0.0
 40
0.001
  1
COMPOSED
  3

  2
TRADENAME
 70
     0
1001
ACDBATTR
1070
     0
1070
     1
  0
ATTDEF
  5
2143E
  8
DEFPOINTS
 10
3796.3367801714348388
 20
196.7341803489798906
 30
0.0
 40
0.001
  1
BATHROOM SINK FAUCET
  3

  2
PRODUCT
 70
     0
1001
ACDBATTR
1070
     0
1070
     1
  0
LINE
  5
2E5E7
  8
0
 10
3795.3327637331090045
 20
196.734083094245392
 30
0.0
 11
3797.3406377489091028
 21
196.734083094245392
 31
0.0
  0
LINE
  5
2E5E8
  8
0
 10
3797.3209512228090716
 20
196.8915634091455047
 30
0.0
 11
3795.3524550624101721
 21
196.8915634091455047
 31
0.0
  0
LINE
  5
2E5E9
  8
0
 10
3795.3327637331090045
 20
196.734083094245392
 30
0.0
 11
3795.3327637331090045
 21
196.8718783692065131
 31
0.0
  0
LINE
  5
2E5EA
  8
0
 10
3795.6477243630101839
 20
196.9230594721454111
 30
0.0
 11
3795.6477243630101839
 21
204.6277646222455076
 31
0.0
  0
LINE
  5
2E5EB
  8
0
 10
3795.6477243630101839
 20
204.6907961093455128
 30
0.0
 11
3795.6477243630101839
 21
205.4461654146454919
 31
0.0
  0
LINE
  5
2E5EC
  8
0
 10
3795.7587223926821025
 20
205.4817834649454937
 30
0.0
 11
3796.9146790893360048
 21
205.4817834649454937
 31
0.0
  0
ARC
  5
2E5ED
  8
0
 10
3795.6792204260091239
 20
196.9230594721454111
 30
0.0
 40
0.031496063
 50
180.0
 51
270.0
  0
ARC
  5
2E5EE
  8
0
 10
3795.3524487740519362
 20
196.8718783692065131
 30
0.0
 40
0.0196850409433489
 50
89.9816969493216163
 51
180.0000000000098055
  0
ARC
  5
2E5EF
  8
0
 10
3795.6792091289407836
 20
204.9582836545872055
 30
0.0
 40
0.0314854310116355
 50
180.3724089999655007
 51
270.0205571894709919
  0
ARC
  5
2E5F0
  8
0
 10
3795.6799164718859174
 20
205.4459346149083956
 30
0.0
 40
0.0321929362198031
 50
102.6424448741021962
 51
179.5892277722066126
  0
ARC
  5
2E5F1
  8
0
 10
3795.7780265274959675
 20
204.2753174007505947
 30
0.0
 40
1.206620492812428
 50
90.9166864366104761
 51
94.9996231601420362
  0
ARC
  5
2E5F2
  8
0
 10
3795.6816558118121065
 20
204.627314545233304
 30
0.0
 40
0.0339344336502009
 50
104.1546188978685024
 51
179.2400559965427078
  0
ARC
  5
2E5F3
  8
0
 10
3795.6816323449497759
 20
204.6913908860055074
 30
0.0
 40
0.0339131979990946
 50
181.0049167178985101
 51
250.8215330652535897
  0
ARC
  5
2E5F5
  8
0
 10
3795.7914092552427974
 20
203.4059104662877075
 30
0.0
 40
1.52501997033639
 50
90.2224708481298734
 51
94.218802780205209
  0
ARC
  5
2E5F6
  8
0
 10
3795.7170641416159924
 20
204.5025294343498103
 30
0.0
 40
0.1636342780266765
 50
95.6825785790898635
 51
105.4917443065921958
  0
ARC
  5
2E5F7
  8
0
 10
3795.9080351085331131
 20
202.5033947067666134
 30
0.0
 40
2.1718685392031531
 50
92.406456952431725
 51
95.4737414788776277
  0
ARC
  5
2E5F8
  8
0
 10
3796.180265559613872
 20
195.8486218928929929
 30
0.0
 40
8.8322061463210471
 50
91.0994047030604861
 51
92.3582452159511149
  0
LINE
  5
2E5F9
  8
0
 10
3795.7854878481762171
 20
204.9309189406455118
 30
0.0
 11
3796.8879136338418903
 21
204.9309189406455118
 31
0.0
  0
ARC
  5
2E5FA
  8
0
 10
3797.2360412902639837
 20
207.7253361440207016
 30
0.0
 40
3.4715735010173989
 50
268.8958905280882163
 51
270.1018522131531086
  0
ARC
  5
2E5FB
  8
0
 10
3797.1766644546441967
 20
204.6444531920562895
 30
0.0
 40
0.3901184271419534
 50
258.1711545775373224
 51
268.8958621039095078
  0
ARC
  5
2E5FC
  8
0
 10
3797.1131407543789464
 20
204.3411453023149988
 30
0.0
 40
0.0802298399455663
 50
197.1300658265431025
 51
258.1711545775373224
  0
ARC
  5
2E5FD
  8
0
 10
3797.2991926938288998
 20
204.3902970929470939
 30
0.0
 40
0.272617942421097
 50
181.4712786768014041
 51
195.4844845883538937
  0
ARC
  5
2E5FE
  8
0
 10
3798.938060561823022
 20
204.4447506409574089
 30
0.0
 40
1.9123835697421681
 50
180.0208751622105012
 51
181.8414807998663889
  0
LINE
  5
2E5FF
  8
0
 10
3797.3406377489091028
 20
196.734083094245392
 30
0.0
 11
3797.3406377489091028
 21
196.8718783698454047
 31
0.0
  0
LINE
  5
2E600
  8
0
 10
3797.025677119008833
 20
196.9230594721454111
 30
0.0
 11
3797.025677119008833
 21
202.7248997075467116
 31
0.0
  0
LINE
  5
2E601
  8
0
 10
3797.025677119008833
 20
204.4440538825438978
 30
0.0
 11
3797.025677119008833
 21
204.6277646222455076
 31
0.0
  0
LINE
  5
2E602
  8
0
 10
3797.025677119008833
 20
204.6907961093455128
 30
0.0
 11
3797.025677119008833
 21
205.4461654146454919
 31
0.0
  0
ARC
  5
2E603
  8
0
 10
3796.9941810560089834
 20
196.9230594721454111
 30
0.0
 40
0.031496063
 50
270.0
 51
0.0
  0
ARC
  5
2E604
  8
0
 10
3797.3209527095850717
 20
196.8718783698772938
 30
0.0
 40
0.0196850393243171
 50
359.9999999073643266
 51
90.0043274473784152
  0
ARC
  5
2E605
  8
0
 10
3796.9941923530759595
 20
204.9582836545872055
 30
0.0
 40
0.0314854310116373
 50
269.9794428105290081
 51
359.6275910000343856
  0
ARC
  5
2E606
  8
0
 10
3796.9934850101330994
 20
205.4459346149083956
 30
0.0
 40
0.0321929362198026
 50
0.4107722277933993
 51
77.3575551258977612
  0
ARC
  5
2E607
  8
0
 10
3796.8953749545230494
 20
204.2753174007505947
 30
0.0
 40
1.206620492812428
 50
85.0003768398580064
 51
89.0833135633895239
  0
ARC
  5
2E608
  8
0
 10
3796.9917456702069103
 20
204.627314545233304
 30
0.0
 40
0.0339344336502009
 50
0.7599440034572941
 51
75.8453811021314834
  0
ARC
  5
2E609
  8
0
 10
3796.9917691370701505
 20
204.6913908860055074
 30
0.0
 40
0.0339131979990946
 50
289.1784669347463819
 51
358.9950832821015183
  0
ARC
  5
2E60A
  8
0
 10
3796.8819922267762195
 20
203.4059104662877075
 30
0.0
 40
1.52501997033639
 50
85.7811972197947767
 51
89.7775291518701408
  0
ARC
  5
2E60B
  8
0
 10
3796.9563373404030244
 20
204.5025294343498103
 30
0.0
 40
0.1636342780266765
 50
74.5082556934077047
 51
84.3174214209101649
  0
ARC
  5
2E60C
  8
0
 10
3796.7653663734859038
 20
202.5033947067666134
 30
0.0
 40
2.1718685392031531
 50
84.526258521122358
 51
87.5935430475682892
  0
ARC
  5
2E60D
  8
0
 10
3796.4931359224060543
 20
195.8486218928929929
 30
0.0
 40
8.8322061463210471
 50
87.6417547840488709
 51
88.9005952969394855
  0
ARC
  5
2E60E
  8
0
 10
3797.2360412902639837
 20
199.4436174460541054
 30
0.0
 40
3.4715735010334341
 50
89.8981477868468488
 51
91.1041094719118547
  0
ARC
  5
2E60F
  8
0
 10
3797.1766644546441967
 20
202.5245003980346041
 30
0.0
 40
0.3901184271419534
 50
91.1041378960906059
 51
101.828845422462706
  0
ARC
  5
2E610
  8
0
 10
3797.1131407543789464
 20
202.8278082877758095
 30
0.0
 40
0.0802298399455663
 50
101.828845422462706
 51
162.8699341734568122
  0
ARC
  5
2E611
  8
0
 10
3797.2991926938288998
 20
202.7786564971437997
 30
0.0
 40
0.272617942421097
 50
164.5155154116461063
 51
178.5287213231985106
  0
ARC
  5
2E612
  8
0
 10
3798.938060561823022
 20
202.7242029491335131
 30
0.0
 40
1.9123835697420339
 50
178.1585192001336111
 51
179.9791248377894988
  0
LINE
  5
2E613
  8
0
 10
3797.635913314525169
 20
204.2439256084965962
 30
0.0
 11
3797.635913314525169
 21
202.9250279815944111
 31
0.0
  0
LINE
  5
2E614
  8
0
 10
3797.635913314525169
 20
204.2439256084965962
 30
0.0
 11
3797.6482159769261671
 21
204.2439256084965962
 31
0.0
  0
LINE
  5
2E615
  8
0
 10
3797.2422125521088674
 20
204.2537681281966115
 30
0.0
 11
3797.6162282747081917
 21
204.2537681281966115
 31
0.0
  0
ARC
  5
2E616
  8
0
 10
3797.3996928421252051
 20
203.5844767895964935
 30
0.0
 40
0.7047244094
 50
67.2768122109662272
 51
69.3503331196052955
  0
ARC
  5
2E617
  8
0
 10
3797.6162282748778125
 20
204.2340830877180053
 30
0.0
 40
0.0196850404784892
 50
0.0166560903823116
 51
90.000000496975062
  0
LINE
  5
2E618
  8
0
 10
3797.6482159769261671
 20
204.2439256084965962
 30
0.0
 11
3797.6482159769261671
 21
202.9250279815944111
 31
0.0
  0
LINE
  5
2E619
  8
0
 10
3797.635913314525169
 20
202.9250279815944111
 30
0.0
 11
3797.6482159769261671
 21
202.9250279815944111
 31
0.0
  0
LINE
  5
2E61A
  8
0
 10
3797.2422125521088674
 20
202.9151854618943958
 30
0.0
 11
3797.6162282747081917
 21
202.9151854618943958
 31
0.0
  0
ARC
  5
2E61B
  8
0
 10
3797.3996928421252051
 20
203.5844768004944001
 30
0.0
 40
0.7047244094
 50
290.6496668803947045
 51
292.7231877890337728
  0
ARC
  5
2E61C
  8
0
 10
3797.6162282748778125
 20
202.934870502372803
 30
0.0
 40
0.0196850404784907
 50
269.9999995030249238
 51
359.9833439096192933
  0
ARC
  5
2E61D
  8
0
 10
3796.3367007410088263
 20
187.0998549185422064
 30
0.0
 40
17.5823678364507217
 50
88.9379292741487149
 51
91.0620707258512851
  0
LINE
  5
2E61E
  8
0
 10
3797.6719133394090022
 20
202.9229904658978967
 30
0.0
 11
3797.6719133394090022
 21
204.2459631241929969
 31
0.0
  0
LINE
  5
2E61F
  8
0
 10
3799.089236174009784
 20
202.9466815194454909
 30
0.0
 11
3799.089236174009784
 21
204.2222720706454879
 31
0.0
  0
ARC
  5
2E620
  8
0
 10
3797.6797875721708806
 20
204.2458935939135927
 30
0.0
 40
0.0078745397348466
 50
90.0674216771568439
 51
179.4940855566597122
  0
LINE
  5
2E621
  8
0
 10
3797.6797783059628273
 20
204.2537681281966115
 30
0.0
 11
3799.0577586377239641
 21
204.2537681281966115
 31
0.0
  0
ARC
  5
2E622
  8
0
 10
3799.0577401110099345
 20
204.2222720706454879
 30
0.0
 40
0.0314960629999952
 50
359.9999999999935199
 51
89.9662972904315836
  0
ARC
  5
2E623
  8
0
 10
3797.6797875721708806
 20
202.9230599961773009
 30
0.0
 40
0.0078745397348466
 50
180.5059144433402025
 51
269.9325783228430851
  0
LINE
  5
2E624
  8
0
 10
3797.6797783059628273
 20
202.9151854618943958
 30
0.0
 11
3797.9317716387831751
 21
202.9151854618943958
 31
0.0
  0
LINE
  5
2E625
  8
0
 10
3798.1994723945099395
 20
202.9151854618943958
 30
0.0
 11
3799.0577586377239641
 21
202.9151854618943958
 31
0.0
  0
ARC
  5
2E626
  8
0
 10
3799.0577401110099345
 20
202.9466815194454909
 30
0.0
 40
0.0314960629999952
 50
270.0337027095683879
 51
0.0000000000065138
  0
ARC
  5
2E627
  8
0
 10
3798.0656171208170235
 20
202.2743058572922905
 30
0.0
 40
0.6545446675591556
 50
78.3404445880038054
 51
101.6233363472443045
  0
ARC
  5
2E628
  8
0
 10
3798.1995060467088479
 20
202.923392959019111
 30
0.0
 40
0.0082075661144161
 50
258.7013336023582042
 51
269.7650784203810872
  0
ARC
  5
2E629
  8
0
 10
3797.9315323730029377
 20
202.9252513643097018
 30
0.0
 40
0.0100687456790103
 50
271.361660170255675
 51
282.6740658044228098
  0
LINE
  5
2E62A
  8
0
 10
3795.8668188513101995
 20
204.8656163729311004
 30
0.0
 11
3795.8668188513101995
 21
204.9111719083711876
 31
0.0
  0
LINE
  5
2E62B
  8
0
 10
3795.8948726502089812
 20
204.7397633475455052
 30
0.0
 11
3795.9142334576090434
 21
204.7286126783455131
 31
0.0
  0
ARC
  5
2E62C
  8
0
 10
3795.8730659510501937
 20
204.937529885584496
 30
0.0
 40
0.032351228909028
 50
249.9669662641879881
 51
258.866108012447512
  0
ARC
  5
2E62D
  8
0
 10
3795.8625098953598354
 20
204.9085228055369896
 30
0.0
 40
0.0014832384744259
 50
110.7807151440260043
 51
249.2192848559762979
  0
ARC
  5
2E62E
  8
0
 10
3795.8697081489481207
 20
204.8902137480945953
 30
0.0
 40
0.0211563825598696
 50
97.8493344634974562
 51
111.4146094096712005
  0
ARC
  5
2E62F
  8
0
 10
3795.9707606333731746
 20
204.1529389493215092
 30
0.0
 40
0.7653241889865129
 50
93.1123215284560644
 51
97.805695411175904
  0
ARC
  5
2E630
  8
0
 10
3796.2758280789680612
 20
197.1001815613649057
 30
0.0
 40
7.8246338732372287
 50
90.5925058764611038
 51
92.5389484347143281
  0
ARC
  5
2E631
  8
0
 10
3795.9411176115631861
 20
204.6385998335404111
 30
0.0
 40
0.0956372427688346
 50
96.3520869217232558
 51
106.326194858143694
  0
ARC
  5
2E632
  8
0
 10
3796.0773728512799607
 20
203.1141367734487062
 30
0.0
 40
1.6261561436979981
 50
92.1897873702329349
 51
95.1806694027188627
  0
ARC
  5
2E633
  8
0
 10
3796.2363777172431583
 20
198.998806258940391
 30
0.0
 40
5.7445571716068526
 50
91.1808854140409153
 51
92.2061767653313638
  0
ARC
  5
2E634
  8
0
 10
3796.049975297697074
 20
204.0661097445508858
 30
0.0
 40
0.672434577106325
 50
91.9178333916809152
 51
99.4088159956657478
  0
ARC
  5
2E635
  8
0
 10
3796.3010223349178887
 20
197.259581509820805
 30
0.0
 40
7.483587431465609
 50
90.5172097213935558
 51
92.0948248344986951
  0
ARC
  5
2E636
  8
0
 10
3796.3366999775371369
 20
200.3576220760602098
 30
0.0
 40
4.3847484491940243
 50
85.9582243657202554
 51
94.0417556305664704
  0
ARC
  5
2E637
  8
0
 10
3796.3367015065077794
 20
209.1163397382312894
 30
0.0
 40
4.3957521433079707
 50
265.9683586933787183
 51
274.0316213028706898
  0
ARC
  5
2E638
  8
0
 10
3796.0094707234038651
 20
204.7533517755192065
 30
0.0
 40
0.0231574604106821
 50
227.7770505343555953
 51
253.829752319038505
  0
ARC
  5
2E639
  8
0
 10
3796.0252615652389068
 20
204.8117512455823999
 30
0.0
 40
0.0836513875441502
 50
254.58161211683381
 51
262.688212974602493
  0
ARC
  5
2E63A
  8
0
 10
3796.1035342505219887
 20
205.5431479549206131
 30
0.0
 40
0.8192079049593251
 50
263.7686953045771929
 51
267.3149905652210236
  0
ARC
  5
2E63B
  8
0
 10
3795.9342084984141366
 20
204.7891918182129132
 30
0.0
 40
0.0637874160179523
 50
251.7508220924852083
 51
262.1596963111929881
  0
ARC
  5
2E63C
  8
0
 10
3796.0139563016800821
 20
205.4847179455711057
 30
0.0
 40
0.7638554524664715
 50
263.3506272264784798
 51
266.5457142234835146
  0
ARC
  5
2E63D
  8
0
 10
3796.2867074329178649
 20
211.6932630618360065
 30
0.0
 40
6.978297559393976
 50
267.3817648770029791
 51
269.5968014940875719
  0
LINE
  5
2E63E
  8
0
 10
3796.8065826307101815
 20
204.8659557308455135
 30
0.0
 11
3796.8065826307101815
 21
204.9111719083711876
 31
0.0
  0
ARC
  5
2E63F
  8
0
 10
3796.8003355309679137
 20
204.937529885584496
 30
0.0
 40
0.032351228909028
 50
281.1338919875526017
 51
290.0330337358120119
  0
ARC
  5
2E640
  8
0
 10
3796.8108915866591815
 20
204.9085228055369896
 30
0.0
 40
0.0014832384744259
 50
290.7807151440237021
 51
69.2192848559740241
  0
ARC
  5
2E641
  8
0
 10
3796.8036933330708962
 20
204.8902137480945953
 30
0.0
 40
0.0211563825598696
 50
68.5853905903287995
 51
82.1506655365025864
  0
ARC
  5
2E642
  8
0
 10
3796.7026408486449327
 20
204.1529389493215092
 30
0.0
 40
0.7653241889865129
 50
82.194304588824096
 51
86.8876784715439356
  0
ARC
  5
2E643
  8
0
 10
3796.3975734030509557
 20
197.1001815613649057
 30
0.0
 40
7.8246338732372287
 50
87.4610515652856435
 51
89.407494123538882
  0
ARC
  5
2E644
  8
0
 10
3796.5960286307399656
 20
203.1141367734487062
 30
0.0
 40
1.6261561436979981
 50
84.8193305972811658
 51
87.8102126297670651
  0
ARC
  5
2E645
  8
0
 10
3796.4370237647758586
 20
198.998806258940391
 30
0.0
 40
5.7445571716068526
 50
87.7938232346686505
 51
88.8191145859590563
  0
ARC
  5
2E646
  8
0
 10
3796.6234261843228524
 20
204.0661097445508858
 30
0.0
 40
0.672434577106325
 50
80.5911840043342806
 51
88.0821666083190848
  0
ARC
  5
2E647
  8
0
 10
3796.3723791471011282
 20
197.259581509820805
 30
0.0
 40
7.483587431465609
 50
87.9051751655013049
 51
89.4827902786064868
  0
ARC
  5
2E648
  8
0
 10
3796.6639307586151517
 20
204.7533517755192065
 30
0.0
 40
0.0231574604106821
 50
286.170247680961495
 51
312.2229494656443762
  0
ARC
  5
2E649
  8
0
 10
3796.6481399167801101
 20
204.8117512455823999
 30
0.0
 40
0.0836513875441502
 50
277.311787025397507
 51
285.41838788316619
  0
ARC
  5
2E64A
  8
0
 10
3796.5698672314970281
 20
205.5431479549206131
 30
0.0
 40
0.8192079049593251
 50
272.6850094347789764
 51
276.2313046954228071
  0
ARC
  5
2E64B
  8
0
 10
3796.7391929836039708
 20
204.7891918182129132
 30
0.0
 40
0.0637874160179523
 50
277.8403036888070119
 51
288.2491779075147065
  0
ARC
  5
2E64C
  8
0
 10
3796.6594451803371157
 20
205.4847179455711057
 30
0.0
 40
0.7638554524664715
 50
273.4542857765164854
 51
276.6493727735215202
  0
ARC
  5
2E64D
  8
0
 10
3796.3866940490997877
 20
211.6932630618360065
 30
0.0
 40
6.978297559393976
 50
270.4031985059124281
 51
272.6182351229969072
  0
ARC
  5
2E64E
  8
0
 10
3796.3367007410088263
 20
191.4280691274090884
 30
0.0
 40
13.4970726875732296
 50
89.3980950420746012
 51
90.6019049579253846
  0
ARC
  5
2E64F
  8
0
 10
3796.3367007410088263
 20
193.4887754487481004
 30
0.0
 40
11.2554930796973007
 50
88.8865829318252167
 51
91.1134170681748259
  0
ARC
  5
2E650
  8
0
 10
3796.3367007410088263
 20
193.5808515833533079
 30
0.0
 40
11.1624898129031802
 50
89.4701148124619152
 51
90.5298851875380848
  0
ARC
  5
2E651
  8
0
 10
3796.3367007410088263
 20
212.1894911974999047
 30
0.0
 40
7.469589121689042
 50
267.9166644375833926
 51
272.0833355624164938
  0
ARC
  5
2E652
  8
0
 10
3796.3367007410088263
 20
216.6719394460953083
 30
0.0
 40
11.9572118301498609
 50
269.5251329013228769
 51
270.4748670986770094
  0
ARC
  5
2E653
  8
0
 10
3796.0916525926490976
 20
205.717584512632186
 30
0.0
 40
0.9996494432803208
 50
261.2769452254242992
 51
266.8525244302074952
  0
ARC
  5
2E654
  8
0
 10
3796.5817488893708287
 20
205.717584512632186
 30
0.0
 40
0.9996494432803208
 50
273.1474755697925048
 51
278.7230547745757008
  0
LINE
  5
2E655
  8
0
 10
3795.8809147129099983
 20
204.7524305921454015
 30
0.0
 11
3795.8809147129099983
 21
204.8435498513455002
 31
0.0
  0
LINE
  5
2E656
  8
0
 10
3795.9391138987098202
 20
204.765156876645392
 30
0.0
 11
3795.9391138987098202
 21
204.8562761358454054
 31
0.0
  0
LINE
  5
2E657
  8
0
 10
3795.9391138987098202
 20
204.8562761358454054
 30
0.0
 11
3795.8809147129099983
 21
204.8435498513455002
 31
0.0
  0
ARC
  5
2E658
  8
0
 10
3796.3366992168062097
 20
192.4135702470763079
 30
0.0
 40
12.3592454940691603
 50
88.8037655661133982
 51
91.1962344338865876
  0
ARC
  5
2E659
  8
0
 10
3796.5213425167680725
 20
201.2598461939446963
 30
0.0
 40
3.5110427808120481
 50
85.570858646506295
 51
88.8024910196690058
  0
ARC
  5
2E65A
  8
0
 10
3796.1747281734092212
 20
200.1063945406116034
 30
0.0
 40
4.6647165605308256
 50
91.1798386127377398
 51
92.8952349280386045
  0
ARC
  5
2E65B
  8
0
 10
3795.9147547018988007
 20
204.7294966810624999
 30
0.0
 40
0.0010262340924722
 50
120.5253466141370069
 51
239.4746533858628936
  0
ARC
  5
2E65C
  8
0
 10
3795.9237941865139874
 20
204.7856554541893956
 30
0.0
 40
0.0542451907030997
 50
217.7700656606301948
 51
237.7805742318838895
  0
ARC
  5
2E65D
  8
0
 10
3795.9086182666969762
 20
204.7635734115962123
 30
0.0
 40
0.027492928594754
 50
240.1192118436318879
 51
248.6083623158083924
  0
ARC
  5
2E65E
  8
0
 10
3795.9059185505311689
 20
204.7560101434860087
 30
0.0
 40
0.0194675447601728
 50
247.8875586587761006
 51
292.1124413412243825
  0
ARC
  5
2E65F
  8
0
 10
3795.8984227505429772
 20
204.7719476187203895
 30
0.0
 40
0.0370664324214342
 50
293.5736352585128088
 51
320.4405087371254126
  0
ARC
  5
2E660
  8
0
 10
3795.8405509592898852
 20
204.8233897923248037
 30
0.0
 40
0.1144802406332743
 50
319.0376475384911146
 51
329.4245740439824885
  0
ARC
  5
2E661
  8
0
 10
3795.8789587001529071
 20
204.8356800925689072
 30
0.0
 40
0.0367448980910359
 50
79.0819825306804063
 51
100.9180174693195937
  0
ARC
  5
2E662
  8
0
 10
3795.8745525903427733
 20
204.8656163729311004
 30
0.0
 40
0.0077337390338588
 50
157.3669657116248004
 51
202.6330342883796902
  0
ARC
  5
2E663
  8
0
 10
3795.8721465410289966
 20
204.8660602590049962
 30
0.0
 40
0.0053670464115722
 50
122.1043619960855011
 51
151.8476209574888003
  0
ARC
  5
2E664
  8
0
 10
3795.87428233502078
 20
204.862656087389496
 30
0.0
 40
0.0093857527161203
 50
104.0796300195766975
 51
122.1043619960855011
  0
ARC
  5
2E665
  8
0
 10
3795.8993088284219084
 20
204.8744886313880897
 30
0.0
 40
0.0340240657247297
 50
200.3794762987164972
 51
218.3950762907988121
  0
ARC
  5
2E666
  8
0
 10
3795.9680994964987804
 20
204.9254811482279024
 30
0.0
 40
0.1196408120104647
 50
217.0735282631011955
 51
223.2207141440098042
  0
ARC
  5
2E667
  8
0
 10
3795.8616303210978913
 20
204.7163901635186107
 30
0.0
 40
0.1572566570584038
 50
73.9866012830416082
 51
81.1152011054377766
  0
ARC
  5
2E668
  8
0
 10
3795.7800520600490017
 20
204.4321438484932116
 30
0.0
 40
0.4529777761576955
 50
69.4425062325883857
 51
73.9866012830416082
  0
ARC
  5
2E669
  8
0
 10
3796.7322838704549213
 20
204.6385998335404111
 30
0.0
 40
0.0956372427688346
 50
73.6738051418562776
 51
83.6479130782767584
  0
ARC
  5
2E66A
  8
0
 10
3796.7586467801211256
 20
204.7294966810624999
 30
0.0
 40
0.0010262340924722
 50
300.5253466141369927
 51
59.4746533858629718
  0
LINE
  5
2E66B
  8
0
 10
3796.7700647740098248
 20
204.7348897076454932
 30
0.0
 11
3796.7591680244090639
 21
204.7286126783455131
 31
0.0
  0
ARC
  5
2E66C
  8
0
 10
3796.7268561015562227
 20
204.7954714743806051
 30
0.0
 40
0.07441196030176
 50
305.4975666811516817
 51
331.8834580160176984
  0
LINE
  5
2E66D
  8
0
 10
3796.7924867691090185
 20
204.7604036071454061
 30
0.0
 11
3796.7924867691090185
 21
204.8515228663455048
 31
0.0
  0
ARC
  5
2E66E
  8
0
 10
3796.7336855812218346
 20
204.9294759362283003
 30
0.0
 40
0.0976435394748568
 50
307.0278066487348951
 51
316.0388229221381948
  0
ARC
  5
2E66F
  8
0
 10
3796.7921412429018346
 20
204.8728993525471935
 30
0.0
 40
0.0162933943342452
 50
316.5529288007300011
 51
329.2699705871615947
  0
ARC
  5
2E670
  8
0
 10
3796.8030014742130334
 20
204.8663251359182027
 30
0.0
 40
0.0036001586014465
 50
330.8869293166885086
 51
354.1106293996430736
  0
ENDSEC
  0
EOF
