  0
SECTION
  2
HEADER
  9
$ACADVER
  1
AC1009
  9
$INSBASE
 10
395.71009023996021
 20
56.676263316304102
 30
0.0
  9
$EXTMIN
 10
389.08274633206082
 20
56.676263316304102
 30
0.0
  9
$EXTMAX
 10
397.55772076141022
 20
64.335688137404105
 30
0.0
  9
$LIMMIN
 10
0.0
 20
0.0
  9
$LIMMAX
 10
11.692913385800001
 20
8.2677165353999982
  9
$ORTHOMODE
 70
     1
  9
$REGENMODE
 70
     1
  9
$FILLMODE
 70
     1
  9
$QTEXTMODE
 70
     0
  9
$MIRRTEXT
 70
     0
  9
$DRAGMODE
 70
     2
  9
$LTSCALE
 40
0.6431102362
  9
$OSMODE
 70
  3071
  9
$ATTMODE
 70
     1
  9
$TEXTSIZE
 40
0.2
  9
$TRACEWID
 40
0.05
  9
$TEXTSTYLE
  7
STANDARD
  9
$CLAYER
  8
0
  9
$CELTYPE
  6
BYLAYER
  9
$CECOLOR
 62
   256
  9
$DIMSCALE
 40
1.0
  9
$DIMASZ
 40
0.1875
  9
$DIMEXO
 40
0.0625
  9
$DIMDLI
 40
0.4443307087
  9
$DIMRND
 40
0.0
  9
$DIMDLE
 40
0.0
  9
$DIMEXE
 40
0.125
  9
$DIMTP
 40
0.01
  9
$DIMTM
 40
0.01
  9
$DIMTXT
 40
1.0
  9
$DIMCEN
 40
0.1052362205
  9
$DIMTSZ
 40
0.0
  9
$DIMTOL
 70
     1
  9
$DIMLIM
 70
     0
  9
$DIMTIH
 70
     0
  9
$DIMTOH
 70
     1
  9
$DIMSE1
 70
     0
  9
$DIMSE2
 70
     0
  9
$DIMTAD
 70
     0
  9
$DIMZIN
 70
     0
  9
$DIMBLK
  1

  9
$DIMASO
 70
     1
  9
$DIMSHO
 70
     1
  9
$DIMPOST
  1
\X
  9
$DIMAPOST
  1

  9
$DIMALT
 70
     1
  9
$DIMALTD
 70
     2
  9
$DIMALTF
 40
25.399999999999999
  9
$DIMLFAC
 40
1.0
  9
$DIMTOFL
 70
     0
  9
$DIMTVP
 40
0.0
  9
$DIMTIX
 70
     0
  9
$DIMSOXD
 70
     0
  9
$DIMSAH
 70
     0
  9
$DIMBLK1
  1

  9
$DIMBLK2
  1

  9
$DIMSTYLE
  2
STANDARD
  9
$DIMCLRD
 70
     0
  9
$DIMCLRE
 70
     0
  9
$DIMCLRT
 70
     0
  9
$DIMTFAC
 40
1.0
  9
$DIMGAP
 40
0.09
  9
$LUNITS
 70
     2
  9
$LUPREC
 70
     4
  9
$SKETCHINC
 40
0.1
  9
$FILLETRAD
 40
0.0
  9
$AUNITS
 70
     0
  9
$AUPREC
 70
     0
  9
$MENU
  1
.
  9
$ELEVATION
 40
0.0
  9
$PELEVATION
 40
0.0
  9
$THICKNESS
 40
0.0
  9
$LIMCHECK
 70
     0
  9
$BLIPMODE
 70
     0
  9
$CHAMFERA
 40
0.0
  9
$CHAMFERB
 40
0.0
  9
$SKPOLY
 70
     0
  9
$TDCREATE
 40
2458172.5207663891
  9
$TDUPDATE
 40
2458386.4055475122
  9
$TDINDWG
 40
0.0636987731
  9
$TDUSRTIMER
 40
0.0636987731
  9
$USRTIMER
 70
     1
  9
$ANGBASE
 50
0.0
  9
$ANGDIR
 70
     0
  9
$PDMODE
 70
     0
  9
$PDSIZE
 40
0.3125
  9
$PLINEWID
 40
0.0
  9
$COORDS
 70
     1
  9
$SPLFRAME
 70
     0
  9
$SPLINETYPE
 70
     6
  9
$SPLINESEGS
 70
     8
  9
$ATTDIA
 70
     1
  9
$ATTREQ
 70
     1
  9
$HANDLING
 70
     1
  9
$HANDSEED
  5
17E3
  9
$SURFTAB1
 70
     6
  9
$SURFTAB2
 70
     6
  9
$SURFTYPE
 70
     6
  9
$SURFU
 70
     6
  9
$SURFV
 70
     6
  9
$UCSNAME
  2

  9
$UCSORG
 10
0.0
 20
0.0
 30
0.0
  9
$UCSXDIR
 10
1.0
 20
0.0
 30
0.0
  9
$UCSYDIR
 10
0.0
 20
1.0
 30
0.0
  9
$PUCSNAME
  2

  9
$PUCSORG
 10
0.0
 20
0.0
 30
0.0
  9
$PUCSXDIR
 10
1.0
 20
0.0
 30
0.0
  9
$PUCSYDIR
 10
0.0
 20
1.0
 30
0.0
  9
$USERI1
 70
     0
  9
$USERI2
 70
     0
  9
$USERI3
 70
     0
  9
$USERI4
 70
     0
  9
$USERI5
 70
     0
  9
$USERR1
 40
0.0
  9
$USERR2
 40
0.0
  9
$USERR3
 40
0.0
  9
$USERR4
 40
0.0
  9
$USERR5
 40
0.0
  9
$WORLDVIEW
 70
     1
  9
$SHADEDGE
 70
     3
  9
$SHADEDIF
 70
    70
  9
$TILEMODE
 70
     1
  9
$MAXACTVP
 70
    64
  9
$PLIMCHECK
 70
     0
  9
$PEXTMIN
 10
1.0000000000000000E+020
 20
1.0000000000000000E+020
 30
1.0000000000000000E+020
  9
$PEXTMAX
 10
-1.0000000000000000E+020
 20
-1.0000000000000000E+020
 30
-1.0000000000000000E+020
  9
$PLIMMIN
 10
0.0
 20
0.0
  9
$PLIMMAX
 10
12.0
 20
9.0
  9
$UNITMODE
 70
     0
  9
$VISRETAIN
 70
     1
  9
$PLINEGEN
 70
     0
  9
$PSLTSCALE
 70
     1
  0
ENDSEC
  0
SECTION
  2
TABLES
  0
TABLE
  2
VPORT
 70
     1
  0
VPORT
  2
*ACTIVE
 70
     0
 10
0.0
 20
0.0
 11
1.0
 21
1.0
 12
0.0
 22
0.0
 13
0.0
 23
0.0
 14
1.0
 24
1.0
 15
0.0
 25
0.0
 16
0.0
 26
0.0
 36
32.915508013209092
 17
393.32023354673549
 27
60.505975726854103
 37
0.0
 40
11.425506421282771
 41
2.1637831603229518
 42
50.0
 43
0.0
 44
0.0
 50
0.0
 51
0.0
 71
     0
 72
   100
 73
     1
 74
     1
 75
     0
 76
     0
 77
     0
 78
     0
  0
ENDTAB
  0
TABLE
  2
LTYPE
 70
     2
  0
LTYPE
  2
CONTINUOUS
 70
     0
  3
Solid line
 72
    65
 73
     0
 40
0.0
  0
LTYPE
  2
PHANTOM2
 70
     0
  3
___ _ _ ___ _ _ ___ _ _ ___ _ _
 72
    65
 73
     6
 40
1.25
 49
0.625
 49
-0.125
 49
0.125
 49
-0.125
 49
0.125
 49
-0.125
  0
ENDTAB
  0
TABLE
  2
LAYER
 70
     2
  0
LAYER
  2
0
 70
     0
 62
   255
  6
CONTINUOUS
  0
LAYER
  2
DEFPOINTS
 70
     0
 62
     7
  6
CONTINUOUS
  0
ENDTAB
  0
TABLE
  2
STYLE
 70
     1
  0
STYLE
  2
STANDARD
 70
     0
 40
0.0
 41
0.8
 50
0.0
 71
     0
 42
0.2
  3
txt
  4

  0
ENDTAB
  0
TABLE
  2
VIEW
 70
     0
  0
ENDTAB
  0
TABLE
  2
UCS
 70
     0
  0
ENDTAB
  0
TABLE
  2
APPID
 70
    10
  0
APPID
  2
ACAD
 70
     0
  0
APPID
  2
ACAD_MLEADERVER
 70
     0
  0
APPID
  2
ACAD_EXEMPT_FROM_CAD_STANDARDS
 70
     0
  0
APPID
  2
ACAD_DSTYLE_DIMJAG
 70
     0
  0
APPID
  2
ACAD_DSTYLE_DIMTALN
 70
     0
  0
APPID
  2
ACAD_NAV_VCDISPLAY
 70
     0
  0
APPID
  2
ACAECLAYERSTANDARD
 70
     0
  0
APPID
  2
ACCMTRANSPARENCY
 70
     0
  0
APPID
  2
DCO15
 70
     0
  0
APPID
  2
ACDBATTR
 70
     0
  0
ENDTAB
  0
TABLE
  2
DIMSTYLE
 70
     1
  0
DIMSTYLE
  2
STANDARD
 70
     0
  3

  4

  5

  6

  7

 40
1.0
 41
0.1875
 42
0.0625
 43
0.38
 44
0.125
 45
0.0
 46
0.0
 47
0.01
 48
0.01
140
0.15625
141
0.09
142
0.0
143
25.399999999999999
144
1.0
145
0.0
146
1.0
147
0.09
 71
     1
 72
     0
 73
     1
 74
     1
 75
     0
 76
     0
 77
     0
 78
     4
170
     0
171
     2
172
     0
173
     0
174
     0
175
     0
176
     0
177
     0
178
     0
  0
ENDTAB
  0
ENDSEC
  0
SECTION
  2
BLOCKS
  0
BLOCK
  8
0
  2
$MODEL_SPACE
 70
     0
 10
0.0
 20
0.0
 30
0.0
  3
$MODEL_SPACE
  1

  0
ENDBLK
  5
21
  8
0
  0
BLOCK
 67
     1
  8
0
  2
$PAPER_SPACE
 70
     0
 10
0.0
 20
0.0
 30
0.0
  3
$PAPER_SPACE
  1

  0
ENDBLK
  5
1D
 67
     1
  8
0
  0
ENDSEC
  0
SECTION
  2
ENTITIES
  0
ATTDEF
  5
829
  8
DEFPOINTS
 10
395.70627765485227
 20
56.689686518255542
 30
0.0
 40
0.001
  1
K-73158-4
  3

  2
MODELNUMBER
 70
     0
1001
ACDBATTR
1070
     0
1070
     1
  0
ATTDEF
  5
82A
  8
DEFPOINTS
 10
395.70627765485227
 20
56.688019851588876
 30
0.0
 40
0.001
  1
COMPOSED
  3

  2
TRADENAME
 70
     0
1001
ACDBATTR
1070
     0
1070
     1
  0
ATTDEF
  5
82B
  8
DEFPOINTS
 10
395.70627765485227
 20
56.686353184922218
 30
0.0
 40
0.001
  1
BATHROOM SINK FAUCET
  3

  2
PRODUCT
 70
     0
1001
ACDBATTR
1070
     0
1070
     1
  0
ATTDEF
  5
82C
  8
DEFPOINTS
 10
395.70627765485227
 20
56.68468651825556
 30
0.0
 40
0.001
  1
METAL
  3

  2
MATERIAL
 70
     0
1001
ACDBATTR
1070
     0
1070
     1
  0
LINE
  5
143C
  8
0
 10
390.16825139661017
 20
60.678724690804103
 30
0.0
 11
390.2158165530102
 21
60.704015533104098
 31
0.0
  0
LINE
  5
143D
  8
0
 10
389.08274633211022
 20
60.925430999004099
 30
0.0
 11
389.09978388171021
 21
61.413322583804089
 31
0.0
  0
LINE
  5
143E
  8
0
 10
389.2818685851945
 20
60.886962229225972
 30
0.0
 11
389.27662525221018
 21
60.736812816004097
 31
0.0
  0
LINE
  5
143F
  8
0
 10
389.56488015611018
 20
60.817977108404101
 30
0.0
 11
389.56169820151018
 21
60.726857849204087
 31
0.0
  0
LINE
  5
1440
  8
0
 10
389.9307436037102
 20
60.713970499804098
 30
0.0
 11
389.93392555841029
 21
60.805089759004098
 31
0.0
  0
LINE
  5
1441
  8
0
 10
390.22105988488448
 20
60.854164911677337
 30
0.0
 11
390.2158165530102
 21
60.704015533104098
 31
0.0
  0
LINE
  5
1442
  8
0
 10
394.70615323211018
 20
56.8140585919041
 30
0.0
 11
394.70615323211018
 21
56.676263316304102
 31
0.0
  0
LINE
  5
1443
  8
0
 10
394.86363354701018
 20
60.659432886304103
 30
0.0
 11
394.86363354701018
 21
56.865239694304101
 31
0.0
  0
LINE
  5
1444
  8
0
 10
395.19677792601021
 20
61.2858250600041
 30
0.0
 11
395.19622832761019
 21
61.270086621804097
 31
0.0
  0
LINE
  5
1445
  8
0
 10
395.19583624221019
 20
61.254411437904103
 30
0.0
 11
395.19506043111022
 21
61.236642440604101
 31
0.0
  0
LINE
  5
1446
  8
0
 10
396.55342348746069
 20
58.952739283717278
 30
0.0
 11
396.61358371751021
 21
59.118028157204101
 31
0.0
  0
LINE
  5
1447
  8
0
 10
396.55409313763568
 20
58.321471880561603
 30
0.0
 11
396.81706046611021
 21
59.0439686773041
 31
0.0
  0
LINE
  5
1448
  8
0
 10
394.70615323211018
 20
56.676263316304102
 30
0.0
 11
396.71402724781018
 21
56.676263316304102
 31
0.0
  0
LINE
  5
1449
  8
0
 10
396.69434220841032
 20
56.833743631304088
 30
0.0
 11
394.72583827141023
 21
56.833743631304088
 31
0.0
  0
LINE
  5
144A
  8
0
 10
395.5447359092102
 20
64.304192074404099
 30
0.0
 11
395.5447359092102
 21
61.8553731768041
 31
0.0
  0
LINE
  5
144B
  8
0
 10
395.5526099250103
 20
61.48726294060409
 30
0.0
 11
395.5526099250103
 21
61.463406884704092
 31
0.0
  0
LINE
  5
144C
  8
0
 10
395.62150756281022
 20
61.81600309810409
 30
0.0
 11
395.62150756281022
 21
61.516790499604099
 31
0.0
  0
LINE
  5
144D
  8
0
 10
395.79867291711031
 20
61.81600309810409
 30
0.0
 11
395.79867291711031
 21
61.516790499604099
 31
0.0
  0
LINE
  5
144E
  8
0
 10
395.86757055491017
 20
61.48726294060409
 30
0.0
 11
395.86757055491017
 21
61.463406884704092
 31
0.0
  0
LINE
  5
144F
  8
0
 10
395.87544457061028
 20
64.304192074404099
 30
0.0
 11
395.87544457061028
 21
61.8553731768041
 31
0.0
  0
LINE
  5
1450
  8
0
 10
396.21852449671019
 20
61.21869837710409
 30
0.0
 11
396.21805891541021
 21
61.200918546304088
 31
0.0
  0
LINE
  5
1451
  8
0
 10
396.21977641031032
 20
61.250101165804089
 30
0.0
 11
396.21922681201022
 21
61.2343627276041
 31
0.0
  0
LINE
  5
1452
  8
0
 10
396.55654693281019
 20
56.865239694304101
 30
0.0
 11
396.55654693281019
 21
58.2706584226041
 31
0.0
  0
LINE
  5
1453
  8
0
 10
396.55654693281019
 20
59.0188760841041
 30
0.0
 11
396.55654693281019
 21
60.602508438404101
 31
0.0
  0
LINE
  5
1454
  8
0
 10
396.55654693281019
 20
60.665542949904101
 30
0.0
 11
396.55654693281019
 21
61.154029503904098
 31
0.0
  0
LINE
  5
1455
  8
0
 10
396.71402724781018
 20
56.8140585919041
 30
0.0
 11
396.71402724781018
 21
56.676263316304102
 31
0.0
  0
LINE
  5
1456
  8
0
 10
389.32231034231017
 20
60.708265603404101
 30
0.0
 11
389.27662525221018
 21
60.736812816004097
 31
0.0
  0
LINE
  5
1457
  8
0
 10
397.55772076141022
 20
59.251462927804099
 30
0.0
 11
397.55772076141022
 21
59.4286282821041
 31
0.0
  0
LINE
  5
1458
  8
0
 10
397.08527981651031
 20
59.231777888404089
 30
0.0
 11
397.53803572201031
 21
59.231777888404089
 31
0.0
  0
LINE
  5
1459
  8
0
 10
397.08527981651031
 20
59.448313321504102
 30
0.0
 11
397.53803572201031
 21
59.448313321504102
 31
0.0
  0
LINE
  5
145A
  8
0
 10
389.32231034231017
 20
60.708265603404101
 30
0.0
 11
390.16825139661017
 21
60.678724690804103
 31
0.0
  0
LINE
  5
145B
  8
0
 10
389.27662525221018
 20
60.736812816004097
 30
0.0
 11
389.56169820151018
 21
60.726857849204087
 31
0.0
  0
LINE
  5
145C
  8
0
 10
389.9307436037102
 20
60.713970499804098
 30
0.0
 11
390.2158165530102
 21
60.704015533104098
 31
0.0
  0
LINE
  5
145D
  8
0
 10
389.56488015611018
 20
60.817977108404101
 30
0.0
 11
389.93392555841029
 21
60.805089759004098
 31
0.0
  0
LINE
  5
145E
  8
0
 10
389.11312401181021
 20
60.892854925804102
 30
0.0
 11
396.52390177147299
 21
60.634064590388739
 31
0.0
  0
LINE
  5
145F
  8
0
 10
395.87544457061028
 20
61.463406884704092
 30
0.0
 11
395.5447359092102
 21
61.463406884704092
 31
0.0
  0
LINE
  5
1460
  8
0
 10
395.85772803521019
 20
61.497105460304098
 30
0.0
 11
395.56245244471017
 21
61.497105460304098
 31
0.0
  0
LINE
  5
1461
  8
0
 10
389.13235995491021
 20
61.443700263504098
 30
0.0
 11
396.52610018684868
 21
61.185505448460631
 31
0.0
  0
LINE
  5
1462
  8
0
 10
395.19506043111022
 20
61.236642440604101
 30
0.0
 11
396.21805891541021
 21
61.200918546304088
 31
0.0
  0
LINE
  5
1463
  8
0
 10
396.21108279371032
 20
61.226768307604097
 30
0.0
 11
395.2039775628952
 21
61.261937197166482
 31
0.0
  0
LINE
  5
1464
  8
0
 10
395.21713797177779
 20
61.30481110990997
 30
0.0
 11
396.2007903605778
 21
61.270461211509961
 31
0.0
  0
LINE
  5
1465
  8
0
 10
395.94156917999521
 20
61.289361933666477
 30
0.0
 11
395.47704615019518
 21
61.305583435366479
 31
0.0
  0
LINE
  5
1466
  8
0
 10
395.56442094861018
 20
61.835688137404098
 30
0.0
 11
395.8557595313103
 21
61.835688137404098
 31
0.0
  0
LINE
  5
1467
  8
0
 10
395.84394850761021
 20
64.335688137404105
 30
0.0
 11
395.57623197221022
 21
64.335688137404105
 31
0.0
  0
ARC
  5
1468
  8
0
 10
397.08527981651031
 20
58.946344817504098
 30
0.0
 40
0.5019685039000001
 50
90.0
 51
160.0000000000004
  0
ARC
  5
1469
  8
0
 10
397.08527981651031
 20
58.946344817504098
 30
0.0
 40
0.2854330709
 50
90.0
 51
160.0000000000004
  0
ARC
  5
146A
  8
0
 10
396.52505086981029
 20
56.865239694304101
 30
0.0
 40
0.031496063
 50
270.0
 51
0.0
  0
ARC
  5
146B
  8
0
 10
394.89512961001031
 20
56.865239694304101
 30
0.0
 40
0.031496063
 50
180.0
 51
270.0
  0
ARC
  5
146C
  8
0
 10
396.69434220841032
 20
56.8140585919041
 30
0.0
 40
0.0196850394
 50
0.0
 51
90.0
  0
ARC
  5
146D
  8
0
 10
394.72583827141023
 20
56.8140585919041
 30
0.0
 40
0.0196850394
 50
90.0
 51
180.0
  0
ARC
  5
146E
  8
0
 10
397.53803572201031
 20
59.4286282821041
 30
0.0
 40
0.0196850394
 50
0.0000000006998238
 51
90.0
  0
ARC
  5
146F
  8
0
 10
397.53803572201031
 20
59.251462927804099
 30
0.0
 40
0.0196850394
 50
270.0
 51
0.0
  0
ARC
  5
1470
  8
0
 10
389.13126075811022
 20
61.412223387104092
 30
0.0
 40
0.031496063
 50
87.999999999999616
 51
178.0
  0
ARC
  5
1471
  8
0
 10
389.11422320851023
 20
60.924331802204101
 30
0.0
 40
0.031496063
 50
178.0
 51
267.9999999999996
  0
ARC
  5
1472
  8
0
 10
394.89504706131061
 20
60.659512752784849
 30
0.0
 40
0.0314136158273945
 50
87.963814940958414
 51
180.1456698657895
  0
ARC
  5
1473
  8
0
 10
395.2164509738102
 20
61.285138062104103
 30
0.0
 40
0.0196850394
 50
87.999999999999616
 51
178.0
  0
ARC
  5
1474
  8
0
 10
395.23488742521022
 20
61.249039578104103
 30
0.0
 40
0.0196850394
 50
222.4270038745826
 51
247.4532727413187
  0
ARC
  5
1475
  8
0
 10
395.56442094861018
 20
61.8553731768041
 30
0.0
 40
0.0196850394
 50
180.0
 51
270.0
  0
ARC
  5
1476
  8
0
 10
395.60182252322392
 20
61.81600309802689
 30
0.0
 40
0.0196850395863848
 50
0.0000002247118369
 51
89.991647262282399
  0
ARC
  5
1477
  8
0
 10
395.6018225230597
 20
61.51679049974932
 30
0.0
 40
0.0196850397505788
 50
270.01009195135077
 51
359.99999957732189
  0
ARC
  5
1478
  8
0
 10
395.56245244471017
 20
61.48726294060409
 30
0.0
 40
0.0098425197
 50
90.0
 51
180.0
  0
ARC
  5
1479
  8
0
 10
395.2041000985152
 20
61.269812776684873
 30
0.0
 40
0.0078765327225162
 50
178.00758380332201
 51
269.1086106868795
  0
ARC
  5
147A
  8
0
 10
395.20370276371023
 20
61.254067978104089
 30
0.0
 40
0.0078740157
 50
87.999999999999616
 51
177.4999999999998
  0
ARC
  5
147B
  8
0
 10
395.4767713510102
 20
61.297714216304101
 30
0.0
 40
0.0078740157
 50
87.999999999999616
 51
192.47751206895771
  0
ARC
  5
147C
  8
0
 10
395.5447359092102
 20
61.4594698768041
 30
0.0
 40
0.0039370079
 50
90.0
 51
139.78582898269971
  0
ARC
  5
147D
  8
0
 10
396.52106760161382
 20
60.59846866043307
 30
0.0
 40
0.0357085808763096
 50
6.4958849717056424
 51
85.447678277236605
  0
ARC
  5
147E
  8
0
 10
396.5249690940521
 20
60.665624491721502
 30
0.0
 40
0.0315779440385541
 50
268.06305748566359
 51
359.8520484051254
  0
ARC
  5
147F
  8
0
 10
396.52496191908477
 20
61.15394082741021
 30
0.0
 40
0.0315851382070595
 50
0.1608603224474434
 51
87.934722857529295
  0
ARC
  5
1480
  8
0
 10
396.1791937184102
 20
61.216063675704099
 30
0.0
 40
0.0196850394
 50
288.5470315428995
 51
313.57299599567801
  0
ARC
  5
1481
  8
0
 10
396.21065042985038
 20
61.218903446299997
 30
0.0
 40
0.0078767367507042
 50
358.5081477703672
 51
86.853382022134497
  0
ARC
  5
1482
  8
0
 10
395.7100902399103
 20
61.319664515404099
 30
0.0
 40
0.2204724409
 50
352.21946139813213
 51
40.21417101740051
  0
ARC
  5
1483
  8
0
 10
395.7100902399103
 20
61.319664515404099
 30
0.0
 40
0.2204724409
 50
139.7858289825995
 51
183.7805385888721
  0
ARC
  5
1484
  8
0
 10
396.20010336261021
 20
61.250788163704101
 30
0.0
 40
0.0196850394
 50
358.0
 51
87.999999999999616
  0
ARC
  5
1485
  8
0
 10
395.8557595313103
 20
61.8553731768041
 30
0.0
 40
0.0196850394
 50
270.0
 51
0.0
  0
ARC
  5
1486
  8
0
 10
395.81835795670258
 20
61.81600309802441
 30
0.0
 40
0.0196850395923729
 50
90.008422516670635
 51
179.9999997680701
  0
ARC
  5
1487
  8
0
 10
395.81835795694769
 20
61.516790499785323
 30
0.0
 40
0.0196850398374977
 50
180.00000052747501
 51
269.98909913540359
  0
ARC
  5
1488
  8
0
 10
395.85772803521019
 20
61.48726294060409
 30
0.0
 40
0.0098425197
 50
0.0
 51
90.0
  0
ARC
  5
1489
  8
0
 10
396.2113575928102
 20
61.234637526704098
 30
0.0
 40
0.0078740157
 50
267.9999999999996
 51
358.0
  0
ARC
  5
148A
  8
0
 10
395.94129438081018
 20
61.281492714604099
 30
0.0
 40
0.0078740157
 50
343.52248806817209
 51
87.999999999999616
  0
ARC
  5
148B
  8
0
 10
395.87544457061028
 20
61.4594698768041
 30
0.0
 40
0.0039370079
 50
40.214171017300309
 51
90.0
  0
ARC
  5
148C
  8
0
 10
395.84394850761021
 20
64.304192074404099
 30
0.0
 40
0.031496063
 50
0.0
 51
90.0
  0
ARC
  5
148D
  8
0
 10
395.57623197221022
 20
64.304192074404099
 30
0.0
 40
0.031496063
 50
90.0
 51
180.0
  0
ARC
  5
148E
  8
0
 10
403.7762810303044
 20
58.644767253845451
 30
0.0
 40
7.2294202987099583
 50
177.03372686491741
 51
182.96627314254911
  0
ARC
  5
148F
  8
0
 10
389.7731010910523
 20
61.490162060351992
 30
0.0
 40
0.7920381938157207
 50
254.5195256037928
 51
281.48047440309767
  0
ARC
  5
1490
  8
0
 10
389.72252266890092
 20
60.041785550018297
 30
0.0
 40
0.7920381917233029
 50
74.519525564330522
 51
101.48047444364281
  0
ENDSEC
  0
EOF
