  0
SECTION
  2
HEADER
  9
$ACADVER
  1
AC1009
  9
$INSBASE
 10
3829.7095332242238328
 20
116.4512280432076068
 30
0.0
  9
$EXTMIN
 10
3817.9378796809228334
 20
113.0004406416075966
 30
0.0
  9
$EXTMAX
 10
3829.7282071232311864
 20
117.4512280432076068
 30
0.0
  9
$LIMMIN
 10
0.0
 20
0.0
  9
$LIMMAX
 10
11.6929133858000007
 20
8.2677165353999982
  9
$ORTHOMODE
 70
     1
  9
$REGENMODE
 70
     1
  9
$FILLMODE
 70
     1
  9
$QTEXTMODE
 70
     0
  9
$MIRRTEXT
 70
     0
  9
$DRAGMODE
 70
     2
  9
$LTSCALE
 40
0.6431102362
  9
$OSMODE
 70
  4095
  9
$ATTMODE
 70
     1
  9
$TEXTSIZE
 40
0.2
  9
$TRACEWID
 40
0.05
  9
$TEXTSTYLE
  7
STANDARD
  9
$CLAYER
  8
0
  9
$CELTYPE
  6
BYLAYER
  9
$CECOLOR
 62
   256
  9
$DIMSCALE
 40
1.0
  9
$DIMASZ
 40
0.1875
  9
$DIMEXO
 40
0.0625
  9
$DIMDLI
 40
0.4443307087
  9
$DIMRND
 40
0.0
  9
$DIMDLE
 40
0.0
  9
$DIMEXE
 40
0.125
  9
$DIMTP
 40
0.01
  9
$DIMTM
 40
0.01
  9
$DIMTXT
 40
2.0
  9
$DIMCEN
 40
0.1052362205
  9
$DIMTSZ
 40
0.0
  9
$DIMTOL
 70
     1
  9
$DIMLIM
 70
     0
  9
$DIMTIH
 70
     1
  9
$DIMTOH
 70
     1
  9
$DIMSE1
 70
     0
  9
$DIMSE2
 70
     0
  9
$DIMTAD
 70
     0
  9
$DIMZIN
 70
     0
  9
$DIMBLK
  1

  9
$DIMASO
 70
     1
  9
$DIMSHO
 70
     1
  9
$DIMPOST
  1
\X
  9
$DIMAPOST
  1

  9
$DIMALT
 70
     1
  9
$DIMALTD
 70
     2
  9
$DIMALTF
 40
25.3999999999999986
  9
$DIMLFAC
 40
1.0
  9
$DIMTOFL
 70
     0
  9
$DIMTVP
 40
0.0
  9
$DIMTIX
 70
     0
  9
$DIMSOXD
 70
     0
  9
$DIMSAH
 70
     0
  9
$DIMBLK1
  1

  9
$DIMBLK2
  1

  9
$DIMSTYLE
  2
STANDARD
  9
$DIMCLRD
 70
     0
  9
$DIMCLRE
 70
     0
  9
$DIMCLRT
 70
     0
  9
$DIMTFAC
 40
1.0
  9
$DIMGAP
 40
0.09
  9
$LUNITS
 70
     2
  9
$LUPREC
 70
     4
  9
$SKETCHINC
 40
0.1
  9
$FILLETRAD
 40
0.0
  9
$AUNITS
 70
     0
  9
$AUPREC
 70
     0
  9
$MENU
  1
.
  9
$ELEVATION
 40
0.0
  9
$PELEVATION
 40
0.0
  9
$THICKNESS
 40
0.0
  9
$LIMCHECK
 70
     0
  9
$BLIPMODE
 70
     0
  9
$CHAMFERA
 40
0.0
  9
$CHAMFERB
 40
0.0
  9
$SKPOLY
 70
     0
  9
$TDCREATE
 40
2458060.468368056230247
  9
$TDUPDATE
 40
2458863.8942939820699394
  9
$TDINDWG
 40
0.3211181713
  9
$TDUSRTIMER
 40
0.3211181713
  9
$USRTIMER
 70
     1
  9
$ANGBASE
 50
0.0
  9
$ANGDIR
 70
     0
  9
$PDMODE
 70
     0
  9
$PDSIZE
 40
0.3125
  9
$PLINEWID
 40
0.0
  9
$COORDS
 70
     1
  9
$SPLFRAME
 70
     0
  9
$SPLINETYPE
 70
     6
  9
$SPLINESEGS
 70
     8
  9
$ATTDIA
 70
     1
  9
$ATTREQ
 70
     1
  9
$HANDLING
 70
     1
  9
$HANDSEED
  5
6952
  9
$SURFTAB1
 70
     6
  9
$SURFTAB2
 70
     6
  9
$SURFTYPE
 70
     6
  9
$SURFU
 70
     6
  9
$SURFV
 70
     6
  9
$UCSNAME
  2

  9
$UCSORG
 10
0.0
 20
0.0
 30
0.0
  9
$UCSXDIR
 10
1.0
 20
0.0
 30
0.0
  9
$UCSYDIR
 10
0.0
 20
1.0
 30
0.0
  9
$PUCSNAME
  2

  9
$PUCSORG
 10
0.0
 20
0.0
 30
0.0
  9
$PUCSXDIR
 10
1.0
 20
0.0
 30
0.0
  9
$PUCSYDIR
 10
0.0
 20
1.0
 30
0.0
  9
$USERI1
 70
     0
  9
$USERI2
 70
     0
  9
$USERI3
 70
     0
  9
$USERI4
 70
     0
  9
$USERI5
 70
     0
  9
$USERR1
 40
0.0
  9
$USERR2
 40
0.0
  9
$USERR3
 40
0.0
  9
$USERR4
 40
0.0
  9
$USERR5
 40
0.0
  9
$WORLDVIEW
 70
     1
  9
$SHADEDGE
 70
     3
  9
$SHADEDIF
 70
    70
  9
$TILEMODE
 70
     1
  9
$MAXACTVP
 70
    64
  9
$PLIMCHECK
 70
     0
  9
$PEXTMIN
 10
1.0000000000000000E+20
 20
1.0000000000000000E+20
 30
1.0000000000000000E+20
  9
$PEXTMAX
 10
-1.0000000000000000E+20
 20
-1.0000000000000000E+20
 30
-1.0000000000000000E+20
  9
$PLIMMIN
 10
0.0
 20
0.0
  9
$PLIMMAX
 10
12.0
 20
9.0
  9
$UNITMODE
 70
     0
  9
$VISRETAIN
 70
     1
  9
$PLINEGEN
 70
     0
  9
$PSLTSCALE
 70
     1
  0
ENDSEC
  0
SECTION
  2
TABLES
  0
TABLE
  2
VPORT
 70
     1
  0
VPORT
  2
*ACTIVE
 70
     0
 10
0.0
 20
0.0
 11
1.0
 21
1.0
 12
0.0
 22
0.0
 13
0.0
 23
0.0
 14
1.0
 24
1.0
 15
0.0
 25
0.0
 16
0.0
 26
0.0
 36
36.1037962765027274
 17
3823.8330977023979358
 27
115.2258338928221946
 37
0.0
 40
12.6077451338576996
 41
2.1481900452488678
 42
50.0
 43
0.0
 44
0.0
 50
0.0
 51
0.0
 71
     0
 72
   100
 73
     1
 74
     1
 75
     0
 76
     0
 77
     0
 78
     0
  0
ENDTAB
  0
TABLE
  2
LTYPE
 70
     2
  0
LTYPE
  2
CONTINUOUS
 70
     0
  3
Solid line
 72
    65
 73
     0
 40
0.0
  0
LTYPE
  2
PHANTOM2
 70
     0
  3
___ _ _ ___ _ _ ___ _ _ ___ _ _
 72
    65
 73
     6
 40
1.25
 49
0.625
 49
-0.125
 49
0.125
 49
-0.125
 49
0.125
 49
-0.125
  0
ENDTAB
  0
TABLE
  2
LAYER
 70
     2
  0
LAYER
  2
0
 70
     0
 62
   255
  6
CONTINUOUS
  0
LAYER
  2
DEFPOINTS
 70
     0
 62
     7
  6
CONTINUOUS
  0
ENDTAB
  0
TABLE
  2
STYLE
 70
     1
  0
STYLE
  2
STANDARD
 70
     0
 40
0.0
 41
0.8
 50
0.0
 71
     0
 42
0.2
  3
txt
  4

  0
ENDTAB
  0
TABLE
  2
VIEW
 70
     0
  0
ENDTAB
  0
TABLE
  2
UCS
 70
     0
  0
ENDTAB
  0
TABLE
  2
APPID
 70
     9
  0
APPID
  2
ACAD
 70
     0
  0
APPID
  2
ACAD_MLEADERVER
 70
     0
  0
APPID
  2
ACAD_EXEMPT_FROM_CAD_STANDARDS
 70
     0
  0
APPID
  2
ACAD_NAV_VCDISPLAY
 70
     0
  0
APPID
  2
ACAECLAYERSTANDARD
 70
     0
  0
APPID
  2
ACCMTRANSPARENCY
 70
     0
  0
APPID
  2
ACAD_DSTYLE_DIMJAG
 70
     0
  0
APPID
  2
ACAD_DSTYLE_DIMTALN
 70
     0
  0
APPID
  2
ACDBATTR
 70
     0
  0
ENDTAB
  0
TABLE
  2
DIMSTYLE
 70
     1
  0
DIMSTYLE
  2
STANDARD
 70
     0
  3

  4

  5

  6

  7

 40
1.0
 41
0.1875
 42
0.0625
 43
0.38
 44
0.125
 45
0.0
 46
0.0
 47
0.01
 48
0.01
140
0.15625
141
0.09
142
0.0
143
25.3999999999999986
144
1.0
145
0.0
146
1.0
147
0.09
 71
     1
 72
     0
 73
     1
 74
     1
 75
     0
 76
     0
 77
     0
 78
     4
170
     0
171
     2
172
     0
173
     0
174
     0
175
     0
176
     0
177
     0
178
     0
  0
ENDTAB
  0
ENDSEC
  0
SECTION
  2
BLOCKS
  0
BLOCK
  8
0
  2
$MODEL_SPACE
 70
     0
 10
0.0
 20
0.0
 30
0.0
  3
$MODEL_SPACE
  1

  0
ENDBLK
  5
21
  8
0
  0
BLOCK
 67
     1
  8
0
  2
$PAPER_SPACE
 70
     0
 10
0.0
 20
0.0
 30
0.0
  3
$PAPER_SPACE
  1

  0
ENDBLK
  5
1D
 67
     1
  8
0
  0
ENDSEC
  0
SECTION
  2
ENTITIES
  0
ATTDEF
  5
3930
  8
DEFPOINTS
 10
3829.7175404565618919
 20
116.4528947098743004
 30
0.0
 40
0.001
  1
K-73157
  3

  2
MODELNUMBER
 70
     0
1001
ACDBATTR
1070
     0
1070
     1
  0
ATTDEF
  5
3931
  8
DEFPOINTS
 10
3829.7175404565618919
 20
116.4512280432076068
 30
0.0
 40
0.001
  1
COMPOSED
  3

  2
TRADENAME
 70
     0
1001
ACDBATTR
1070
     0
1070
     1
  0
ATTDEF
  5
3932
  8
DEFPOINTS
 10
3829.7175404565618919
 20
116.449561376540899
 30
0.0
 40
0.001
  1
HOTELIER
  3

  2
PRODUCT
 70
     0
1001
ACDBATTR
1070
     0
1070
     1
  0
LINE
  5
688B
  8
0
 10
3829.7095332242238328
 20
117.4512280432076068
 30
0.0
 11
3829.7095332242238328
 21
115.4512280432076068
 31
0.0
  0
LINE
  5
688C
  8
0
 10
3829.3945725943231082
 20
117.4197319802076009
 30
0.0
 11
3829.3945725943231082
 21
115.4827241062075984
 31
0.0
  0
LINE
  5
688D
  8
0
 10
3827.2882733817241387
 20
113.0319367046076025
 30
0.0
 11
3827.2882733817241387
 21
116.8705193818075969
 31
0.0
  0
LINE
  5
688E
  8
0
 10
3826.9378796809241976
 20
113.0319367046076025
 30
0.0
 11
3826.9378796809241976
 21
116.8705193818075969
 31
0.0
  0
LINE
  5
688F
  8
0
 10
3826.9693757439240471
 20
113.0004406416075966
 30
0.0
 11
3827.256777318722925
 21
113.0004406416075966
 31
0.0
  0
LINE
  5
6890
  8
0
 10
3824.2882733817227745
 20
116.8705193818075969
 30
0.0
 11
3824.2882733817227745
 21
116.0319367046076025
 31
0.0
  0
LINE
  5
6891
  8
0
 10
3823.9378796809241976
 20
116.0319367046076025
 30
0.0
 11
3823.9378796809241976
 21
116.8705193817075951
 31
0.0
  0
LINE
  5
6892
  8
0
 10
3829.7095332242238328
 20
115.4512280432076068
 30
0.0
 11
3829.4260686572238228
 21
115.4512280432076068
 31
0.0
  0
LINE
  5
6893
  8
0
 10
3829.3630765313228039
 20
116.0004406417075984
 30
0.0
 11
3828.8237064525228561
 21
116.0004406417075984
 31
0.0
  0
LINE
  5
6894
  8
0
 10
3828.6268560588241598
 20
116.0004406417075984
 30
0.0
 11
3827.2882733817241387
 21
116.0004406417075984
 31
0.0
  0
LINE
  5
6895
  8
0
 10
3826.9063836179238933
 20
116.0004406417075984
 30
0.0
 11
3824.3197694446239439
 21
116.0004406417075984
 31
0.0
  0
LINE
  5
6896
  8
0
 10
3823.9063836179238933
 20
116.0004406417075984
 30
0.0
 11
3821.3197694446239439
 21
116.0004406417075984
 31
0.0
  0
LINE
  5
6897
  8
0
 10
3820.9063836179238933
 20
116.0004406417075984
 30
0.0
 11
3818.3197694446239439
 21
116.0004406417075984
 31
0.0
  0
LINE
  5
6898
  8
0
 10
3817.9693757439231376
 20
116.0004406418076002
 30
0.0
 11
3818.2567773187238345
 21
116.0004406418076002
 31
0.0
  0
LINE
  5
6899
  8
0
 10
3820.9693757439231376
 20
116.0004406418076002
 30
0.0
 11
3821.256777318722925
 21
116.0004406418076002
 31
0.0
  0
LINE
  5
689A
  8
0
 10
3823.9693757439231376
 20
116.0004406418076002
 30
0.0
 11
3824.256777318722925
 21
116.0004406418076002
 31
0.0
  0
LINE
  5
689B
  8
0
 10
3829.3630765313228039
 20
116.9020154448076028
 30
0.0
 11
3827.3197694446239439
 21
116.9020154448076028
 31
0.0
  0
LINE
  5
689C
  8
0
 10
3827.256777318722925
 20
116.9020154448076028
 30
0.0
 11
3826.9693757439240471
 21
116.9020154448076028
 31
0.0
  0
LINE
  5
689D
  8
0
 10
3826.9063836179238933
 20
116.9020154448076028
 30
0.0
 11
3824.3197694446239439
 21
116.9020154448076028
 31
0.0
  0
LINE
  5
689E
  8
0
 10
3824.256777318722925
 20
116.902015444707601
 30
0.0
 11
3823.9693757439231376
 21
116.902015444707601
 31
0.0
  0
LINE
  5
689F
  8
0
 10
3823.9063836179238933
 20
116.9020154448076028
 30
0.0
 11
3821.3197694446239439
 21
116.9020154448076028
 31
0.0
  0
LINE
  5
68A0
  8
0
 10
3821.256777318722925
 20
116.902015444707601
 30
0.0
 11
3820.9693757439231376
 21
116.902015444707601
 31
0.0
  0
LINE
  5
68A1
  8
0
 10
3820.9063836179238933
 20
116.9020154448076028
 30
0.0
 11
3818.3197694446239439
 21
116.9020154448076028
 31
0.0
  0
LINE
  5
68A2
  8
0
 10
3818.2567773187238345
 20
116.902015444707601
 30
0.0
 11
3817.9693757439231376
 21
116.902015444707601
 31
0.0
  0
LINE
  5
68A3
  8
0
 10
3821.2882733817227745
 20
116.8705193818075969
 30
0.0
 11
3821.2882733817227745
 21
116.0319367046076025
 31
0.0
  0
LINE
  5
68A4
  8
0
 10
3829.7095332242238328
 20
117.4512280432076068
 30
0.0
 11
3829.4260686572238228
 21
117.4512280432076068
 31
0.0
  0
LINE
  5
68A5
  8
0
 10
3820.9378796809228334
 20
116.0319367046076025
 30
0.0
 11
3820.9378796809228334
 21
116.8705193817075951
 31
0.0
  0
LINE
  5
68A6
  8
0
 10
3818.2882733817227745
 20
116.8705155391076005
 30
0.0
 11
3818.2882733817227745
 21
116.0319643994075989
 31
0.0
  0
LINE
  5
68A7
  8
0
 10
3818.2882733817227745
 20
116.8705155391076005
 30
0.0
 11
3818.2882733817227745
 21
116.0319367046076025
 31
0.0
  0
LINE
  5
68A8
  8
0
 10
3817.9378796809228334
 20
116.031929019407599
 30
0.0
 11
3817.9378796809228334
 21
116.8705193817075951
 31
0.0
  0
ARC
  5
68A9
  8
0
 10
3820.9728469511310323
 20
116.0354079120153017
 30
0.0
 40
0.0351391414985686
 50
185.6691885632195067
 51
264.3308114369708051
  0
ARC
  5
68AA
  8
0
 10
3820.9712427546428444
 20
116.8686523709879026
 30
0.0
 40
0.0334152722127724
 50
93.2029537109476252
 51
176.797046289052588
  0
ARC
  5
68AB
  8
0
 10
3821.2536849485431958
 20
116.8674270115276954
 30
0.0
 40
0.0347263943301114
 50
5.108931416642374
 51
84.8910685836468133
  0
ARC
  5
68AC
  8
0
 10
3821.256777318722925
 20
116.031936704807606
 30
0.0
 40
0.031496063
 50
270.0
 51
359.9999999996995257
  0
ARC
  5
68AD
  8
0
 10
3823.9693757439231376
 20
116.031936704807606
 30
0.0
 40
0.031496063
 50
180.000000000199492
 51
270.0
  0
ARC
  5
68AE
  8
0
 10
3823.9711861229498027
 20
116.8687090026811006
 30
0.0
 40
0.0333556075148022
 50
93.1112631189531044
 51
176.888736881048203
  0
ARC
  5
68AF
  8
0
 10
3824.256777318722925
 20
116.8705193817075951
 30
0.0
 40
0.031496063
 50
0.0000000003004479
 51
90.0
  0
ARC
  5
68B0
  8
0
 10
3824.25321298771496
 20
116.0355010358162957
 30
0.0
 40
0.0352411078654576
 50
275.8048946423190273
 51
354.1951053573620243
  0
ARC
  5
68B1
  8
0
 10
3817.9711618614060171
 20
116.0337232591672034
 30
0.0
 40
0.0333305090565546
 50
183.0858239054032026
 51
266.9281586266952786
  0
ARC
  5
68B2
  8
0
 10
3817.9722243372129924
 20
116.8676707884174988
 30
0.0
 40
0.0344625869518543
 50
94.7413387429132143
 51
175.2586612570792965
  0
ARC
  5
68B3
  8
0
 10
3818.2543963602897747
 20
116.8681387134954974
 30
0.0
 40
0.0339602985952111
 50
4.0133185006763421
 51
85.9796915129218746
  0
ARC
  5
68B4
  8
0
 10
3818.2554148044951035
 20
116.0332992190355981
 30
0.0
 40
0.0328868141124808
 50
272.3744673165937229
 51
357.6255326838207225
  0
ARC
  5
68B5
  8
0
 10
3829.4260686572238228
 20
117.4197319802076009
 30
0.0
 40
0.031496063
 50
90.0
 51
180.0
  0
ARC
  5
68B6
  8
0
 10
3829.4260686572238228
 20
115.4827241062075984
 30
0.0
 40
0.031496063
 50
180.0
 51
270.0
  0
ARC
  5
68B7
  8
0
 10
3826.9714404895112239
 20
116.8684546362203065
 30
0.0
 40
0.0336242627781917
 50
93.5205435578138236
 51
176.4794564421860912
  0
ARC
  5
68B8
  8
0
 10
3826.9693757439240471
 20
113.0319367046076025
 30
0.0
 40
0.031496063
 50
180.0
 51
270.0
  0
ARC
  5
68B9
  8
0
 10
3827.256777318722925
 20
113.0319367046076025
 30
0.0
 40
0.031496063
 50
270.0
 51
0.0
  0
ARC
  5
68BA
  8
0
 10
3827.256777318722925
 20
116.8705193818075969
 30
0.0
 40
0.031496063
 50
0.0
 51
90.0
  0
ARC
  5
68BB
  8
0
 10
3827.3197694446239439
 20
116.8705193818075969
 30
0.0
 40
0.031496063
 50
90.0
 51
180.0
  0
ARC
  5
68BC
  8
0
 10
3829.3630765313228039
 20
116.8705193818075969
 30
0.0
 40
0.031496063
 50
0.0
 51
90.0
  0
ARC
  5
68BD
  8
0
 10
3829.3610094821228813
 20
116.0340037538080935
 30
0.0
 40
0.0336267035699358
 50
273.5242202001767851
 51
356.4757797998303772
  0
ARC
  5
68BE
  8
0
 10
3818.3222826406467902
 20
116.0344499006310031
 30
0.0
 40
0.0341019919296456
 50
184.226327573566806
 51
265.7736724264386794
  0
ARC
  5
68BF
  8
0
 10
3818.3229164577442134
 20
116.8673727523589037
 30
0.0
 40
0.0347853393210183
 50
95.1906190797694762
 51
174.8163709069465881
  0
ARC
  5
68C0
  8
0
 10
3820.9035998955141622
 20
116.8677356593989032
 30
0.0
 40
0.0343926270894146
 50
4.6425708722287986
 51
85.3574291277898709
  0
ARC
  5
68C1
  8
0
 10
3820.9023997914118809
 20
116.0359205311193023
 30
0.0
 40
0.0357028490940947
 50
276.4065693663312118
 51
353.593430633670323
  0
ARC
  5
68C2
  8
0
 10
3823.9063836179238933
 20
116.0319367046076025
 30
0.0
 40
0.031496063
 50
270.0
 51
0.0
  0
ARC
  5
68C3
  8
0
 10
3823.9033032963388905
 20
116.8674390602223951
 30
0.0
 40
0.0347133224001115
 50
5.0908946188323148
 51
84.9091053811526564
  0
ARC
  5
68C4
  8
0
 10
3821.3223864471838169
 20
116.867902379247198
 30
0.0
 40
0.0342133006932707
 50
94.386884650509927
 51
175.6131153494841897
  0
ARC
  5
68C5
  8
0
 10
3821.3197694446239439
 20
116.0319367046076025
 30
0.0
 40
0.031496063
 50
180.0
 51
270.0
  0
ARC
  5
68C6
  8
0
 10
3826.9063977171490478
 20
116.0319226053817943
 30
0.0
 40
0.0314819669314263
 50
269.974340035434011
 51
0.0256599645937303
  0
ARC
  5
68C7
  8
0
 10
3826.9063836179238933
 20
116.8705193818075969
 30
0.0
 40
0.031496063
 50
0.0
 51
90.0
  0
ARC
  5
68C8
  8
0
 10
3824.3197694446239439
 20
116.8705193818075969
 30
0.0
 40
0.031496063
 50
90.0
 51
180.0
  0
ARC
  5
68C9
  8
0
 10
3824.3228862505288816
 20
116.0350535105126966
 30
0.0
 40
0.0347529160343663
 50
185.1454701272685099
 51
264.8545298727329964
  0
ARC
  5
68CA
  8
0
 10
3828.7252812556730532
 20
115.5545043894717026
 30
0.0
 40
0.4566690929252624
 50
77.5534659189925009
 51
102.4465340810074991
  0
ENDSEC
  0
EOF
