  0
SECTION
  2
HEADER
  9
$ACADVER
  1
AC1009
  9
$INSBASE
 10
16.7177314248000002
 20
3.3770992248999989
 30
0.0
  9
$EXTMIN
 10
13.5520861963335708
 20
2.3765143667103921
 30
-0.0000000000112498
  9
$EXTMAX
 10
16.7400309724981504
 20
4.3773380937202466
 30
0.0000000000002956
  9
$LIMMIN
 10
0.0
 20
0.0
  9
$LIMMAX
 10
11.6929133858000007
 20
8.2677165353999982
  9
$ORTHOMODE
 70
     0
  9
$REGENMODE
 70
     1
  9
$FILLMODE
 70
     1
  9
$QTEXTMODE
 70
     0
  9
$MIRRTEXT
 70
     0
  9
$DRAGMODE
 70
     2
  9
$LTSCALE
 40
0.6431102362
  9
$OSMODE
 70
  4095
  9
$ATTMODE
 70
     1
  9
$TEXTSIZE
 40
0.2
  9
$TRACEWID
 40
0.05
  9
$TEXTSTYLE
  7
STANDARD
  9
$CLAYER
  8
0
  9
$CELTYPE
  6
BYLAYER
  9
$CECOLOR
 62
   256
  9
$DIMSCALE
 40
1.0
  9
$DIMASZ
 40
0.1875
  9
$DIMEXO
 40
0.0625
  9
$DIMDLI
 40
0.4443307087
  9
$DIMRND
 40
0.0
  9
$DIMDLE
 40
0.0
  9
$DIMEXE
 40
0.125
  9
$DIMTP
 40
0.01
  9
$DIMTM
 40
0.01
  9
$DIMTXT
 40
0.15625
  9
$DIMCEN
 40
0.1052362205
  9
$DIMTSZ
 40
0.0
  9
$DIMTOL
 70
     1
  9
$DIMLIM
 70
     0
  9
$DIMTIH
 70
     1
  9
$DIMTOH
 70
     1
  9
$DIMSE1
 70
     0
  9
$DIMSE2
 70
     0
  9
$DIMTAD
 70
     0
  9
$DIMZIN
 70
     0
  9
$DIMBLK
  1

  9
$DIMASO
 70
     1
  9
$DIMSHO
 70
     1
  9
$DIMPOST
  1

  9
$DIMAPOST
  1

  9
$DIMALT
 70
     0
  9
$DIMALTD
 70
     2
  9
$DIMALTF
 40
25.3999999999999986
  9
$DIMLFAC
 40
1.0
  9
$DIMTOFL
 70
     0
  9
$DIMTVP
 40
0.0
  9
$DIMTIX
 70
     0
  9
$DIMSOXD
 70
     0
  9
$DIMSAH
 70
     0
  9
$DIMBLK1
  1

  9
$DIMBLK2
  1

  9
$DIMSTYLE
  2
STANDARD
  9
$DIMCLRD
 70
     0
  9
$DIMCLRE
 70
     0
  9
$DIMCLRT
 70
     0
  9
$DIMTFAC
 40
1.0
  9
$DIMGAP
 40
0.09
  9
$LUNITS
 70
     2
  9
$LUPREC
 70
     4
  9
$SKETCHINC
 40
0.1
  9
$FILLETRAD
 40
0.0
  9
$AUNITS
 70
     0
  9
$AUPREC
 70
     0
  9
$MENU
  1
.
  9
$ELEVATION
 40
0.0
  9
$PELEVATION
 40
0.0
  9
$THICKNESS
 40
0.0
  9
$LIMCHECK
 70
     0
  9
$BLIPMODE
 70
     0
  9
$CHAMFERA
 40
0.0
  9
$CHAMFERB
 40
0.0
  9
$SKPOLY
 70
     0
  9
$TDCREATE
 40
2457665.7411342598497868
  9
$TDUPDATE
 40
2459591.7822569450363517
  9
$TDINDWG
 40
0.0246596528
  9
$TDUSRTIMER
 40
0.0246596528
  9
$USRTIMER
 70
     1
  9
$ANGBASE
 50
0.0
  9
$ANGDIR
 70
     0
  9
$PDMODE
 70
     0
  9
$PDSIZE
 40
0.3125
  9
$PLINEWID
 40
0.0
  9
$COORDS
 70
     1
  9
$SPLFRAME
 70
     0
  9
$SPLINETYPE
 70
     6
  9
$SPLINESEGS
 70
     8
  9
$ATTDIA
 70
     1
  9
$ATTREQ
 70
     1
  9
$HANDLING
 70
     1
  9
$HANDSEED
  5
7EE
  9
$SURFTAB1
 70
     6
  9
$SURFTAB2
 70
     6
  9
$SURFTYPE
 70
     6
  9
$SURFU
 70
     6
  9
$SURFV
 70
     6
  9
$UCSNAME
  2

  9
$UCSORG
 10
0.0
 20
0.0
 30
0.0
  9
$UCSXDIR
 10
1.0
 20
0.0
 30
0.0
  9
$UCSYDIR
 10
0.0
 20
1.0
 30
0.0
  9
$PUCSNAME
  2

  9
$PUCSORG
 10
0.0
 20
0.0
 30
0.0
  9
$PUCSXDIR
 10
1.0
 20
0.0
 30
0.0
  9
$PUCSYDIR
 10
0.0
 20
1.0
 30
0.0
  9
$USERI1
 70
     0
  9
$USERI2
 70
     0
  9
$USERI3
 70
     0
  9
$USERI4
 70
     0
  9
$USERI5
 70
     0
  9
$USERR1
 40
0.0
  9
$USERR2
 40
0.0
  9
$USERR3
 40
0.0
  9
$USERR4
 40
0.0
  9
$USERR5
 40
0.0
  9
$WORLDVIEW
 70
     1
  9
$SHADEDGE
 70
     3
  9
$SHADEDIF
 70
    70
  9
$TILEMODE
 70
     1
  9
$MAXACTVP
 70
    64
  9
$PLIMCHECK
 70
     0
  9
$PEXTMIN
 10
1.0000000000000000E+20
 20
1.0000000000000000E+20
 30
1.0000000000000000E+20
  9
$PEXTMAX
 10
-1.0000000000000000E+20
 20
-1.0000000000000000E+20
 30
-1.0000000000000000E+20
  9
$PLIMMIN
 10
0.0
 20
0.0
  9
$PLIMMAX
 10
12.0
 20
9.0
  9
$UNITMODE
 70
     0
  9
$VISRETAIN
 70
     1
  9
$PLINEGEN
 70
     0
  9
$PSLTSCALE
 70
     1
  0
ENDSEC
  0
SECTION
  2
TABLES
  0
TABLE
  2
VPORT
 70
     1
  0
VPORT
  2
*ACTIVE
 70
     0
 10
0.0
 20
0.0
 11
1.0
 21
1.0
 12
-0.000055962779582
 22
-0.0001729946846805
 13
0.0
 23
0.0
 14
1.0
 24
1.0
 15
0.0
 25
0.0
 16
-0.0000000000000018
 26
0.0
 36
9.4074488374011906
 17
15.1461145471954506
 27
3.3770992248999998
 37
0.0
 40
2.0166823034458639
 41
2.0410052910052912
 42
50.0
 43
0.0
 44
0.0
 50
0.0
 51
0.0
 71
     0
 72
   100
 73
     1
 74
     1
 75
     0
 76
     0
 77
     0
 78
     0
  0
ENDTAB
  0
TABLE
  2
LTYPE
 70
     1
  0
LTYPE
  2
CONTINUOUS
 70
     0
  3
Solid line
 72
    65
 73
     0
 40
0.0
  0
ENDTAB
  0
TABLE
  2
LAYER
 70
     2
  0
LAYER
  2
0
 70
     0
 62
     7
  6
CONTINUOUS
  0
LAYER
  2
DEFPOINTS
 70
     0
 62
     7
  6
CONTINUOUS
  0
ENDTAB
  0
TABLE
  2
STYLE
 70
     1
  0
STYLE
  2
STANDARD
 70
     0
 40
0.0
 41
0.8
 50
0.0
 71
     0
 42
0.2
  3
txt
  4

  0
ENDTAB
  0
TABLE
  2
VIEW
 70
     0
  0
ENDTAB
  0
TABLE
  2
UCS
 70
     0
  0
ENDTAB
  0
TABLE
  2
APPID
 70
     5
  0
APPID
  2
ACAD
 70
     0
  0
APPID
  2
ACAD_MLEADERVER
 70
     0
  0
APPID
  2
ACAD_NAV_VCDISPLAY
 70
     0
  0
APPID
  2
ACAD_EXEMPT_FROM_CAD_STANDARDS
 70
     0
  0
APPID
  2
ACDBATTR
 70
     0
  0
ENDTAB
  0
TABLE
  2
DIMSTYLE
 70
     1
  0
DIMSTYLE
  2
STANDARD
 70
     0
  3

  4

  5

  6

  7

 40
1.0
 41
0.1875
 42
0.0625
 43
0.38
 44
0.125
 45
0.0
 46
0.0
 47
0.01
 48
0.01
140
0.15625
141
0.09
142
0.0
143
25.3999999999999986
144
1.0
145
0.0
146
1.0
147
0.09
 71
     1
 72
     0
 73
     1
 74
     1
 75
     0
 76
     0
 77
     0
 78
     4
170
     0
171
     2
172
     0
173
     0
174
     0
175
     0
176
     0
177
     0
178
     0
  0
ENDTAB
  0
ENDSEC
  0
SECTION
  2
BLOCKS
  0
BLOCK
  8
0
  2
$MODEL_SPACE
 70
     0
 10
0.0
 20
0.0
 30
0.0
  3
$MODEL_SPACE
  1

  0
ENDBLK
  5
21
  8
0
  0
BLOCK
 67
     1
  8
0
  2
$PAPER_SPACE
 70
     0
 10
0.0
 20
0.0
 30
0.0
  3
$PAPER_SPACE
  1

  0
ENDBLK
  5
1D
 67
     1
  8
0
  0
ENDSEC
  0
SECTION
  2
ENTITIES
  0
LINE
  5
4AB
  8
0
 10
13.6980463853999002
 20
2.957808016558964
 30
0.0
 11
13.6980463853999996
 21
3.140769501499999
 31
0.0
  0
LINE
  5
4AC
  8
0
 10
13.7177346903569504
 20
3.1411589533528459
 30
0.0
 11
13.7177314248000002
 21
2.9578083492
 31
0.0
  0
LINE
  5
4AD
  8
0
 10
13.9224558342000009
 20
3.1953222550999989
 30
0.0
 11
13.9224557744261492
 21
3.7964519249615329
 31
0.0
  0
LINE
  5
4AE
  8
0
 10
13.9421408735999997
 20
3.7963843074999999
 30
0.0
 11
13.9421408735999997
 21
3.1953222651999988
 31
0.0
  0
LINE
  5
4AF
  8
0
 10
16.7177314248000002
 20
2.3770992248999998
 30
0.0
 11
16.4342668578000008
 21
2.3770992248999998
 31
0.0
  0
LINE
  5
4B0
  8
0
 10
16.3712747319000016
 20
2.9263118232999989
 30
0.0
 11
15.8319046531000005
 21
2.9263118232999989
 31
0.0
  0
LINE
  5
4B1
  8
0
 10
15.6350542594000004
 20
2.9263118232999989
 30
0.0
 11
13.7492274878000007
 21
2.9263118232999989
 31
0.0
  0
LINE
  5
4B2
  8
0
 10
13.6665503223999991
 20
2.9263118760999989
 30
0.0
 11
13.6008854006999993
 21
2.9263118760999989
 31
0.0
  0
LINE
  5
4B3
  8
0
 10
13.7448234561289393
 20
2.926621246699999
 30
0.0
 11
13.6709540063611001
 21
2.926621246699999
 31
0.0
  0
LINE
  5
4B4
  8
0
 10
13.7295424472000001
 20
3.1638261954
 30
0.0
 11
13.8909597712000004
 21
3.1638261954
 31
0.0
  0
LINE
  5
4B5
  8
0
 10
16.3712747319000016
 20
3.8278866264999989
 30
0.0
 11
13.9736369366000002
 21
3.8278866264999989
 31
0.0
  0
LINE
  5
4B6
  8
0
 10
13.6009988170000007
 20
3.8278866256999988
 30
0.0
 11
13.8909597712000004
 21
3.8278866256999988
 31
0.0
  0
LINE
  5
4B7
  8
0
 10
16.7177314248000002
 20
4.3770992249000003
 30
0.0
 11
16.4342668578000008
 21
4.3770992249000003
 31
0.0
  0
LINE
  5
4B8
  8
0
 10
16.4027707947999986
 20
2.4086033788999992
 30
0.0
 11
16.4027707947999986
 21
4.3456031618999988
 31
0.0
  0
LINE
  5
4B9
  8
0
 10
16.7177314248000002
 20
2.3770992248999998
 30
0.0
 11
16.7177314248000002
 21
4.3770992249000003
 31
0.0
  0
ARC
  5
4BA
  8
0
 10
16.4342668585345315
 20
2.4085952896733289
 30
0.0
 40
0.0314960647733264
 50
179.985284556780698
 51
269.999998663778797
  0
ARC
  5
4BB
  8
0
 10
16.4342668578000008
 20
4.3456031618999988
 30
0.0
 40
0.031496063
 50
90.0
 51
180.0
  0
ARC
  5
4BC
  8
0
 10
13.8909597712000004
 20
3.7963905631000001
 30
0.0
 40
0.031496063
 50
0.1116259504999749
 51
90.0
  0
ARC
  5
4BD
  8
0
 10
13.6010038387000005
 20
3.7963905629000001
 30
0.0
 40
0.031496063
 50
90.0000000277000254
 51
175.2658465111998964
  0
ARC
  5
4BE
  8
0
 10
13.6010038331000001
 20
2.9578079635000001
 30
0.0
 40
0.031496063
 50
184.6630653260000088
 51
270.0000041583999746
  0
ARC
  5
4BF
  8
0
 10
13.6665503223999991
 20
2.9578079353999991
 30
0.0
 40
0.031496063
 50
270.0
 51
0.0001476396000264
  0
ARC
  5
4C0
  8
0
 10
13.7492274878024006
 20
2.9578078863058028
 30
0.0
 40
0.0314960630058037
 50
179.9991579301884883
 51
269.9999999956277748
  0
ARC
  5
4C1
  8
0
 10
13.9736369370391795
 20
3.7963905624397181
 30
0.0
 40
0.0314960640602817
 50
90.0000007989291646
 51
180.0113786169798118
  0
ARC
  5
4C2
  8
0
 10
16.3712747319000016
 20
3.7963905635000001
 30
0.0
 40
0.031496063
 50
0.0
 51
90.0
  0
ARC
  5
4C3
  8
0
 10
16.3712747319000016
 20
2.957807886299999
 30
0.0
 40
0.031496063
 50
270.0
 51
0.0
  0
ARC
  5
4C4
  8
0
 10
13.8909610635000007
 20
3.1953214063999988
 30
0.0
 40
0.0314945258
 50
270.0190753911999764
 51
0.0015498770000193
  0
ARC
  5
4C6
  8
0
 10
15.7334793503130008
 20
2.4864017007324239
 30
0.0
 40
0.4507864399675878
 50
77.4129866661372148
 51
102.6116013408934009
  0
ARC
  5
4C7
  8
0
 10
13.7205933406311296
 20
3.1380402870392512
 30
0.0
 40
0.0227115345533404
 50
122.6921301986286039
 51
173.0981640181296939
  0
ARC
  5
4C8
  8
0
 10
13.7295394598836307
 20
3.1267682950886169
 30
0.0
 40
0.0370579071217156
 50
89.9953812658723251
 51
124.9200833251440059
  0
ARC
  5
4C9
  8
0
 10
13.7427247235023309
 20
3.140518656035816
 30
0.0
 40
0.0249982346828996
 50
140.7646922039629089
 51
178.5322825005065113
  0
ARC
  5
4CA
  8
0
 10
13.7470030120716302
 20
3.137024976688882
 30
0.0
 40
0.0305217796009239
 50
118.5858171092337017
 51
140.7646922039639037
  0
ARC
  5
4CB
  8
0
 10
13.9092421173593497
 20
3.2158997792956581
 30
0.0
 40
0.0479209887129931
 50
266.9681157853560194
 51
284.5018749199730905
  0
ARC
  5
4CC
  8
0
 10
13.91534670183262
 20
3.1956441600818071
 30
0.0
 40
0.0267951677483383
 50
282.7100285083035942
 51
359.3115360780407741
  0
ARC
  5
4CD
  8
0
 10
18.7237329317815195
 20
3.3770991482809061
 30
0.0
 40
5.1713558376808351
 50
175.3204804495507005
 51
184.6790840460874108
  0
LINE
  5
4CE
  8
0
 10
13.9224558342000009
 20
3.7925390723920969
 30
0.0
 11
13.9327755507719804
 21
3.7752245814861132
 31
0.0
  0
LINE
  5
4CF
  8
0
 10
13.9327755507719804
 20
3.7752245814861132
 30
0.0
 11
13.9421408735999997
 21
3.7471535353999998
 31
0.0
  0
ATTDEF
  5
639
  8
DEFPOINTS
 10
16.7291087913823304
 20
3.378754592090913
 30
0.0
 40
0.001
  1
K-73147
  3

  2
MODELNUMBER
 70
     0
1001
ACDBATTR
1070
     0
1070
     1
  0
ATTDEF
  5
63A
  8
DEFPOINTS
 10
16.7291087913823304
 20
3.3770879254242478
 30
0.0
 40
0.001
  1
COMPOSED
  3

  2
TRADENAME
 70
     0
1001
ACDBATTR
1070
     0
1070
     1
  0
ATTDEF
  5
63B
  8
DEFPOINTS
 10
16.7291087913823304
 20
3.375421258757576
 30
0.0
 40
0.001
  1
TOILET TISSUE HOLDER
  3

  2
PRODUCT
 70
     0
1001
ACDBATTR
1070
     0
1070
     1
  0
ENDSEC
  0
EOF
