  0
SECTION
  2
HEADER
  9
$ACADVER
  1
AC1009
  9
$INSBASE
 10
1.540648452899998
 20
11.6616320271999996
 30
0.0
  9
$EXTMIN
 10
0.5402548760622814
 20
8.6216448804958539
 30
-0.0000000000112498
  9
$EXTMAX
 10
9.5415286814250457
 20
11.6740826651925804
 30
0.0000000000002956
  9
$LIMMIN
 10
0.0
 20
0.0
  9
$LIMMAX
 10
11.6929133858000007
 20
8.2677165353999982
  9
$ORTHOMODE
 70
     0
  9
$REGENMODE
 70
     1
  9
$FILLMODE
 70
     1
  9
$QTEXTMODE
 70
     0
  9
$MIRRTEXT
 70
     0
  9
$DRAGMODE
 70
     2
  9
$LTSCALE
 40
0.6431102362
  9
$OSMODE
 70
  4095
  9
$ATTMODE
 70
     1
  9
$TEXTSIZE
 40
0.2
  9
$TRACEWID
 40
0.05
  9
$TEXTSTYLE
  7
STANDARD
  9
$CLAYER
  8
0
  9
$CELTYPE
  6
BYLAYER
  9
$CECOLOR
 62
   256
  9
$DIMSCALE
 40
1.0
  9
$DIMASZ
 40
0.1875
  9
$DIMEXO
 40
0.0625
  9
$DIMDLI
 40
0.4443307087
  9
$DIMRND
 40
0.0
  9
$DIMDLE
 40
0.0
  9
$DIMEXE
 40
0.125
  9
$DIMTP
 40
0.01
  9
$DIMTM
 40
0.01
  9
$DIMTXT
 40
0.15625
  9
$DIMCEN
 40
0.1052362205
  9
$DIMTSZ
 40
0.0
  9
$DIMTOL
 70
     1
  9
$DIMLIM
 70
     0
  9
$DIMTIH
 70
     1
  9
$DIMTOH
 70
     1
  9
$DIMSE1
 70
     0
  9
$DIMSE2
 70
     0
  9
$DIMTAD
 70
     0
  9
$DIMZIN
 70
     0
  9
$DIMBLK
  1

  9
$DIMASO
 70
     1
  9
$DIMSHO
 70
     1
  9
$DIMPOST
  1

  9
$DIMAPOST
  1

  9
$DIMALT
 70
     0
  9
$DIMALTD
 70
     2
  9
$DIMALTF
 40
25.3999999999999986
  9
$DIMLFAC
 40
1.0
  9
$DIMTOFL
 70
     0
  9
$DIMTVP
 40
0.0
  9
$DIMTIX
 70
     0
  9
$DIMSOXD
 70
     0
  9
$DIMSAH
 70
     0
  9
$DIMBLK1
  1

  9
$DIMBLK2
  1

  9
$DIMSTYLE
  2
STANDARD
  9
$DIMCLRD
 70
     0
  9
$DIMCLRE
 70
     0
  9
$DIMCLRT
 70
     0
  9
$DIMTFAC
 40
1.0
  9
$DIMGAP
 40
0.09
  9
$LUNITS
 70
     2
  9
$LUPREC
 70
     4
  9
$SKETCHINC
 40
0.1
  9
$FILLETRAD
 40
0.0
  9
$AUNITS
 70
     0
  9
$AUPREC
 70
     0
  9
$MENU
  1
.
  9
$ELEVATION
 40
0.0
  9
$PELEVATION
 40
0.0
  9
$THICKNESS
 40
0.0
  9
$LIMCHECK
 70
     0
  9
$BLIPMODE
 70
     0
  9
$CHAMFERA
 40
0.0
  9
$CHAMFERB
 40
0.0
  9
$SKPOLY
 70
     0
  9
$TDCREATE
 40
2457665.686377314850688
  9
$TDUPDATE
 40
2459591.7758912038989365
  9
$TDINDWG
 40
0.0264835764
  9
$TDUSRTIMER
 40
0.0264835764
  9
$USRTIMER
 70
     1
  9
$ANGBASE
 50
0.0
  9
$ANGDIR
 70
     0
  9
$PDMODE
 70
     0
  9
$PDSIZE
 40
0.3125
  9
$PLINEWID
 40
0.0
  9
$COORDS
 70
     1
  9
$SPLFRAME
 70
     0
  9
$SPLINETYPE
 70
     6
  9
$SPLINESEGS
 70
     8
  9
$ATTDIA
 70
     1
  9
$ATTREQ
 70
     1
  9
$HANDLING
 70
     1
  9
$HANDSEED
  5
769
  9
$SURFTAB1
 70
     6
  9
$SURFTAB2
 70
     6
  9
$SURFTYPE
 70
     6
  9
$SURFU
 70
     6
  9
$SURFV
 70
     6
  9
$UCSNAME
  2

  9
$UCSORG
 10
0.0
 20
0.0
 30
0.0
  9
$UCSXDIR
 10
1.0
 20
0.0
 30
0.0
  9
$UCSYDIR
 10
0.0
 20
1.0
 30
0.0
  9
$PUCSNAME
  2

  9
$PUCSORG
 10
0.0
 20
0.0
 30
0.0
  9
$PUCSXDIR
 10
1.0
 20
0.0
 30
0.0
  9
$PUCSYDIR
 10
0.0
 20
1.0
 30
0.0
  9
$USERI1
 70
     0
  9
$USERI2
 70
     0
  9
$USERI3
 70
     0
  9
$USERI4
 70
     0
  9
$USERI5
 70
     0
  9
$USERR1
 40
0.0
  9
$USERR2
 40
0.0
  9
$USERR3
 40
0.0
  9
$USERR4
 40
0.0
  9
$USERR5
 40
0.0
  9
$WORLDVIEW
 70
     1
  9
$SHADEDGE
 70
     3
  9
$SHADEDIF
 70
    70
  9
$TILEMODE
 70
     1
  9
$MAXACTVP
 70
    64
  9
$PLIMCHECK
 70
     0
  9
$PEXTMIN
 10
1.0000000000000000E+20
 20
1.0000000000000000E+20
 30
1.0000000000000000E+20
  9
$PEXTMAX
 10
-1.0000000000000000E+20
 20
-1.0000000000000000E+20
 30
-1.0000000000000000E+20
  9
$PLIMMIN
 10
0.0
 20
0.0
  9
$PLIMMAX
 10
12.0
 20
9.0
  9
$UNITMODE
 70
     0
  9
$VISRETAIN
 70
     1
  9
$PLINEGEN
 70
     0
  9
$PSLTSCALE
 70
     1
  0
ENDSEC
  0
SECTION
  2
TABLES
  0
TABLE
  2
VPORT
 70
     1
  0
VPORT
  2
*ACTIVE
 70
     0
 10
0.0
 20
0.0
 11
1.0
 21
1.0
 12
0.0002433258436643
 22
-0.0002194392803663
 13
0.0
 23
0.0
 14
1.0
 24
1.0
 15
0.0
 25
0.0
 16
-0.0000000000000053
 26
0.0
 36
23.7590595907172712
 17
5.0406484528999993
 27
10.1480832121245808
 37
0.0
 40
4.4273424084554334
 41
2.0410052910052912
 42
50.0
 43
0.0
 44
0.0
 50
0.0
 51
0.0
 71
     0
 72
   100
 73
     1
 74
     1
 75
     0
 76
     0
 77
     0
 78
     0
  0
ENDTAB
  0
TABLE
  2
LTYPE
 70
     1
  0
LTYPE
  2
CONTINUOUS
 70
     0
  3
Solid line
 72
    65
 73
     0
 40
0.0
  0
ENDTAB
  0
TABLE
  2
LAYER
 70
     2
  0
LAYER
  2
0
 70
     0
 62
     7
  6
CONTINUOUS
  0
LAYER
  2
DEFPOINTS
 70
     0
 62
     7
  6
CONTINUOUS
  0
ENDTAB
  0
TABLE
  2
STYLE
 70
     1
  0
STYLE
  2
STANDARD
 70
     0
 40
0.0
 41
0.8
 50
0.0
 71
     0
 42
0.2
  3
txt
  4

  0
ENDTAB
  0
TABLE
  2
VIEW
 70
     0
  0
ENDTAB
  0
TABLE
  2
UCS
 70
     0
  0
ENDTAB
  0
TABLE
  2
APPID
 70
     5
  0
APPID
  2
ACAD
 70
     0
  0
APPID
  2
ACAD_MLEADERVER
 70
     0
  0
APPID
  2
ACAD_NAV_VCDISPLAY
 70
     0
  0
APPID
  2
ACAD_EXEMPT_FROM_CAD_STANDARDS
 70
     0
  0
APPID
  2
ACDBATTR
 70
     0
  0
ENDTAB
  0
TABLE
  2
DIMSTYLE
 70
     1
  0
DIMSTYLE
  2
STANDARD
 70
     0
  3

  4

  5

  6

  7

 40
1.0
 41
0.1875
 42
0.0625
 43
0.38
 44
0.125
 45
0.0
 46
0.0
 47
0.01
 48
0.01
140
0.15625
141
0.09
142
0.0
143
25.3999999999999986
144
1.0
145
0.0
146
1.0
147
0.09
 71
     1
 72
     0
 73
     1
 74
     1
 75
     0
 76
     0
 77
     0
 78
     4
170
     0
171
     2
172
     0
173
     0
174
     0
175
     0
176
     0
177
     0
178
     0
  0
ENDTAB
  0
ENDSEC
  0
SECTION
  2
BLOCKS
  0
BLOCK
  8
0
  2
$MODEL_SPACE
 70
     0
 10
0.0
 20
0.0
 30
0.0
  3
$MODEL_SPACE
  1

  0
ENDBLK
  5
21
  8
0
  0
BLOCK
 67
     1
  8
0
  2
$PAPER_SPACE
 70
     0
 10
0.0
 20
0.0
 30
0.0
  3
$PAPER_SPACE
  1

  0
ENDBLK
  5
1D
 67
     1
  8
0
  0
BLOCK
  8
0
  2
A$C165F2E5A
 70
     2
 10
0.0
 20
0.0
 30
0.0
  3
A$C165F2E5A
  1

  0
ATTDEF
  5
5E5
  8
DEFPOINTS
 10
-0.0000000304050642
 20
-0.0000000123135218
 30
0.0
 40
0.001
  1
METAL
  3

  2
MATERIAL
 70
     0
1001
ACDBATTR
1070
     0
1070
     1
  0
ATTDEF
  5
5E6
  8
DEFPOINTS
 10
-0.0000000304050642
 20
0.0016666543531434
 30
0.0
 40
0.001
  1
TOWEL BAR
  3

  2
PRODUCT
 70
     0
1001
ACDBATTR
1070
     0
1070
     1
  0
ATTDEF
  5
5E7
  8
DEFPOINTS
 10
-0.0000000304050642
 20
0.0033333210198157
 30
0.0
 40
0.001
  1
COMPOSED
  3

  2
TRADENAME
 70
     0
1001
ACDBATTR
1070
     0
1070
     1
  0
ATTDEF
  5
5E8
  8
DEFPOINTS
 10
-0.0000000304050642
 20
0.0049999876864808
 30
0.0
 40
0.001
  1
K-73141
  3

  2
MODELNUMBER
 70
     0
1001
ACDBATTR
1070
     0
1070
     1
  0
ENDBLK
  5
5EA
  8
0
  0
ENDSEC
  0
SECTION
  2
ENTITIES
  0
LINE
  5
465
  8
0
 10
0.5406484528999993
 20
11.3781674601999896
 30
0.0
 11
0.5406484528999993
 21
11.6616320271999996
 31
0.0
  0
LINE
  5
466
  8
0
 10
1.0898610512999971
 20
8.673443050799996
 30
0.0
 11
1.0898610512999971
 21
8.9608446255999965
 31
0.0
  0
LINE
  5
467
  8
0
 10
1.0898610512999971
 20
9.0238367516000011
 30
0.0
 11
1.0898610512999971
 21
11.3151753342999992
 31
0.0
  0
LINE
  5
468
  8
0
 10
1.991435854499997
 20
9.0238367516000011
 30
0.0
 11
1.991435854499997
 21
11.3151753342999992
 31
0.0
  0
LINE
  5
46A
  8
0
 10
2.5406484528999971
 20
11.3781674601999896
 30
0.0
 11
2.5406484528999971
 21
11.6616320271999996
 31
0.0
  0
LINE
  5
46F
  8
0
 10
9.5091523904414572
 20
8.9923406885999473
 30
0.0
 11
1.1213571142999981
 21
8.9923406886000024
 31
0.0
  0
LINE
  5
471
  8
0
 10
0.5721512631999986
 20
11.3466713972999997
 30
0.0
 11
2.5091507950999978
 21
11.3466713972999997
 31
0.0
  0
LINE
  5
474
  8
0
 10
2.5406484528999971
 20
11.6616320271999996
 30
0.0
 11
0.5406484528999993
 21
11.6616320271999996
 31
0.0
  0
ARC
  5
47B
  8
0
 10
2.50915239000178
 20
11.3781674601578295
 30
0.0
 40
0.0314960628982183
 50
269.9970986487687128
 51
0.0000000766950816
  0
ARC
  5
47C
  8
0
 10
0.5721445169626646
 20
11.3781674606401602
 30
0.0
 40
0.0314960640626646
 50
180.0000008007289978
 51
270.0122723566037735
  0
ARC
  5
47F
  8
0
 10
1.1213571142999981
 20
8.9608446255999965
 30
0.0
 40
0.031496063
 50
90.0
 51
180.0
  0
ARC
  5
480
  8
0
 10
1.1214373836838221
 20
8.671053201291766
 30
0.0
 40
0.0316666409252023
 50
175.671829991539397
 51
265.2003135554870141
  0
ARC
  5
487
  8
0
 10
1.9599397914999981
 20
11.3151753342999992
 30
0.0
 40
0.031496063
 50
0.0
 51
90.0
  0
ARC
  5
488
  8
0
 10
1.1213571142999981
 20
11.3151753342999992
 30
0.0
 40
0.031496063
 50
90.0
 51
180.0
  0
ARC
  5
489
  8
0
 10
1.9599397914999981
 20
9.0238367516000011
 30
0.0
 40
0.031496063
 50
270.0
 51
0.0
  0
ARC
  5
48A
  8
0
 10
1.1213571142999981
 20
9.0238367516000011
 30
0.0
 40
0.031496063
 50
180.0
 51
270.0
  0
LINE
  5
4B2
  8
0
 10
1.1187877601559679
 20
8.6394976052326466
 30
0.0
 11
1.5406484529
 21
8.6222619485000003
 31
0.0
  0
LINE
  5
4B3
  8
0
 10
1.5406484529
 20
8.6222619485000003
 30
0.0
 11
9.5091523899000006
 21
8.6222619484999985
 31
0.0
  0
ARC
  5
4B5
  8
0
 10
9.5091523899000006
 20
8.6537580115013881
 30
0.0
 40
0.0314960630013896
 50
270.0000000000017053
 51
0.0005386451253815
  0
LINE
  5
4B6
  8
0
 10
9.5406484528999993
 20
8.6537583076000004
 30
0.0
 11
9.5406455659413147
 21
8.9608446255864305
 31
0.0
  0
ARC
  5
4B7
  8
0
 10
9.5091492066668781
 20
8.9608443294850328
 30
0.0
 40
0.0314963592758285
 50
0.0005386451229388
 51
89.9942093045791438
  0
ATTDEF
  5
5F9
  8
DEFPOINTS
 10
1.5366732374299421
 20
11.6729044757491707
 30
0.0
 40
0.001
  1
K-73145
  3

  2
MODELNUMBER
 70
     0
1001
ACDBATTR
1070
     0
1070
     1
  0
ATTDEF
  5
5FA
  8
DEFPOINTS
 10
1.5366732374299421
 20
11.6712378090825002
 30
0.0
 40
0.001
  1
COMPOSED
  3

  2
TRADENAME
 70
     0
1001
ACDBATTR
1070
     0
1070
     1
  0
ATTDEF
  5
5FB
  8
DEFPOINTS
 10
1.5366732374299421
 20
11.6695711424158297
 30
0.0
 40
0.001
  1
TOWEL ARM
  3

  2
PRODUCT
 70
     0
1001
ACDBATTR
1070
     0
1070
     1
  0
ENDSEC
  0
EOF
