  0
SECTION
  2
HEADER
  9
$ACADVER
  1
AC1009
  9
$INSBASE
 10
3831.3523138729228776
 20
79.6042104313102357
 30
0.0
  9
$EXTMIN
 10
3818.3523138729237871
 20
76.5845253914519049
 30
0.0
  9
$EXTMAX
 10
3844.3523138729228776
 20
79.609604178548679
 30
0.0
  9
$LIMMIN
 10
0.0
 20
0.0
  9
$LIMMAX
 10
11.6929133858000007
 20
8.2677165353999982
  9
$ORTHOMODE
 70
     1
  9
$REGENMODE
 70
     1
  9
$FILLMODE
 70
     1
  9
$QTEXTMODE
 70
     0
  9
$MIRRTEXT
 70
     0
  9
$DRAGMODE
 70
     2
  9
$LTSCALE
 40
0.6431102362
  9
$OSMODE
 70
  4095
  9
$ATTMODE
 70
     1
  9
$TEXTSIZE
 40
0.2
  9
$TRACEWID
 40
0.05
  9
$TEXTSTYLE
  7
STANDARD
  9
$CLAYER
  8
0
  9
$CELTYPE
  6
BYLAYER
  9
$CECOLOR
 62
   256
  9
$DIMSCALE
 40
1.0
  9
$DIMASZ
 40
0.1875
  9
$DIMEXO
 40
0.0625
  9
$DIMDLI
 40
0.4443307087
  9
$DIMRND
 40
0.0
  9
$DIMDLE
 40
0.0
  9
$DIMEXE
 40
0.125
  9
$DIMTP
 40
0.01
  9
$DIMTM
 40
0.01
  9
$DIMTXT
 40
2.0
  9
$DIMCEN
 40
0.1052362205
  9
$DIMTSZ
 40
0.0
  9
$DIMTOL
 70
     1
  9
$DIMLIM
 70
     0
  9
$DIMTIH
 70
     1
  9
$DIMTOH
 70
     1
  9
$DIMSE1
 70
     0
  9
$DIMSE2
 70
     0
  9
$DIMTAD
 70
     0
  9
$DIMZIN
 70
     0
  9
$DIMBLK
  1

  9
$DIMASO
 70
     1
  9
$DIMSHO
 70
     1
  9
$DIMPOST
  1
\X
  9
$DIMAPOST
  1

  9
$DIMALT
 70
     1
  9
$DIMALTD
 70
     2
  9
$DIMALTF
 40
25.3999999999999986
  9
$DIMLFAC
 40
1.0
  9
$DIMTOFL
 70
     0
  9
$DIMTVP
 40
0.0
  9
$DIMTIX
 70
     0
  9
$DIMSOXD
 70
     0
  9
$DIMSAH
 70
     0
  9
$DIMBLK1
  1

  9
$DIMBLK2
  1

  9
$DIMSTYLE
  2
STANDARD
  9
$DIMCLRD
 70
     0
  9
$DIMCLRE
 70
     0
  9
$DIMCLRT
 70
     0
  9
$DIMTFAC
 40
1.0
  9
$DIMGAP
 40
0.09
  9
$LUNITS
 70
     2
  9
$LUPREC
 70
     4
  9
$SKETCHINC
 40
0.1
  9
$FILLETRAD
 40
0.0
  9
$AUNITS
 70
     0
  9
$AUPREC
 70
     0
  9
$MENU
  1
.
  9
$ELEVATION
 40
0.0
  9
$PELEVATION
 40
0.0
  9
$THICKNESS
 40
0.0
  9
$LIMCHECK
 70
     0
  9
$BLIPMODE
 70
     0
  9
$CHAMFERA
 40
0.0
  9
$CHAMFERB
 40
0.0
  9
$SKPOLY
 70
     0
  9
$TDCREATE
 40
2458060.468368056230247
  9
$TDUPDATE
 40
2458863.8212615740485489
  9
$TDINDWG
 40
0.3119515046
  9
$TDUSRTIMER
 40
0.3119515046
  9
$USRTIMER
 70
     1
  9
$ANGBASE
 50
0.0
  9
$ANGDIR
 70
     0
  9
$PDMODE
 70
     0
  9
$PDSIZE
 40
0.3125
  9
$PLINEWID
 40
0.0
  9
$COORDS
 70
     1
  9
$SPLFRAME
 70
     0
  9
$SPLINETYPE
 70
     6
  9
$SPLINESEGS
 70
     8
  9
$ATTDIA
 70
     1
  9
$ATTREQ
 70
     1
  9
$HANDLING
 70
     1
  9
$HANDSEED
  5
67F9
  9
$SURFTAB1
 70
     6
  9
$SURFTAB2
 70
     6
  9
$SURFTYPE
 70
     6
  9
$SURFU
 70
     6
  9
$SURFV
 70
     6
  9
$UCSNAME
  2

  9
$UCSORG
 10
0.0
 20
0.0
 30
0.0
  9
$UCSXDIR
 10
1.0
 20
0.0
 30
0.0
  9
$UCSYDIR
 10
0.0
 20
1.0
 30
0.0
  9
$PUCSNAME
  2

  9
$PUCSORG
 10
0.0
 20
0.0
 30
0.0
  9
$PUCSXDIR
 10
1.0
 20
0.0
 30
0.0
  9
$PUCSYDIR
 10
0.0
 20
1.0
 30
0.0
  9
$USERI1
 70
     0
  9
$USERI2
 70
     0
  9
$USERI3
 70
     0
  9
$USERI4
 70
     0
  9
$USERI5
 70
     0
  9
$USERR1
 40
0.0
  9
$USERR2
 40
0.0
  9
$USERR3
 40
0.0
  9
$USERR4
 40
0.0
  9
$USERR5
 40
0.0
  9
$WORLDVIEW
 70
     1
  9
$SHADEDGE
 70
     3
  9
$SHADEDIF
 70
    70
  9
$TILEMODE
 70
     1
  9
$MAXACTVP
 70
    64
  9
$PLIMCHECK
 70
     0
  9
$PEXTMIN
 10
1.0000000000000000E+20
 20
1.0000000000000000E+20
 30
1.0000000000000000E+20
  9
$PEXTMAX
 10
-1.0000000000000000E+20
 20
-1.0000000000000000E+20
 30
-1.0000000000000000E+20
  9
$PLIMMIN
 10
0.0
 20
0.0
  9
$PLIMMAX
 10
12.0
 20
9.0
  9
$UNITMODE
 70
     0
  9
$VISRETAIN
 70
     1
  9
$PLINEGEN
 70
     0
  9
$PSLTSCALE
 70
     1
  0
ENDSEC
  0
SECTION
  2
TABLES
  0
TABLE
  2
VPORT
 70
     1
  0
VPORT
  2
*ACTIVE
 70
     0
 10
0.0
 20
0.0
 11
1.0
 21
1.0
 12
0.0
 22
0.0
 13
0.0
 23
0.0
 14
1.0
 24
1.0
 15
0.0
 25
0.0
 16
0.0
 26
0.0
 36
74.9885908439028839
 17
3831.352294921875
 27
78.0970651202801776
 37
0.0
 40
26.18024834510571
 41
2.1481900452488678
 42
50.0
 43
0.0
 44
0.0
 50
0.0
 51
0.0
 71
     0
 72
   100
 73
     1
 74
     1
 75
     0
 76
     0
 77
     0
 78
     0
  0
ENDTAB
  0
TABLE
  2
LTYPE
 70
     2
  0
LTYPE
  2
CONTINUOUS
 70
     0
  3
Solid line
 72
    65
 73
     0
 40
0.0
  0
LTYPE
  2
PHANTOM2
 70
     0
  3
___ _ _ ___ _ _ ___ _ _ ___ _ _
 72
    65
 73
     6
 40
1.25
 49
0.625
 49
-0.125
 49
0.125
 49
-0.125
 49
0.125
 49
-0.125
  0
ENDTAB
  0
TABLE
  2
LAYER
 70
     2
  0
LAYER
  2
0
 70
     0
 62
   255
  6
CONTINUOUS
  0
LAYER
  2
DEFPOINTS
 70
     0
 62
     7
  6
CONTINUOUS
  0
ENDTAB
  0
TABLE
  2
STYLE
 70
     1
  0
STYLE
  2
STANDARD
 70
     0
 40
0.0
 41
0.8
 50
0.0
 71
     0
 42
0.2
  3
txt
  4

  0
ENDTAB
  0
TABLE
  2
VIEW
 70
     0
  0
ENDTAB
  0
TABLE
  2
UCS
 70
     0
  0
ENDTAB
  0
TABLE
  2
APPID
 70
     9
  0
APPID
  2
ACAD
 70
     0
  0
APPID
  2
ACAD_MLEADERVER
 70
     0
  0
APPID
  2
ACAD_EXEMPT_FROM_CAD_STANDARDS
 70
     0
  0
APPID
  2
ACAD_NAV_VCDISPLAY
 70
     0
  0
APPID
  2
ACAECLAYERSTANDARD
 70
     0
  0
APPID
  2
ACCMTRANSPARENCY
 70
     0
  0
APPID
  2
ACAD_DSTYLE_DIMJAG
 70
     0
  0
APPID
  2
ACAD_DSTYLE_DIMTALN
 70
     0
  0
APPID
  2
ACDBATTR
 70
     0
  0
ENDTAB
  0
TABLE
  2
DIMSTYLE
 70
     1
  0
DIMSTYLE
  2
STANDARD
 70
     0
  3

  4

  5

  6

  7

 40
1.0
 41
0.1875
 42
0.0625
 43
0.38
 44
0.125
 45
0.0
 46
0.0
 47
0.01
 48
0.01
140
0.15625
141
0.09
142
0.0
143
25.3999999999999986
144
1.0
145
0.0
146
1.0
147
0.09
 71
     1
 72
     0
 73
     1
 74
     1
 75
     0
 76
     0
 77
     0
 78
     4
170
     0
171
     2
172
     0
173
     0
174
     0
175
     0
176
     0
177
     0
178
     0
  0
ENDTAB
  0
ENDSEC
  0
SECTION
  2
BLOCKS
  0
BLOCK
  8
0
  2
$MODEL_SPACE
 70
     0
 10
0.0
 20
0.0
 30
0.0
  3
$MODEL_SPACE
  1

  0
ENDBLK
  5
21
  8
0
  0
BLOCK
 67
     1
  8
0
  2
$PAPER_SPACE
 70
     0
 10
0.0
 20
0.0
 30
0.0
  3
$PAPER_SPACE
  1

  0
ENDBLK
  5
1D
 67
     1
  8
0
  0
ENDSEC
  0
SECTION
  2
ENTITIES
  0
ATTDEF
  5
3930
  8
DEFPOINTS
 10
3831.3492843173708025
 20
79.6086041785486458
 30
0.0
 40
0.001
  1
K-73142
  3

  2
MODELNUMBER
 70
     0
1001
ACDBATTR
1070
     0
1070
     1
  0
ATTDEF
  5
3931
  8
DEFPOINTS
 10
3831.3492843173708025
 20
79.6069375118819806
 30
0.0
 40
0.001
  1
COMPOSED
  3

  2
TRADENAME
 70
     0
1001
ACDBATTR
1070
     0
1070
     1
  0
ATTDEF
  5
3932
  8
DEFPOINTS
 10
3831.3492843173708025
 20
79.6052708452153155
 30
0.0
 40
0.001
  1
TOWEL BAR
  3

  2
PRODUCT
 70
     0
1001
ACDBATTR
1070
     0
1070
     1
  0
ARC
  5
6748
  8
0
 10
3819.9819201721238642
 20
76.6045253919102436
 30
0.0
 40
0.0200000000000014
 50
270.0
 51
0.0
  0
ARC
  5
6749
  8
0
 10
3819.9819202118228532
 20
76.9149190927102495
 30
0.0
 40
0.0199999999999975
 50
0.1141610219164194
 51
90.0
  0
LINE
  5
674A
  8
0
 10
3818.3523138729237871
 20
79.3207458643102399
 30
0.0
 11
3818.3523138729237871
 21
79.6042104313102357
 31
0.0
  0
LINE
  5
674B
  8
0
 10
3818.9015264713239048
 20
76.616021454910225
 30
0.0
 11
3818.9015264713239048
 21
76.9034230297102397
 31
0.0
  0
LINE
  5
674C
  8
0
 10
3818.9015264713239048
 20
76.966415155710223
 30
0.0
 11
3818.9015264713239048
 21
79.2577537384102442
 31
0.0
  0
LINE
  5
674D
  8
0
 10
3819.8031012745232147
 20
76.966415155710223
 30
0.0
 11
3819.8031012745232147
 21
79.2577537384102442
 31
0.0
  0
LINE
  5
674E
  8
0
 10
3820.0019201721229365
 20
76.5845253919102333
 30
0.0
 11
3820.0019201721229365
 21
76.9349190927102313
 31
0.0
  0
LINE
  5
674F
  8
0
 10
3820.3523138729228776
 20
79.3207458643102399
 30
0.0
 11
3820.3523138729228776
 21
79.6042104313102357
 31
0.0
  0
LINE
  5
6750
  8
0
 10
3842.702707573724183
 20
76.5845253919102333
 30
0.0
 11
3820.0019201721229365
 21
76.5845253919102333
 31
0.0
  0
LINE
  5
6751
  8
0
 10
3819.9819201721238642
 20
76.5845253919102333
 30
0.0
 11
3818.9330279083242203
 21
76.5845253919102333
 31
0.0
  0
LINE
  5
6752
  8
0
 10
3820.0019201721229365
 20
76.9349190927102313
 30
0.0
 11
3842.702707573724183
 21
76.9349190927102313
 31
0.0
  0
LINE
  5
6753
  8
0
 10
3819.9819202118228532
 20
76.9349190927102455
 30
0.0
 11
3818.9330225343242091
 21
76.9349190927102455
 31
0.0
  0
LINE
  5
6754
  8
0
 10
3818.3838166832229035
 20
79.2892498014102358
 30
0.0
 11
3820.3208162151240685
 21
79.2892498014102358
 31
0.0
  0
LINE
  5
6755
  8
0
 10
3820.3523138729228776
 20
79.6042104313102357
 30
0.0
 11
3818.3523138729237871
 21
79.6042104313102357
 31
0.0
  0
ARC
  5
6756
  8
0
 10
3820.3188892491598381
 20
79.3226745227918002
 30
0.0
 40
0.0334802209858085
 50
273.2995022379316765
 51
356.6975964875479121
  0
ARC
  5
6757
  8
0
 10
3818.3865632634820031
 20
79.3234997810905469
 30
0.0
 40
0.03435993031446
 50
184.5971348683548001
 51
265.4151382889713773
  0
ARC
  5
6758
  8
0
 10
3818.9330225343242091
 20
76.9034230297102397
 30
0.0
 40
0.031496063
 50
90.0
 51
180.0
  0
ARC
  5
6759
  8
0
 10
3818.9330225351059198
 20
76.6160214552343319
 30
0.0
 40
0.0314960637824235
 50
180.0000005895635127
 51
270.0097746401941095
  0
ARC
  5
675A
  8
0
 10
3819.7707380695269421
 20
79.2568865964140485
 30
0.0
 40
0.0323748200437838
 50
1.5348199320035381
 51
88.4651800679852869
  0
ARC
  5
675B
  8
0
 10
3818.9341105389607947
 20
79.2566657337722802
 30
0.0
 40
0.0326022271927518
 50
91.9124353140669399
 51
178.0875646859327901
  0
ARC
  5
675C
  8
0
 10
3819.7716052115229104
 20
76.966415155710223
 30
0.0
 40
0.031496063
 50
270.0
 51
0.0
  0
ARC
  5
675D
  8
0
 10
3818.9330225343242091
 20
76.966415155710223
 30
0.0
 40
0.031496063
 50
180.0
 51
270.0
  0
ARC
  5
675E
  8
0
 10
3842.7227075737241648
 20
76.6045253919102436
 30
0.0
 40
0.0200000000000014
 50
180.0
 51
270.0
  0
ARC
  5
675F
  8
0
 10
3842.7227075340238116
 20
76.9149190927102495
 30
0.0
 40
0.0199999999999975
 50
90.0
 51
179.8858389780835125
  0
LINE
  5
6760
  8
0
 10
3844.3523138729228776
 20
79.3207458643102399
 30
0.0
 11
3844.3523138729228776
 21
79.6042104313102357
 31
0.0
  0
LINE
  5
6761
  8
0
 10
3843.8031012745241242
 20
76.616021454910225
 30
0.0
 11
3843.8031012745241242
 21
76.9034230297102397
 31
0.0
  0
LINE
  5
6762
  8
0
 10
3843.8031012745241242
 20
76.966415155710223
 30
0.0
 11
3843.8031012745241242
 21
79.2577537384102442
 31
0.0
  0
LINE
  5
6763
  8
0
 10
3842.9015264713229953
 20
76.966415155710223
 30
0.0
 11
3842.9015264713229953
 21
79.2577537384102442
 31
0.0
  0
LINE
  5
6764
  8
0
 10
3842.702707573724183
 20
76.5845253919102333
 30
0.0
 11
3842.702707573724183
 21
76.9349190927102313
 31
0.0
  0
LINE
  5
6765
  8
0
 10
3842.3523138729237871
 20
79.3207458643102399
 30
0.0
 11
3842.3523138729237871
 21
79.6042104313102357
 31
0.0
  0
LINE
  5
6766
  8
0
 10
3842.7227075737241648
 20
76.5845253919102333
 30
0.0
 11
3843.7715998375228992
 21
76.5845253919102333
 31
0.0
  0
LINE
  5
6767
  8
0
 10
3842.7227075340238116
 20
76.9349190927102455
 30
0.0
 11
3843.7716052115229104
 21
76.9349190927102455
 31
0.0
  0
LINE
  5
6768
  8
0
 10
3844.320811062624216
 20
79.2892498014102358
 30
0.0
 11
3842.383811530723051
 21
79.2892498014102358
 31
0.0
  0
LINE
  5
6769
  8
0
 10
3842.3523138729237871
 20
79.6042104313102357
 30
0.0
 11
3844.3523138729228776
 21
79.6042104313102357
 31
0.0
  0
ARC
  5
676A
  8
0
 10
3842.3857384966868267
 20
79.3226745227918002
 30
0.0
 40
0.0334802209858085
 50
183.3024035124520879
 51
266.7004977620683235
  0
ARC
  5
676B
  8
0
 10
3844.3180644823651164
 20
79.3234997810905469
 30
0.0
 40
0.03435993031446
 50
274.5848617110286227
 51
355.4028651316451146
  0
ARC
  5
676C
  8
0
 10
3843.7716052115229104
 20
76.9034230297102397
 30
0.0
 40
0.031496063
 50
0.0
 51
90.0
  0
ARC
  5
676D
  8
0
 10
3843.7716052107411997
 20
76.6160214552343319
 30
0.0
 40
0.0314960637824235
 50
269.9902253598060042
 51
359.9999994104356915
  0
ARC
  5
676E
  8
0
 10
3842.9338896763188131
 20
79.2568865964140485
 30
0.0
 40
0.0323748200437838
 50
91.5348199320147131
 51
178.4651800679964992
  0
ARC
  5
676F
  8
0
 10
3843.7705172068849606
 20
79.2566657337722802
 30
0.0
 40
0.0326022271927518
 50
1.9124353140671431
 51
88.0875646859330743
  0
ARC
  5
6770
  8
0
 10
3842.9330225343242091
 20
76.966415155710223
 30
0.0
 40
0.031496063
 50
180.0
 51
270.0
  0
ARC
  5
6771
  8
0
 10
3843.7716052115229104
 20
76.966415155710223
 30
0.0
 40
0.031496063
 50
270.0
 51
0.0
  0
ENDSEC
  0
EOF
