  0
SECTION
  2
HEADER
  9
$ACADVER
  1
AC1009
  9
$INSBASE
 10
3812.525172283269967
 20
96.4631655912771038
 30
0.0
  9
$EXTMIN
 10
3809.505487243970947
 20
95.4631655912770754
 30
0.0
  9
$EXTMAX
 10
3812.5452778581247912
 20
97.4631655912770896
 30
0.0
  9
$LIMMIN
 10
0.0
 20
0.0
  9
$LIMMAX
 10
11.6929133858000007
 20
8.2677165353999982
  9
$ORTHOMODE
 70
     1
  9
$REGENMODE
 70
     1
  9
$FILLMODE
 70
     1
  9
$QTEXTMODE
 70
     0
  9
$MIRRTEXT
 70
     0
  9
$DRAGMODE
 70
     2
  9
$LTSCALE
 40
0.6431102362
  9
$OSMODE
 70
  4095
  9
$ATTMODE
 70
     1
  9
$TEXTSIZE
 40
0.2
  9
$TRACEWID
 40
0.05
  9
$TEXTSTYLE
  7
STANDARD
  9
$CLAYER
  8
0
  9
$CELTYPE
  6
BYLAYER
  9
$CECOLOR
 62
   256
  9
$DIMSCALE
 40
1.0
  9
$DIMASZ
 40
0.1875
  9
$DIMEXO
 40
0.0625
  9
$DIMDLI
 40
0.4443307087
  9
$DIMRND
 40
0.0
  9
$DIMDLE
 40
0.0
  9
$DIMEXE
 40
0.125
  9
$DIMTP
 40
0.01
  9
$DIMTM
 40
0.01
  9
$DIMTXT
 40
2.0
  9
$DIMCEN
 40
0.1052362205
  9
$DIMTSZ
 40
0.0
  9
$DIMTOL
 70
     1
  9
$DIMLIM
 70
     0
  9
$DIMTIH
 70
     1
  9
$DIMTOH
 70
     1
  9
$DIMSE1
 70
     0
  9
$DIMSE2
 70
     0
  9
$DIMTAD
 70
     0
  9
$DIMZIN
 70
     0
  9
$DIMBLK
  1

  9
$DIMASO
 70
     1
  9
$DIMSHO
 70
     1
  9
$DIMPOST
  1
\X
  9
$DIMAPOST
  1

  9
$DIMALT
 70
     1
  9
$DIMALTD
 70
     2
  9
$DIMALTF
 40
25.3999999999999986
  9
$DIMLFAC
 40
1.0
  9
$DIMTOFL
 70
     0
  9
$DIMTVP
 40
0.0
  9
$DIMTIX
 70
     0
  9
$DIMSOXD
 70
     0
  9
$DIMSAH
 70
     0
  9
$DIMBLK1
  1

  9
$DIMBLK2
  1

  9
$DIMSTYLE
  2
STANDARD
  9
$DIMCLRD
 70
     0
  9
$DIMCLRE
 70
     0
  9
$DIMCLRT
 70
     0
  9
$DIMTFAC
 40
1.0
  9
$DIMGAP
 40
0.09
  9
$LUNITS
 70
     2
  9
$LUPREC
 70
     4
  9
$SKETCHINC
 40
0.1
  9
$FILLETRAD
 40
0.0
  9
$AUNITS
 70
     0
  9
$AUPREC
 70
     0
  9
$MENU
  1
.
  9
$ELEVATION
 40
0.0
  9
$PELEVATION
 40
0.0
  9
$THICKNESS
 40
0.0
  9
$LIMCHECK
 70
     0
  9
$BLIPMODE
 70
     0
  9
$CHAMFERA
 40
0.0
  9
$CHAMFERB
 40
0.0
  9
$SKPOLY
 70
     0
  9
$TDCREATE
 40
2458060.468368056230247
  9
$TDUPDATE
 40
2458863.8167824069969356
  9
$TDINDWG
 40
0.3099260417
  9
$TDUSRTIMER
 40
0.3099260417
  9
$USRTIMER
 70
     1
  9
$ANGBASE
 50
0.0
  9
$ANGDIR
 70
     0
  9
$PDMODE
 70
     0
  9
$PDSIZE
 40
0.3125
  9
$PLINEWID
 40
0.0
  9
$COORDS
 70
     1
  9
$SPLFRAME
 70
     0
  9
$SPLINETYPE
 70
     6
  9
$SPLINESEGS
 70
     8
  9
$ATTDIA
 70
     1
  9
$ATTREQ
 70
     1
  9
$HANDLING
 70
     1
  9
$HANDSEED
  5
66EA
  9
$SURFTAB1
 70
     6
  9
$SURFTAB2
 70
     6
  9
$SURFTYPE
 70
     6
  9
$SURFU
 70
     6
  9
$SURFV
 70
     6
  9
$UCSNAME
  2

  9
$UCSORG
 10
0.0
 20
0.0
 30
0.0
  9
$UCSXDIR
 10
1.0
 20
0.0
 30
0.0
  9
$UCSYDIR
 10
0.0
 20
1.0
 30
0.0
  9
$PUCSNAME
  2

  9
$PUCSORG
 10
0.0
 20
0.0
 30
0.0
  9
$PUCSXDIR
 10
1.0
 20
0.0
 30
0.0
  9
$PUCSYDIR
 10
0.0
 20
1.0
 30
0.0
  9
$USERI1
 70
     0
  9
$USERI2
 70
     0
  9
$USERI3
 70
     0
  9
$USERI4
 70
     0
  9
$USERI5
 70
     0
  9
$USERR1
 40
0.0
  9
$USERR2
 40
0.0
  9
$USERR3
 40
0.0
  9
$USERR4
 40
0.0
  9
$USERR5
 40
0.0
  9
$WORLDVIEW
 70
     1
  9
$SHADEDGE
 70
     3
  9
$SHADEDIF
 70
    70
  9
$TILEMODE
 70
     1
  9
$MAXACTVP
 70
    64
  9
$PLIMCHECK
 70
     0
  9
$PEXTMIN
 10
1.0000000000000000E+20
 20
1.0000000000000000E+20
 30
1.0000000000000000E+20
  9
$PEXTMAX
 10
-1.0000000000000000E+20
 20
-1.0000000000000000E+20
 30
-1.0000000000000000E+20
  9
$PLIMMIN
 10
0.0
 20
0.0
  9
$PLIMMAX
 10
12.0
 20
9.0
  9
$UNITMODE
 70
     0
  9
$VISRETAIN
 70
     1
  9
$PLINEGEN
 70
     0
  9
$PSLTSCALE
 70
     1
  0
ENDSEC
  0
SECTION
  2
TABLES
  0
TABLE
  2
VPORT
 70
     1
  0
VPORT
  2
*ACTIVE
 70
     0
 10
0.0
 20
0.0
 11
1.0
 21
1.0
 12
0.0
 22
0.0
 13
0.0
 23
0.0
 14
1.0
 24
1.0
 15
0.0
 25
0.0
 16
0.0
 26
0.0
 36
10.4246852168787303
 17
3811.0253244760961024
 27
96.463165283203125
 37
0.0
 40
3.6390128846990879
 41
2.1481900452488678
 42
50.0
 43
0.0
 44
0.0
 50
0.0
 51
0.0
 71
     0
 72
   100
 73
     1
 74
     1
 75
     0
 76
     0
 77
     0
 78
     0
  0
ENDTAB
  0
TABLE
  2
LTYPE
 70
     2
  0
LTYPE
  2
CONTINUOUS
 70
     0
  3
Solid line
 72
    65
 73
     0
 40
0.0
  0
LTYPE
  2
PHANTOM2
 70
     0
  3
___ _ _ ___ _ _ ___ _ _ ___ _ _
 72
    65
 73
     6
 40
1.25
 49
0.625
 49
-0.125
 49
0.125
 49
-0.125
 49
0.125
 49
-0.125
  0
ENDTAB
  0
TABLE
  2
LAYER
 70
     2
  0
LAYER
  2
0
 70
     0
 62
   255
  6
CONTINUOUS
  0
LAYER
  2
DEFPOINTS
 70
     0
 62
     7
  6
CONTINUOUS
  0
ENDTAB
  0
TABLE
  2
STYLE
 70
     1
  0
STYLE
  2
STANDARD
 70
     0
 40
0.0
 41
0.8
 50
0.0
 71
     0
 42
0.2
  3
txt
  4

  0
ENDTAB
  0
TABLE
  2
VIEW
 70
     0
  0
ENDTAB
  0
TABLE
  2
UCS
 70
     0
  0
ENDTAB
  0
TABLE
  2
APPID
 70
     9
  0
APPID
  2
ACAD
 70
     0
  0
APPID
  2
ACAD_MLEADERVER
 70
     0
  0
APPID
  2
ACAD_EXEMPT_FROM_CAD_STANDARDS
 70
     0
  0
APPID
  2
ACAD_NAV_VCDISPLAY
 70
     0
  0
APPID
  2
ACAECLAYERSTANDARD
 70
     0
  0
APPID
  2
ACCMTRANSPARENCY
 70
     0
  0
APPID
  2
ACAD_DSTYLE_DIMJAG
 70
     0
  0
APPID
  2
ACAD_DSTYLE_DIMTALN
 70
     0
  0
APPID
  2
ACDBATTR
 70
     0
  0
ENDTAB
  0
TABLE
  2
DIMSTYLE
 70
     1
  0
DIMSTYLE
  2
STANDARD
 70
     0
  3

  4

  5

  6

  7

 40
1.0
 41
0.1875
 42
0.0625
 43
0.38
 44
0.125
 45
0.0
 46
0.0
 47
0.01
 48
0.01
140
0.15625
141
0.09
142
0.0
143
25.3999999999999986
144
1.0
145
0.0
146
1.0
147
0.09
 71
     1
 72
     0
 73
     1
 74
     1
 75
     0
 76
     0
 77
     0
 78
     4
170
     0
171
     2
172
     0
173
     0
174
     0
175
     0
176
     0
177
     0
178
     0
  0
ENDTAB
  0
ENDSEC
  0
SECTION
  2
BLOCKS
  0
BLOCK
  8
0
  2
$MODEL_SPACE
 70
     0
 10
0.0
 20
0.0
 30
0.0
  3
$MODEL_SPACE
  1

  0
ENDBLK
  5
21
  8
0
  0
BLOCK
 67
     1
  8
0
  2
$PAPER_SPACE
 70
     0
 10
0.0
 20
0.0
 30
0.0
  3
$PAPER_SPACE
  1

  0
ENDBLK
  5
1D
 67
     1
  8
0
  0
ENDSEC
  0
SECTION
  2
ENTITIES
  0
ATTDEF
  5
3930
  8
DEFPOINTS
 10
3812.5346111914559515
 20
96.4648322579437547
 30
0.0
 40
0.001
  1
K-73141
  3

  2
MODELNUMBER
 70
     0
1001
ACDBATTR
1070
     0
1070
     1
  0
ATTDEF
  5
3931
  8
DEFPOINTS
 10
3812.5346111914559515
 20
96.4631655912771038
 30
0.0
 40
0.001
  1
COMPOSED
  3

  2
TRADENAME
 70
     0
1001
ACDBATTR
1070
     0
1070
     1
  0
ATTDEF
  5
3932
  8
DEFPOINTS
 10
3812.5346111914559515
 20
96.4614989246104244
 30
0.0
 40
0.001
  1
TOWEL BAR
  3

  2
PRODUCT
 70
     0
1001
ACDBATTR
1070
     0
1070
     1
  0
LINE
  5
664D
  8
0
 10
3809.505487243970947
 20
96.0438825356771844
 30
0.0
 11
3809.505487243970947
 21
96.8824652126772037
 31
0.0
  0
LINE
  5
664E
  8
0
 10
3809.8558809447699787
 20
96.0438825356769286
 30
0.0
 11
3809.8558809447699787
 21
96.882465212777106
 31
0.0
  0
LINE
  5
664F
  8
0
 10
3812.525172283269967
 20
95.4631655912770754
 30
0.0
 11
3812.2417077163709109
 21
95.4631655912770754
 31
0.0
  0
LINE
  5
6650
  8
0
 10
3812.1787155903698476
 20
96.0123864725770915
 30
0.0
 11
3811.6393455116708537
 21
96.0123781896770936
 31
0.0
  0
LINE
  5
6651
  8
0
 10
3811.4424951179707932
 20
96.0123781896770936
 30
0.0
 11
3809.8873770077698282
 21
96.0123781896770936
 31
0.0
  0
LINE
  5
6652
  8
0
 10
3809.8243848817701291
 20
96.0123781899770847
 30
0.0
 11
3809.5369833069707965
 21
96.0123781898770972
 31
0.0
  0
LINE
  5
6653
  8
0
 10
3812.1787155903698476
 20
96.9139529928770855
 30
0.0
 11
3809.8873770077698282
 21
96.9139529928770855
 31
0.0
  0
LINE
  5
6654
  8
0
 10
3809.5369833069707965
 20
96.913952992777098
 30
0.0
 11
3809.8243848817701291
 21
96.913952992777098
 31
0.0
  0
LINE
  5
6655
  8
0
 10
3812.525172283269967
 20
97.4631655912770896
 30
0.0
 11
3812.2417077163709109
 21
97.4631655912770896
 31
0.0
  0
LINE
  5
6656
  8
0
 10
3812.2102116533710614
 20
95.4946699371770933
 30
0.0
 11
3812.2102116533710614
 21
97.4316778111770958
 31
0.0
  0
LINE
  5
6657
  8
0
 10
3812.525172283269967
 20
95.4631655912770754
 30
0.0
 11
3812.525172283269967
 21
97.4631655912770896
 31
0.0
  0
ARC
  5
6658
  8
0
 10
3809.5392043589231434
 20
96.8802352924839028
 30
0.0
 40
0.0337907736644455
 50
93.7687421939895245
 51
176.2161880613911933
  0
ARC
  5
6659
  8
0
 10
3809.5390513501888563
 20
96.0459417533691067
 30
0.0
 40
0.0336272152244109
 50
183.510797597025288
 51
266.4741366208925228
  0
ARC
  5
665A
  8
0
 10
3809.8235352911278824
 20
96.0447236212424116
 30
0.0
 40
0.0323565871881856
 50
271.5045948125679161
 51
358.5104707871511209
  0
ARC
  5
665B
  8
0
 10
3809.8232827846868531
 20
96.8813545416968225
 30
0.0
 40
0.0326170757550707
 50
1.9514031418558411
 51
88.0636666025881567
  0
ARC
  5
665C
  8
0
 10
3812.2417218606551614
 20
95.4946757959314425
 30
0.0
 40
0.0315102078288963
 50
180.0106531160217003
 51
269.9742811020918793
  0
ARC
  5
665D
  8
0
 10
3812.2417077171398887
 20
97.431669526417565
 30
0.0
 40
0.0314960648595122
 50
90.0000014005660631
 51
179.9849288550196889
  0
ARC
  5
665E
  8
0
 10
3809.8883302357548928
 20
96.0448272311345335
 30
0.0
 40
0.032463039523395
 50
181.66757985816011
 51
268.3173543599555728
  0
ARC
  5
665F
  8
0
 10
3809.889786492460189
 20
96.8800468102799215
 30
0.0
 40
0.0339916877307212
 50
94.0647930641026733
 51
175.9201371914863046
  0
ARC
  5
6660
  8
0
 10
3812.1765662606758269
 20
96.8803070337097836
 30
0.0
 40
0.0337145396887093
 50
3.670201615540154
 51
86.3448681288872422
  0
ARC
  5
6661
  8
0
 10
3812.1770773400098733
 20
96.0455207859378248
 30
0.0
 40
0.0331747884112675
 50
272.8305538029388799
 51
357.1694461970519114
  0
ARC
  5
6662
  8
0
 10
3811.5409203148210509
 20
95.5724671076836643
 30
0.0
 40
0.4507873993753304
 50
77.3884121446875497
 51
102.611587855312294
  0
ENDSEC
  0
EOF
