  0
SECTION
  2
HEADER
  9
$ACADVER
  1
AC1009
  9
$INSBASE
 10
3549.2586972178369251
 20
200.2606898255232863
 30
0.0
  9
$EXTMIN
 10
3540.0921369651209716
 20
200.2561166431000004
 30
0.0
  9
$EXTMAX
 10
3550.7941302887379607
 20
206.7541433873435039
 30
0.0
  9
$LIMMIN
 10
0.0
 20
0.0
  9
$LIMMAX
 10
11.6929133858000007
 20
8.2677165353999982
  9
$ORTHOMODE
 70
     0
  9
$REGENMODE
 70
     1
  9
$FILLMODE
 70
     1
  9
$QTEXTMODE
 70
     0
  9
$MIRRTEXT
 70
     0
  9
$DRAGMODE
 70
     2
  9
$LTSCALE
 40
0.6431102362
  9
$OSMODE
 70
  4095
  9
$ATTMODE
 70
     1
  9
$TEXTSIZE
 40
0.2
  9
$TRACEWID
 40
0.05
  9
$TEXTSTYLE
  7
STANDARD
  9
$CLAYER
  8
0
  9
$CELTYPE
  6
BYLAYER
  9
$CECOLOR
 62
   256
  9
$DIMSCALE
 40
1.0
  9
$DIMASZ
 40
0.1875
  9
$DIMEXO
 40
0.0625
  9
$DIMDLI
 40
0.4443307087
  9
$DIMRND
 40
0.0
  9
$DIMDLE
 40
0.0
  9
$DIMEXE
 40
0.125
  9
$DIMTP
 40
0.01
  9
$DIMTM
 40
0.01
  9
$DIMTXT
 40
2.0
  9
$DIMCEN
 40
0.1052362205
  9
$DIMTSZ
 40
0.0
  9
$DIMTOL
 70
     1
  9
$DIMLIM
 70
     0
  9
$DIMTIH
 70
     1
  9
$DIMTOH
 70
     1
  9
$DIMSE1
 70
     0
  9
$DIMSE2
 70
     0
  9
$DIMTAD
 70
     0
  9
$DIMZIN
 70
     0
  9
$DIMBLK
  1

  9
$DIMASO
 70
     1
  9
$DIMSHO
 70
     1
  9
$DIMPOST
  1
\X
  9
$DIMAPOST
  1

  9
$DIMALT
 70
     1
  9
$DIMALTD
 70
     2
  9
$DIMALTF
 40
25.3999999999999986
  9
$DIMLFAC
 40
1.0
  9
$DIMTOFL
 70
     0
  9
$DIMTVP
 40
0.0
  9
$DIMTIX
 70
     0
  9
$DIMSOXD
 70
     0
  9
$DIMSAH
 70
     0
  9
$DIMBLK1
  1

  9
$DIMBLK2
  1

  9
$DIMSTYLE
  2
STANDARD
  9
$DIMCLRD
 70
     0
  9
$DIMCLRE
 70
     0
  9
$DIMCLRT
 70
     0
  9
$DIMTFAC
 40
1.0
  9
$DIMGAP
 40
0.09
  9
$LUNITS
 70
     2
  9
$LUPREC
 70
     4
  9
$SKETCHINC
 40
0.1
  9
$FILLETRAD
 40
0.0
  9
$AUNITS
 70
     0
  9
$AUPREC
 70
     0
  9
$MENU
  1
.
  9
$ELEVATION
 40
0.0
  9
$PELEVATION
 40
0.0
  9
$THICKNESS
 40
0.0
  9
$LIMCHECK
 70
     0
  9
$BLIPMODE
 70
     0
  9
$CHAMFERA
 40
0.0
  9
$CHAMFERB
 40
0.0
  9
$SKPOLY
 70
     0
  9
$TDCREATE
 40
2458060.468368056230247
  9
$TDUPDATE
 40
2459012.7427893518470228
  9
$TDINDWG
 40
0.7183519676
  9
$TDUSRTIMER
 40
0.7183519676
  9
$USRTIMER
 70
     1
  9
$ANGBASE
 50
0.0
  9
$ANGDIR
 70
     0
  9
$PDMODE
 70
     0
  9
$PDSIZE
 40
0.3125
  9
$PLINEWID
 40
0.0
  9
$COORDS
 70
     1
  9
$SPLFRAME
 70
     0
  9
$SPLINETYPE
 70
     6
  9
$SPLINESEGS
 70
     8
  9
$ATTDIA
 70
     1
  9
$ATTREQ
 70
     1
  9
$HANDLING
 70
     1
  9
$HANDSEED
  5
A3C2
  9
$SURFTAB1
 70
     6
  9
$SURFTAB2
 70
     6
  9
$SURFTYPE
 70
     6
  9
$SURFU
 70
     6
  9
$SURFV
 70
     6
  9
$UCSNAME
  2

  9
$UCSORG
 10
0.0
 20
0.0
 30
0.0
  9
$UCSXDIR
 10
1.0
 20
0.0
 30
0.0
  9
$UCSYDIR
 10
0.0
 20
1.0
 30
0.0
  9
$PUCSNAME
  2

  9
$PUCSORG
 10
0.0
 20
0.0
 30
0.0
  9
$PUCSXDIR
 10
1.0
 20
0.0
 30
0.0
  9
$PUCSYDIR
 10
0.0
 20
1.0
 30
0.0
  9
$USERI1
 70
     0
  9
$USERI2
 70
     0
  9
$USERI3
 70
     0
  9
$USERI4
 70
     0
  9
$USERI5
 70
     0
  9
$USERR1
 40
0.0
  9
$USERR2
 40
0.0
  9
$USERR3
 40
0.0
  9
$USERR4
 40
0.0
  9
$USERR5
 40
0.0
  9
$WORLDVIEW
 70
     1
  9
$SHADEDGE
 70
     3
  9
$SHADEDIF
 70
    70
  9
$TILEMODE
 70
     1
  9
$MAXACTVP
 70
    64
  9
$PLIMCHECK
 70
     0
  9
$PEXTMIN
 10
1.0000000000000000E+20
 20
1.0000000000000000E+20
 30
1.0000000000000000E+20
  9
$PEXTMAX
 10
-1.0000000000000000E+20
 20
-1.0000000000000000E+20
 30
-1.0000000000000000E+20
  9
$PLIMMIN
 10
0.0
 20
0.0
  9
$PLIMMAX
 10
12.0
 20
9.0
  9
$UNITMODE
 70
     0
  9
$VISRETAIN
 70
     1
  9
$PLINEGEN
 70
     0
  9
$PSLTSCALE
 70
     1
  0
ENDSEC
  0
SECTION
  2
TABLES
  0
TABLE
  2
VPORT
 70
     1
  0
VPORT
  2
*ACTIVE
 70
     0
 10
0.0
 20
0.0
 11
1.0
 21
1.0
 12
0.0
 22
0.0
 13
0.0
 23
0.0
 14
1.0
 24
1.0
 15
0.0
 25
0.0
 16
0.0
 26
0.0
 36
35.5939861401818405
 17
3545.443115234375
 27
203.505133516862486
 37
0.0
 40
12.5204003035948297
 41
2.127494456762749
 42
50.0
 43
0.0
 44
0.0
 50
0.0
 51
0.0
 71
     0
 72
   100
 73
     1
 74
     1
 75
     0
 76
     0
 77
     0
 78
     0
  0
ENDTAB
  0
TABLE
  2
LTYPE
 70
     2
  0
LTYPE
  2
CONTINUOUS
 70
     0
  3
Solid line
 72
    65
 73
     0
 40
0.0
  0
LTYPE
  2
PHANTOM2
 70
     0
  3
___ _ _ ___ _ _ ___ _ _ ___ _ _
 72
    65
 73
     6
 40
1.25
 49
0.625
 49
-0.125
 49
0.125
 49
-0.125
 49
0.125
 49
-0.125
  0
ENDTAB
  0
TABLE
  2
LAYER
 70
     2
  0
LAYER
  2
0
 70
     0
 62
   255
  6
CONTINUOUS
  0
LAYER
  2
DEFPOINTS
 70
     0
 62
     7
  6
CONTINUOUS
  0
ENDTAB
  0
TABLE
  2
STYLE
 70
     1
  0
STYLE
  2
STANDARD
 70
     0
 40
0.0
 41
0.8
 50
0.0
 71
     0
 42
0.2
  3
txt
  4

  0
ENDTAB
  0
TABLE
  2
VIEW
 70
     0
  0
ENDTAB
  0
TABLE
  2
UCS
 70
     0
  0
ENDTAB
  0
TABLE
  2
APPID
 70
     9
  0
APPID
  2
ACAD
 70
     0
  0
APPID
  2
ACAD_MLEADERVER
 70
     0
  0
APPID
  2
ACAD_EXEMPT_FROM_CAD_STANDARDS
 70
     0
  0
APPID
  2
ACAD_NAV_VCDISPLAY
 70
     0
  0
APPID
  2
ACAECLAYERSTANDARD
 70
     0
  0
APPID
  2
ACCMTRANSPARENCY
 70
     0
  0
APPID
  2
ACAD_DSTYLE_DIMJAG
 70
     0
  0
APPID
  2
ACAD_DSTYLE_DIMTALN
 70
     0
  0
APPID
  2
ACDBATTR
 70
     0
  0
ENDTAB
  0
TABLE
  2
DIMSTYLE
 70
     1
  0
DIMSTYLE
  2
STANDARD
 70
     0
  3

  4

  5

  6

  7

 40
1.0
 41
0.1875
 42
0.0625
 43
0.38
 44
0.125
 45
0.0
 46
0.0
 47
0.01
 48
0.01
140
0.15625
141
0.09
142
0.0
143
25.3999999999999986
144
1.0
145
0.0
146
1.0
147
0.09
 71
     1
 72
     0
 73
     1
 74
     1
 75
     0
 76
     0
 77
     0
 78
     4
170
     0
171
     2
172
     0
173
     0
174
     0
175
     0
176
     0
177
     0
178
     0
  0
ENDTAB
  0
ENDSEC
  0
SECTION
  2
BLOCKS
  0
BLOCK
  8
0
  2
$MODEL_SPACE
 70
     0
 10
0.0
 20
0.0
 30
0.0
  3
$MODEL_SPACE
  1

  0
ENDBLK
  5
21
  8
0
  0
BLOCK
 67
     1
  8
0
  2
$PAPER_SPACE
 70
     0
 10
0.0
 20
0.0
 30
0.0
  3
$PAPER_SPACE
  1

  0
ENDBLK
  5
1D
 67
     1
  8
0
  0
BLOCK
  8
0
  2
_FILLED
 70
     0
 10
0.0
 20
0.0
 30
0.0
  3
_FILLED
  1

  0
SOLID
  5
6F59
  8
0
  6
BYBLOCK
 62
     0
 10
0.0
 20
0.0
 30
0.0
 11
-1.0
 21
0.1666666667
 31
0.0
 12
-1.0
 22
-0.1666666667
 32
0.0
 13
-1.0
 23
-0.1666666667
 33
0.0
  0
ENDBLK
  5
6F5A
  8
0
  6
BYBLOCK
 62
     0
  0
ENDSEC
  0
SECTION
  2
ENTITIES
  0
ATTDEF
  5
3930
  8
DEFPOINTS
 10
3549.2588839377331169
 20
200.2594499764333023
 30
0.0
 40
0.001
  1
K-73081-3
  3

  2
MODELNUMBER
 70
     0
1001
ACDBATTR
1070
     0
1070
     1
  0
ATTDEF
  5
3931
  8
DEFPOINTS
 10
3549.2588839377331169
 20
200.2577833097666939
 30
0.0
 40
0.001
  1
COMPOSED
  3

  2
TRADENAME
 70
     0
1001
ACDBATTR
1070
     0
1070
     1
  0
ATTDEF
  5
3932
  8
DEFPOINTS
 10
3549.2588839377331169
 20
200.2561166431000004
 30
0.0
 40
0.001
  1
BATHROOM SINK FAUCET
  3

  2
PRODUCT
 70
     0
1001
ACDBATTR
1070
     0
1070
     1
  0
LINE
  5
A272
  8
0
 10
3550.1740465364368902
 20
206.4037893767140019
 30
0.0
 11
3540.1403295167237957
 21
206.7541433873435039
 31
0.0
  0
ARC
  5
A273
  8
0
 10
3540.1406738622499688
 20
206.7226458725448026
 30
0.0
 40
0.0314993970154982
 50
90.626359238261756
 51
177.99756901096859
  0
LINE
  5
A274
  8
0
 10
3540.1091937004857755
 20
206.7237465213123926
 30
0.0
 11
3540.0921561516702241
 21
206.2358549365291083
 31
0.0
  0
ARC
  5
A275
  8
0
 10
3540.123633028218137
 20
206.2347557398273921
 30
0.0
 40
0.0314960630964571
 50
178.0000000883040059
 51
267.9999983073116141
  0
LINE
  5
A276
  8
0
 10
3540.1225338305371224
 20
206.2032788633140115
 30
0.0
 11
3550.1704985427318206
 21
205.8523978287904015
 31
0.0
  0
LINE
  5
A277
  8
0
 10
3541.4287415369440168
 20
206.1576650464542126
 30
0.0
 11
3541.428550929640096
 21
206.149836675333205
 31
0.0
  0
LINE
  5
A278
  8
0
 10
3541.428550929640096
 20
206.149836675333205
 30
0.0
 11
3540.563019162747878
 21
206.1800617105618016
 31
0.0
  0
LINE
  5
A279
  8
0
 10
3540.563019162747878
 20
206.1800617105618016
 30
0.0
 11
3540.5630153957649782
 21
206.1878968950805131
 31
0.0
  0
ARC
  5
A27A
  8
0
 10
3532.9428845790839659
 20
203.2745397259926108
 30
0.0
 40
8.2157089065038829
 50
20.4557380702704386
 51
20.6939462705365216
  0
LINE
  5
A27B
  8
0
 10
3540.6405310159761939
 20
206.1457959265086117
 30
0.0
 11
3541.3487605474751945
 21
206.1210640062350876
 31
0.0
  0
ARC
  5
A27C
  8
0
 10
3540.7572160024969889
 20
206.4007395025955134
 30
0.0
 40
0.6543266248269953
 50
334.6957511092193727
 51
337.6709146601685916
  0
ARC
  5
A27D
  8
0
 10
3541.1305764725238987
 20
206.1878850330020896
 30
0.0
 40
0.1979783342864063
 50
316.1828675324209144
 51
340.6114610277966221
  0
LINE
  5
A27E
  8
0
 10
3541.2734283796107775
 20
206.0508129589372004
 30
0.0
 11
3540.7107792131419046
 21
206.0704611006734979
 31
0.0
  0
ARC
  5
A27F
  8
0
 10
3540.8767078504370147
 20
206.2063466319387999
 30
0.0
 40
0.2144695556061273
 50
196.6984619366905918
 51
219.3154047156581896
  0
ARC
  5
A280
  8
0
 10
3550.17295182973794
 20
206.3723105446140096
 30
0.0
 40
0.0314961745999984
 50
359.9999999999968168
 51
87.9980049466107488
  0
LINE
  5
A281
  8
0
 10
3550.2044480043368821
 20
206.3723105446140096
 30
0.0
 11
3550.2031915568190925
 21
205.8837885066403999
 31
0.0
  0
ARC
  5
A282
  8
0
 10
3550.1715333274469231
 20
205.8840401426795097
 30
0.0
 40
0.0316592294230256
 50
268.1269487745028073
 51
359.5445929958794977
  0
ARC
  5
A283
  8
0
 10
3550.1719944049677906
 20
205.8208485599438973
 30
0.0
 40
0.0315847109940767
 50
359.9581510555744899
 51
92.7145622851786158
  0
LINE
  5
A284
  8
0
 10
3550.2035791075368252
 20
205.8208254904139949
 30
0.0
 11
3550.2035791075368252
 21
201.7095086881820123
 31
0.0
  0
LINE
  5
A285
  8
0
 10
3550.2035791075368252
 20
201.3551780128140081
 30
0.0
 11
3550.2035791075368252
 21
200.9102961231139943
 31
0.0
  0
LINE
  5
A286
  8
0
 10
3550.2035791075368252
 20
200.5165953357141007
 30
0.0
 11
3550.2035791075368252
 21
200.4890377027338104
 31
0.0
  0
ARC
  5
A287
  8
0
 10
3550.1720830446852233
 20
200.4890362804981123
 30
0.0
 40
0.0314960628841039
 50
269.9999997307725721
 51
0.0025872471831827
  0
ARC
  5
A288
  8
0
 10
3548.3452217319691044
 20
205.8847103964619976
 30
0.0
 40
0.0314065060768055
 50
87.9714682189198527
 51
180.1461293118709079
  0
LINE
  5
A289
  8
0
 10
3548.3138153280369806
 20
205.8846302962139987
 30
0.0
 11
3548.3138153280369806
 21
201.7095086881820123
 31
0.0
  0
LINE
  5
A28A
  8
0
 10
3548.3138153280369806
 20
201.3551780128140081
 30
0.0
 11
3548.3138153280369806
 21
200.4890362805140001
 31
0.0
  0
ARC
  5
A28B
  8
0
 10
3548.3453113910368302
 20
200.4890362805140001
 30
0.0
 40
0.0314960630000005
 50
179.9999999999967031
 51
270.0
  0
ARC
  5
A28C
  8
0
 10
3548.0303507583048486
 20
200.2921858856408051
 30
0.0
 40
0.031496060167509
 50
179.9999978656765904
 51
270.0000051527094911
  0
LINE
  5
A28D
  8
0
 10
3547.998854698138075
 20
200.2921858868139964
 30
0.0
 11
3547.998854698138075
 21
200.4260441546140044
 31
0.0
  0
ARC
  5
A28E
  8
0
 10
3548.0303507611379246
 20
200.4260441546140044
 30
0.0
 40
0.0314960630000059
 50
90.0000000000521254
 51
179.9999999999951115
  0
ARC
  5
A28F
  8
0
 10
3548.7350751707081145
 20
200.4890362804432868
 30
0.0
 40
0.0314960628292846
 50
269.9999996894492256
 51
0.0000001286373051
  0
LINE
  5
A290
  8
0
 10
3548.7665712335378885
 20
200.4890362805140001
 30
0.0
 11
3548.7665712335378885
 21
201.3118709262139987
 31
0.0
  0
ARC
  5
A291
  8
0
 10
3548.7980672965368285
 20
201.3118709262139987
 30
0.0
 40
0.0314960629999988
 50
89.9999999999739515
 51
180.0
  0
ARC
  5
A292
  8
0
 10
3547.7532641469369992
 20
201.3851780128140945
 30
0.0
 40
0.0300000000000083
 50
180.0000000000163141
 51
269.9999999999739089
  0
LINE
  5
A293
  8
0
 10
3547.7232641469367991
 20
201.3851780128140945
 30
0.0
 11
3547.7232641469367991
 21
201.6795087215139972
 31
0.0
  0
ARC
  5
A294
  8
0
 10
3547.7532641116381456
 20
201.6795087358977128
 30
0.0
 40
0.0299999647007917
 50
90.0521286713038762
 51
180.0000274708552013
  0
LINE
  5
A295
  8
0
 10
3548.8736972178380711
 20
201.3433669892139903
 30
0.0
 11
3548.8736972178380711
 21
201.3551780128140081
 31
0.0
  0
ARC
  5
A296
  8
0
 10
3551.1278174871390547
 20
200.7134457294139906
 30
0.0
 40
0.9449691316805161
 50
167.9764275589452041
 51
192.0235724410547107
  0
LINE
  5
A297
  8
0
 10
3550.7626342257372016
 20
201.7095086881820123
 30
0.0
 11
3547.7532368171659982
 21
201.7095086881820123
 31
0.0
  0
LINE
  5
A298
  8
0
 10
3547.7532641469369992
 20
201.3551780128140081
 30
0.0
 11
3550.7626342257372016
 21
201.3551780128140081
 31
0.0
  0
LINE
  5
A299
  8
0
 10
3549.7193271391379312
 20
201.3433669892139903
 30
0.0
 11
3548.7980672965368285
 21
201.3433669892139903
 31
0.0
  0
LINE
  5
A29A
  8
0
 10
3550.4870436745368352
 20
200.457540217613996
 30
0.0
 11
3548.0303507611379246
 21
200.457540217613996
 31
0.0
  0
LINE
  5
A29B
  8
0
 10
3550.5185397375371394
 20
200.2606898255745023
 30
0.0
 11
3547.998854698138075
 21
200.2606898254720136
 31
0.0
  0
ARC
  5
A29C
  8
0
 10
3550.1720830448080051
 20
200.4890362804432868
 30
0.0
 40
0.0314960628292851
 50
269.9999996894492256
 51
0.0000001286373051
  0
ARC
  5
A29D
  8
0
 10
3550.4870436775408962
 20
200.2921858855700066
 30
0.0
 40
0.031496059996799
 50
269.9999945367396776
 51
0.0000022629525443
  0
LINE
  5
A29E
  8
0
 10
3550.5185397375371394
 20
200.2921858868139964
 30
0.0
 11
3550.5185397375371394
 21
200.4260441546140044
 31
0.0
  0
ARC
  5
A29F
  8
0
 10
3550.4870436745368352
 20
200.4260441546140044
 30
0.0
 40
0.0314960630000059
 50
0.0000000000048853
 51
89.9999999999478888
  0
ARC
  5
A2A0
  8
0
 10
3549.7823192649671
 20
200.4890362804432868
 30
0.0
 40
0.031496062829298
 50
179.999999871369198
 51
270.0000003105246833
  0
LINE
  5
A2A1
  8
0
 10
3549.7508232021368713
 20
200.4890362805140001
 30
0.0
 11
3549.7508232021368713
 21
201.3118709262139987
 31
0.0
  0
ARC
  5
A2A2
  8
0
 10
3549.7193271391379312
 20
201.3118709262139987
 30
0.0
 40
0.0314960629999988
 50
0.0
 51
90.0000000000260485
  0
ARC
  5
A2A3
  8
0
 10
3549.5830279265378522
 20
201.3851780128140945
 30
0.0
 40
0.0300000000000083
 50
270.0000000000259774
 51
359.9999999999836859
  0
LINE
  5
A2A4
  8
0
 10
3549.6130279265371428
 20
201.3851780128140945
 30
0.0
 11
3549.6130279265380523
 21
201.6795087215139972
 31
0.0
  0
ARC
  5
A2A5
  8
0
 10
3549.5830279874130611
 20
201.6795087490573053
 30
0.0
 40
0.0299999391248547
 50
359.9999473962578804
 51
90.0001162638404537
  0
LINE
  5
A2A6
  8
0
 10
3549.6436972178371434
 20
201.3433669892139903
 30
0.0
 11
3549.6436972178371434
 21
201.3551780128140081
 31
0.0
  0
LINE
  5
A2A7
  8
0
 10
3547.998854698138075
 20
200.2921858868141101
 30
0.0
 11
3547.998854698138075
 21
200.2606898254720136
 31
0.0
  0
LINE
  5
A2A8
  8
0
 10
3550.5185397375371394
 20
200.2921858868141101
 30
0.0
 11
3550.5185397375371394
 21
200.2606898255745023
 31
0.0
  0
LINE
  5
A2AA
  8
0
 10
3548.9043665092372066
 20
201.6780126585140067
 30
0.0
 11
3548.9043665092372066
 21
201.3866740759139873
 31
0.0
  0
LINE
  5
A2AB
  8
0
 10
3550.7941302887379607
 20
201.6780126585140067
 30
0.0
 11
3550.7941302887379607
 21
201.3866740759139873
 31
0.0
  0
ARC
  5
A2AC
  8
0
 10
3550.7626342257372016
 20
201.3866740759139873
 30
0.0
 40
0.031496063
 50
270.0
 51
0.0
  0
ARC
  5
A2AD
  8
0
 10
3548.9358625721370117
 20
201.3866740759139873
 30
0.0
 40
0.031496063
 50
180.0
 51
270.0
  0
ARC
  5
A2AE
  8
0
 10
3548.93586251523584
 20
201.6780126820833061
 30
0.0
 40
0.0314960060987816
 50
89.9998964884393615
 51
180.0000428758866065
  0
ARC
  5
A2AF
  8
0
 10
3550.7626342826388282
 20
201.6780126820833061
 30
0.0
 40
0.0314960060987719
 50
359.9999571241069134
 51
90.0001035115606243
  0
ENDSEC
  0
EOF
