  0
SECTION
  2
HEADER
  9
$ACADVER
  1
AC1009
  9
$INSBASE
 10
34.383128254500001
 20
5.5054379957000004
 30
0.0
  9
$EXTMIN
 10
31.018128254499999
 20
5.4674379957000001
 30
0.0
  9
$EXTMAX
 10
35.433128254499998
 20
10.880437995699999
 30
0.0
  9
$LIMMIN
 10
0.0
 20
0.0
  9
$LIMMAX
 10
11.692913385800001
 20
8.2677165353999982
  9
$ORTHOMODE
 70
     0
  9
$REGENMODE
 70
     1
  9
$FILLMODE
 70
     1
  9
$QTEXTMODE
 70
     0
  9
$MIRRTEXT
 70
     0
  9
$DRAGMODE
 70
     2
  9
$LTSCALE
 40
0.6431102362
  9
$OSMODE
 70
  3071
  9
$ATTMODE
 70
     1
  9
$TEXTSIZE
 40
0.2
  9
$TRACEWID
 40
0.05
  9
$TEXTSTYLE
  7
STANDARD
  9
$CLAYER
  8
0
  9
$CELTYPE
  6
BYLAYER
  9
$CECOLOR
 62
   256
  9
$DIMSCALE
 40
1.0
  9
$DIMASZ
 40
0.1875
  9
$DIMEXO
 40
0.0625
  9
$DIMDLI
 40
0.4443307087
  9
$DIMRND
 40
0.0
  9
$DIMDLE
 40
0.0
  9
$DIMEXE
 40
0.125
  9
$DIMTP
 40
0.01
  9
$DIMTM
 40
0.01
  9
$DIMTXT
 40
0.15625
  9
$DIMCEN
 40
0.1052362205
  9
$DIMTSZ
 40
0.0
  9
$DIMTOL
 70
     1
  9
$DIMLIM
 70
     0
  9
$DIMTIH
 70
     1
  9
$DIMTOH
 70
     1
  9
$DIMSE1
 70
     0
  9
$DIMSE2
 70
     0
  9
$DIMTAD
 70
     0
  9
$DIMZIN
 70
     0
  9
$DIMBLK
  1

  9
$DIMASO
 70
     1
  9
$DIMSHO
 70
     1
  9
$DIMPOST
  1

  9
$DIMAPOST
  1

  9
$DIMALT
 70
     0
  9
$DIMALTD
 70
     2
  9
$DIMALTF
 40
25.399999999999999
  9
$DIMLFAC
 40
1.0
  9
$DIMTOFL
 70
     0
  9
$DIMTVP
 40
0.0
  9
$DIMTIX
 70
     0
  9
$DIMSOXD
 70
     0
  9
$DIMSAH
 70
     0
  9
$DIMBLK1
  1

  9
$DIMBLK2
  1

  9
$DIMSTYLE
  2
STANDARD
  9
$DIMCLRD
 70
     0
  9
$DIMCLRE
 70
     0
  9
$DIMCLRT
 70
     0
  9
$DIMTFAC
 40
1.0
  9
$DIMGAP
 40
0.09
  9
$LUNITS
 70
     2
  9
$LUPREC
 70
     4
  9
$SKETCHINC
 40
0.1
  9
$FILLETRAD
 40
0.0
  9
$AUNITS
 70
     0
  9
$AUPREC
 70
     0
  9
$MENU
  1
.
  9
$ELEVATION
 40
0.0
  9
$PELEVATION
 40
0.0
  9
$THICKNESS
 40
0.0
  9
$LIMCHECK
 70
     0
  9
$BLIPMODE
 70
     0
  9
$CHAMFERA
 40
0.0
  9
$CHAMFERB
 40
0.0
  9
$SKPOLY
 70
     0
  9
$TDCREATE
 40
2457665.6325300578
  9
$TDUPDATE
 40
2457665.699347951
  9
$TDINDWG
 40
0.0638004051
  9
$TDUSRTIMER
 40
0.0638004051
  9
$USRTIMER
 70
     1
  9
$ANGBASE
 50
0.0
  9
$ANGDIR
 70
     0
  9
$PDMODE
 70
     0
  9
$PDSIZE
 40
0.3125
  9
$PLINEWID
 40
0.0
  9
$COORDS
 70
     1
  9
$SPLFRAME
 70
     0
  9
$SPLINETYPE
 70
     6
  9
$SPLINESEGS
 70
     8
  9
$ATTDIA
 70
     1
  9
$ATTREQ
 70
     1
  9
$HANDLING
 70
     1
  9
$HANDSEED
  5
7C1
  9
$SURFTAB1
 70
     6
  9
$SURFTAB2
 70
     6
  9
$SURFTYPE
 70
     6
  9
$SURFU
 70
     6
  9
$SURFV
 70
     6
  9
$UCSNAME
  2

  9
$UCSORG
 10
0.0
 20
0.0
 30
0.0
  9
$UCSXDIR
 10
1.0
 20
0.0
 30
0.0
  9
$UCSYDIR
 10
0.0
 20
1.0
 30
0.0
  9
$PUCSNAME
  2

  9
$PUCSORG
 10
0.0
 20
0.0
 30
0.0
  9
$PUCSXDIR
 10
1.0
 20
0.0
 30
0.0
  9
$PUCSYDIR
 10
0.0
 20
1.0
 30
0.0
  9
$USERI1
 70
     0
  9
$USERI2
 70
     0
  9
$USERI3
 70
     0
  9
$USERI4
 70
     0
  9
$USERI5
 70
     0
  9
$USERR1
 40
0.0
  9
$USERR2
 40
0.0
  9
$USERR3
 40
0.0
  9
$USERR4
 40
0.0
  9
$USERR5
 40
0.0
  9
$WORLDVIEW
 70
     1
  9
$SHADEDGE
 70
     3
  9
$SHADEDIF
 70
    70
  9
$TILEMODE
 70
     1
  9
$MAXACTVP
 70
    64
  9
$PLIMCHECK
 70
     0
  9
$PEXTMIN
 10
1.0000000000000000E+020
 20
1.0000000000000000E+020
 30
1.0000000000000000E+020
  9
$PEXTMAX
 10
-1.0000000000000000E+020
 20
-1.0000000000000000E+020
 30
-1.0000000000000000E+020
  9
$PLIMMIN
 10
0.0
 20
0.0
  9
$PLIMMAX
 10
12.0
 20
9.0
  9
$UNITMODE
 70
     0
  9
$VISRETAIN
 70
     1
  9
$PLINEGEN
 70
     0
  9
$PSLTSCALE
 70
     1
  0
ENDSEC
  0
SECTION
  2
TABLES
  0
TABLE
  2
VPORT
 70
     1
  0
VPORT
  2
*ACTIVE
 70
     0
 10
0.0
 20
0.0
 11
1.0
 21
1.0
 12
0.0
 22
0.0
 13
0.0
 23
0.0
 14
1.0
 24
1.0
 15
0.0
 25
0.0
 16
-0.0000000000000071
 26
0.0
 36
21.43070082022777
 17
33.225627899169922
 27
8.1738560199737549
 37
0.0
 40
6.9882411847312031
 41
2.3378378378378382
 42
50.0
 43
0.0
 44
0.0
 50
0.0
 51
0.0
 71
     0
 72
   100
 73
     1
 74
     1
 75
     0
 76
     0
 77
     0
 78
     0
  0
ENDTAB
  0
TABLE
  2
LTYPE
 70
     2
  0
LTYPE
  2
CONTINUOUS
 70
     0
  3
Solid line
 72
    65
 73
     0
 40
0.0
  0
ENDTAB
  0
TABLE
  2
LAYER
 70
     2
  0
LAYER
  2
0
 70
     0
 62
     7
  6
CONTINUOUS
  0
LAYER
  2
DEFPOINTS
 70
     0
 62
     7
  6
CONTINUOUS
  0
ENDTAB
  0
TABLE
  2
STYLE
 70
     1
  0
STYLE
  2
STANDARD
 70
     0
 40
0.0
 41
0.8
 50
0.0
 71
     0
 42
0.2
  3
txt
  4

  0
ENDTAB
  0
TABLE
  2
VIEW
 70
     0
  0
ENDTAB
  0
TABLE
  2
UCS
 70
     0
  0
ENDTAB
  0
TABLE
  2
APPID
 70
     5
  0
APPID
  2
ACAD
 70
     0
  0
APPID
  2
ACAD_MLEADERVER
 70
     0
  0
APPID
  2
ACAD_NAV_VCDISPLAY
 70
     0
  0
APPID
  2
ACAD_EXEMPT_FROM_CAD_STANDARDS
 70
     0
  0
APPID
  2
AcDbAttr
 70
     0
  0
ENDTAB
  0
TABLE
  2
DIMSTYLE
 70
     2
  0
DIMSTYLE
  2
STANDARD
 70
     0
  3

  4

  5

  6

  7

 40
1.0
 41
0.1875
 42
0.0625
 43
0.38
 44
0.125
 45
0.0
 46
0.0
 47
0.01
 48
0.01
140
0.15625
141
0.09
142
0.0
143
25.399999999999999
144
1.0
145
0.0
146
1.0
147
0.09
 71
     1
 72
     0
 73
     1
 74
     1
 75
     0
 76
     0
 77
     0
 78
     4
170
     0
171
     2
172
     0
173
     0
174
     0
175
     0
176
     0
177
     0
178
     0
  0
ENDTAB
  0
ENDSEC
  0
SECTION
  2
BLOCKS
  0
BLOCK
  8
0
  2
$MODEL_SPACE
 70
     0
 10
0.0
 20
0.0
 30
0.0
  3
$MODEL_SPACE
  1

  0
ENDBLK
  5
21
  8
0
  0
BLOCK
 67
     1
  8
0
  2
$PAPER_SPACE
 70
     0
 10
0.0
 20
0.0
 30
0.0
  3
$PAPER_SPACE
  1

  0
ENDBLK
  5
1D
 67
     1
  8
0
  0
ENDSEC
  0
SECTION
  2
ENTITIES
  0
LINE
  5
3EA
  8
0
 10
33.592363302000003
 20
6.1048998172999989
 30
0.0
 11
33.373893207000002
 21
6.0463609317999989
 31
0.0
  0
LINE
  5
3EC
  8
0
 10
31.018136750499998
 20
5.4674379957000001
 30
0.0
 11
32.9881197586
 21
5.4674379957000001
 31
0.0
  0
LINE
  5
3ED
  8
0
 10
35.383128254500001
 20
5.5054379957000004
 30
0.0
 11
33.383128254500001
 21
5.5054379957000004
 31
0.0
  0
LINE
  5
3F0
  8
0
 10
31.048128908900001
 20
5.6164379957000001
 30
0.0
 11
32.958127600200001
 21
5.6164379957000001
 31
0.0
  0
LINE
  5
3F5
  8
0
 10
31.5481282545
 20
5.7926179544999998
 30
0.0
 11
31.246237185999998
 21
5.7926175212999986
 31
0.0
  0
LINE
  5
3F6
  8
0
 10
32.7600216461
 20
5.7926170067999987
 30
0.0
 11
32.458128254499997
 21
5.7926182219999998
 31
0.0
  0
LINE
  5
3FC
  8
0
 10
31.018128254499999
 20
5.4674379957000001
 30
0.0
 11
31.018128254499999
 21
5.5864379956999999
 31
0.0
  0
LINE
  5
3FF
  8
0
 10
31.578128658899999
 20
6.5414379957
 30
0.0
 11
32.428127850100012
 21
6.5414379957
 31
0.0
  0
LINE
  5
400
  8
0
 10
31.581868411999999
 20
6.5526269720999997
 30
0.0
 11
32.424388096999998
 21
6.5526269720999997
 31
0.0
  0
LINE
  5
403
  8
0
 10
31.581868411999999
 20
6.9069576373999988
 30
0.0
 11
32.424388096999998
 21
6.9069576373999988
 31
0.0
  0
LINE
  5
404
  8
0
 10
31.203128254500001
 20
5.7389183360000002
 30
0.0
 11
31.203128254500001
 21
5.6164379957000001
 31
0.0
  0
LINE
  5
408
  8
0
 10
31.5481282545
 20
5.6464379957000004
 30
0.0
 11
31.5481282545
 21
6.5114379956999997
 31
0.0
  0
LINE
  5
409
  8
0
 10
31.550372349
 20
6.5841230350000002
 30
0.0
 11
31.550372349
 21
6.8754615744000001
 31
0.0
  0
LINE
  5
40C
  8
0
 10
31.6181282545
 20
6.5526269720999997
 30
0.0
 11
31.6181282545
 21
6.5414379957
 31
0.0
  0
LINE
  5
417
  8
0
 10
32.388128254500003
 20
6.5526269720999997
 30
0.0
 11
32.388128254500003
 21
6.5414379957
 31
0.0
  0
LINE
  5
41A
  8
0
 10
32.455884159999997
 20
6.8754615744000001
 30
0.0
 11
32.455884159999997
 21
6.5841230350000002
 31
0.0
  0
LINE
  5
41B
  8
0
 10
32.458128254499997
 20
5.6464379957000004
 30
0.0
 11
32.458128254499997
 21
6.5114379956999997
 31
0.0
  0
LINE
  5
41D
  8
0
 10
35.173893206999999
 20
6.1048998172999989
 30
0.0
 11
35.392363302
 21
6.0463609317999989
 31
0.0
  0
LINE
  5
420
  8
0
 10
32.803128254500002
 20
5.7389183360000002
 30
0.0
 11
32.803128254500002
 21
5.6164379957000001
 31
0.0
  0
LINE
  5
421
  8
0
 10
32.988128254499998
 20
5.4674379957000001
 30
0.0
 11
32.988128254499998
 21
5.5864379956999999
 31
0.0
  0
LINE
  5
422
  8
0
 10
35.226573335399998
 20
9.1304379957000013
 30
0.0
 11
33.538599061500001
 21
9.1304379957000013
 31
0.0
  0
LINE
  5
424
  8
0
 10
33.333128254499997
 20
5.9932350113000004
 30
0.0
 11
33.333128254499997
 21
5.5554379957000002
 31
0.0
  0
LINE
  5
425
  8
0
 10
33.633128254500001
 20
9.1304379957000013
 30
0.0
 11
33.633128254500001
 21
6.1580257377000001
 31
0.0
  0
LINE
  5
426
  8
0
 10
33.506891767900001
 20
10.7304517192
 30
0.0
 11
33.494071381600001
 21
9.1753342748000009
 31
0.0
  0
LINE
  5
429
  8
0
 10
35.221340706200003
 20
10.7785845325
 30
0.0
 11
33.5449157161
 21
10.7785845111
 31
0.0
  0
LINE
  5
42A
  8
0
 10
35.259364741200002
 20
10.7304517192
 30
0.0
 11
35.2721851274
 21
9.1753342748000009
 31
0.0
  0
LINE
  5
42B
  8
0
 10
35.133128254500001
 20
9.1304379957000013
 30
0.0
 11
35.133128254500001
 21
6.1580257377000001
 31
0.0
  0
LINE
  5
42C
  8
0
 10
35.433128254499998
 20
5.9932350113000004
 30
0.0
 11
35.433128254499998
 21
5.5554379957000002
 31
0.0
  0
ARC
  5
4F2
  8
0
 10
32.003128342399997
 20
2.3754375557
 30
0.0
 40
3.5000004475999988
 50
97.469617754300003
 51
102.48919161809999
  0
ARC
  5
4F3
  8
0
 10
32.0031282725
 20
2.3754380515000002
 30
0.0
 40
3.4999999419000001
 50
77.510808346700003
 51
82.530381990500004
  0
ARC
  5
4FB
  8
0
 10
34.383128254500001
 20
7.3804379957000004
 30
0.0
 40
3.5
 50
76.143597872599983
 51
103.8564021274
  0
ARC
  5
4FC
  8
0
 10
32.748128254500003
 20
5.7389183360000002
 30
0.0
 40
0.055
 50
0.0
 51
77.510808213600001
  0
ARC
  5
4FD
  8
0
 10
31.258128254500001
 20
5.7389183360000002
 30
0.0
 40
0.055
 50
102.4891917864
 51
180.0
  0
ARC
  5
4FE
  8
0
 10
33.578128254500001
 20
6.1580257377000001
 30
0.0
 40
0.055
 50
285.0
 51
360.0
  0
ARC
  5
4FF
  8
0
 10
35.378128254499998
 20
5.9932350113000004
 30
0.0
 40
0.055
 50
0.0
 51
74.999999995300001
  0
ARC
  5
500
  8
0
 10
33.388128254500003
 20
5.9932350113000004
 30
0.0
 40
0.055
 50
105.0000000047
 51
180.0
  0
ARC
  5
501
  8
0
 10
35.1881282545
 20
6.1580257377000001
 30
0.0
 40
0.055
 50
180.0
 51
255.0
  0
ARC
  5
502
  8
0
 10
35.2093664402
 20
10.730039533299999
 30
0.0
 40
0.05
 50
0.4723405246
 51
76.143597872599983
  0
ARC
  5
503
  8
0
 10
33.556890068900003
 20
10.730039533299999
 30
0.0
 40
0.05
 50
103.8564021274
 51
179.52765947539999
  0
ARC
  5
504
  8
0
 10
35.383128254500001
 20
5.5554379957000002
 30
0.0
 40
0.05
 50
270.0
 51
360.0
  0
ARC
  5
505
  8
0
 10
33.383128254500001
 20
5.5554379957000002
 30
0.0
 40
0.05
 50
180.0
 51
270.0
  0
ARC
  5
506
  8
0
 10
35.227635953001332
 20
9.1749759367095667
 30
0.0
 40
0.0445506155461201
 50
268.63325618653329
 51
0.4608574635329963
  0
ARC
  5
507
  8
0
 10
33.538599061500001
 20
9.1749671887000002
 30
0.0
 40
0.044529193
 50
179.52766453769999
 51
270.0
  0
ARC
  5
508
  8
0
 10
32.424388096999998
 20
6.5841230350000002
 30
0.0
 40
0.031496063
 50
270.0
 51
360.0
  0
ARC
  5
509
  8
0
 10
32.424388096999998
 20
6.8754615744000001
 30
0.0
 40
0.031496063
 50
0.0
 51
90.0
  0
ARC
  5
50A
  8
0
 10
31.581868411999999
 20
6.8754615744000001
 30
0.0
 40
0.031496063
 50
90.0
 51
180.0
  0
ARC
  5
50B
  8
0
 10
31.581868411999999
 20
6.5841230350000002
 30
0.0
 40
0.031496063
 50
180.0
 51
270.0
  0
ARC
  5
50C
  8
0
 10
31.578128254500001
 20
6.5114379956999997
 30
0.0
 40
0.03
 50
90.0
 51
180.0
  0
ARC
  5
50D
  8
0
 10
31.518128254499999
 20
5.6464379957000004
 30
0.0
 40
0.03
 50
270.0
 51
360.0
  0
ARC
  5
50E
  8
0
 10
32.958128254499997
 20
5.5864379956999999
 30
0.0
 40
0.03
 50
0.0
 51
90.0
  0
ARC
  5
50F
  8
0
 10
31.0481282545
 20
5.5864379956999999
 30
0.0
 40
0.03
 50
90.0
 51
180.0
  0
ARC
  5
510
  8
0
 10
32.488128254499998
 20
5.6464379957000004
 30
0.0
 40
0.03
 50
180.0
 51
270.0
  0
ARC
  5
511
  8
0
 10
32.428128254500002
 20
6.5114379956999997
 30
0.0
 40
0.03
 50
0.0
 51
90.0
  0
ATTDEF
  5
709
  8
DEFPOINTS
 10
34.370844944998971
 20
5.501406067891252
 30
0.0
 40
0.001
  1
K-73077-4
  3

  2
MODELNUMBER
 70
     0
1001
AcDbAttr
1070
     0
1070
     1
  0
ATTDEF
  5
70A
  8
DEFPOINTS
 10
34.370844944998971
 20
5.4997394012245868
 30
0.0
 40
0.001
  1
COMPOSED
  3

  2
TRADENAME
 70
     0
1001
AcDbAttr
1070
     0
1070
     1
  0
ATTDEF
  5
70B
  8
DEFPOINTS
 10
34.370844944998971
 20
5.4980727345579146
 30
0.0
 40
0.001
  1
BIDET FAUCET
  3

  2
PRODUCT
 70
     0
1001
AcDbAttr
1070
     0
1070
     1
  0
ATTDEF
  5
70C
  8
DEFPOINTS
 10
34.370844944998971
 20
5.4964060678912503
 30
0.0
 40
0.001
  1
METAL
  3

  2
MATERIAL
 70
     0
1001
AcDbAttr
1070
     0
1070
     1
  0
ENDSEC
  0
EOF
