  0
SECTION
  2
HEADER
  9
$ACADVER
  1
AC1009
  9
$INSBASE
 10
3798.242043963794913
 20
198.0128843401294034
 30
0.0
  9
$EXTMIN
 10
3791.6133068735462075
 20
198.0128843401294034
 30
0.0
  9
$EXTMAX
 10
3799.8808545924939608
 20
202.5736955414294016
 30
0.0
  9
$LIMMIN
 10
0.0
 20
0.0
  9
$LIMMAX
 10
11.6929133858000007
 20
8.2677165353999982
  9
$ORTHOMODE
 70
     0
  9
$REGENMODE
 70
     1
  9
$FILLMODE
 70
     1
  9
$QTEXTMODE
 70
     0
  9
$MIRRTEXT
 70
     0
  9
$DRAGMODE
 70
     2
  9
$LTSCALE
 40
0.6431102362
  9
$OSMODE
 70
     7
  9
$ATTMODE
 70
     1
  9
$TEXTSIZE
 40
0.2
  9
$TRACEWID
 40
0.05
  9
$TEXTSTYLE
  7
STANDARD
  9
$CLAYER
  8
0
  9
$CELTYPE
  6
BYLAYER
  9
$CECOLOR
 62
   256
  9
$DIMSCALE
 40
1.0
  9
$DIMASZ
 40
0.1875
  9
$DIMEXO
 40
0.0625
  9
$DIMDLI
 40
0.4443307087
  9
$DIMRND
 40
0.0
  9
$DIMDLE
 40
0.0
  9
$DIMEXE
 40
0.125
  9
$DIMTP
 40
0.01
  9
$DIMTM
 40
0.01
  9
$DIMTXT
 40
2.0
  9
$DIMCEN
 40
0.1052362205
  9
$DIMTSZ
 40
0.0
  9
$DIMTOL
 70
     1
  9
$DIMLIM
 70
     0
  9
$DIMTIH
 70
     1
  9
$DIMTOH
 70
     1
  9
$DIMSE1
 70
     0
  9
$DIMSE2
 70
     0
  9
$DIMTAD
 70
     0
  9
$DIMZIN
 70
     0
  9
$DIMBLK
  1

  9
$DIMASO
 70
     1
  9
$DIMSHO
 70
     1
  9
$DIMPOST
  1
\X
  9
$DIMAPOST
  1

  9
$DIMALT
 70
     1
  9
$DIMALTD
 70
     2
  9
$DIMALTF
 40
25.3999999999999986
  9
$DIMLFAC
 40
1.0
  9
$DIMTOFL
 70
     0
  9
$DIMTVP
 40
0.0
  9
$DIMTIX
 70
     0
  9
$DIMSOXD
 70
     0
  9
$DIMSAH
 70
     0
  9
$DIMBLK1
  1

  9
$DIMBLK2
  1

  9
$DIMSTYLE
  2
STANDARD
  9
$DIMCLRD
 70
     0
  9
$DIMCLRE
 70
     0
  9
$DIMCLRT
 70
     0
  9
$DIMTFAC
 40
1.0
  9
$DIMGAP
 40
0.09
  9
$LUNITS
 70
     2
  9
$LUPREC
 70
     4
  9
$SKETCHINC
 40
0.1
  9
$FILLETRAD
 40
0.0
  9
$AUNITS
 70
     0
  9
$AUPREC
 70
     0
  9
$MENU
  1
.
  9
$ELEVATION
 40
0.0
  9
$PELEVATION
 40
0.0
  9
$THICKNESS
 40
0.0
  9
$LIMCHECK
 70
     0
  9
$BLIPMODE
 70
     0
  9
$CHAMFERA
 40
0.0
  9
$CHAMFERB
 40
0.0
  9
$SKPOLY
 70
     0
  9
$TDCREATE
 40
2458060.468368056230247
  9
$TDUPDATE
 40
2459633.6654629628174007
  9
$TDINDWG
 40
0.9853079861
  9
$TDUSRTIMER
 40
0.9853079861
  9
$USRTIMER
 70
     1
  9
$ANGBASE
 50
0.0
  9
$ANGDIR
 70
     0
  9
$PDMODE
 70
     0
  9
$PDSIZE
 40
0.3125
  9
$PLINEWID
 40
0.0
  9
$COORDS
 70
     1
  9
$SPLFRAME
 70
     0
  9
$SPLINETYPE
 70
     6
  9
$SPLINESEGS
 70
     8
  9
$ATTDIA
 70
     1
  9
$ATTREQ
 70
     1
  9
$HANDLING
 70
     1
  9
$HANDSEED
  5
2C933
  9
$SURFTAB1
 70
     6
  9
$SURFTAB2
 70
     6
  9
$SURFTYPE
 70
     6
  9
$SURFU
 70
     6
  9
$SURFV
 70
     6
  9
$UCSNAME
  2

  9
$UCSORG
 10
0.0
 20
0.0
 30
0.0
  9
$UCSXDIR
 10
1.0
 20
0.0
 30
0.0
  9
$UCSYDIR
 10
0.0
 20
1.0
 30
0.0
  9
$PUCSNAME
  2

  9
$PUCSORG
 10
0.0
 20
0.0
 30
0.0
  9
$PUCSXDIR
 10
1.0
 20
0.0
 30
0.0
  9
$PUCSYDIR
 10
0.0
 20
1.0
 30
0.0
  9
$USERI1
 70
     0
  9
$USERI2
 70
     0
  9
$USERI3
 70
     0
  9
$USERI4
 70
     0
  9
$USERI5
 70
     0
  9
$USERR1
 40
0.0
  9
$USERR2
 40
0.0
  9
$USERR3
 40
0.0
  9
$USERR4
 40
0.0
  9
$USERR5
 40
0.0
  9
$WORLDVIEW
 70
     1
  9
$SHADEDGE
 70
     3
  9
$SHADEDIF
 70
    70
  9
$TILEMODE
 70
     1
  9
$MAXACTVP
 70
    64
  9
$PLIMCHECK
 70
     0
  9
$PEXTMIN
 10
1.0000000000000000E+20
 20
1.0000000000000000E+20
 30
1.0000000000000000E+20
  9
$PEXTMAX
 10
-1.0000000000000000E+20
 20
-1.0000000000000000E+20
 30
-1.0000000000000000E+20
  9
$PLIMMIN
 10
0.0
 20
0.0
  9
$PLIMMAX
 10
12.0
 20
9.0
  9
$UNITMODE
 70
     0
  9
$VISRETAIN
 70
     1
  9
$PLINEGEN
 70
     0
  9
$PSLTSCALE
 70
     1
  0
ENDSEC
  0
SECTION
  2
TABLES
  0
TABLE
  2
VPORT
 70
     1
  0
VPORT
  2
*ACTIVE
 70
     0
 10
0.0
 20
0.0
 11
1.0
 21
1.0
 12
532.4754013115825728
 22
48.5722031962788421
 13
0.0
 23
0.0
 14
1.0
 24
1.0
 15
0.0
 25
0.0
 16
0.0
 26
0.0
 36
92.3385285193394054
 17
3263.3890380859379547
 27
151.7217025756835938
 37
0.0
 40
4.6169783400066402
 41
2.2831541218637992
 42
50.0
 43
0.0
 44
0.0
 50
0.0
 51
0.0
 71
     0
 72
   100
 73
     1
 74
     1
 75
     0
 76
     0
 77
     0
 78
     0
  0
ENDTAB
  0
TABLE
  2
LTYPE
 70
     2
  0
LTYPE
  2
CONTINUOUS
 70
     0
  3
Solid line
 72
    65
 73
     0
 40
0.0
  0
LTYPE
  2
PHANTOM2
 70
     0
  3
___ _ _ ___ _ _ ___ _ _ ___ _ _
 72
    65
 73
     6
 40
1.25
 49
0.625
 49
-0.125
 49
0.125
 49
-0.125
 49
0.125
 49
-0.125
  0
ENDTAB
  0
TABLE
  2
LAYER
 70
     2
  0
LAYER
  2
0
 70
     0
 62
   255
  6
CONTINUOUS
  0
LAYER
  2
DEFPOINTS
 70
     0
 62
     7
  6
CONTINUOUS
  0
ENDTAB
  0
TABLE
  2
STYLE
 70
     1
  0
STYLE
  2
STANDARD
 70
     0
 40
0.0
 41
0.8
 50
0.0
 71
     0
 42
0.2
  3
txt
  4

  0
ENDTAB
  0
TABLE
  2
VIEW
 70
     0
  0
ENDTAB
  0
TABLE
  2
UCS
 70
     0
  0
ENDTAB
  0
TABLE
  2
APPID
 70
    10
  0
APPID
  2
ACAD
 70
     0
  0
APPID
  2
ACAD_MLEADERVER
 70
     0
  0
APPID
  2
ACAD_EXEMPT_FROM_CAD_STANDARDS
 70
     0
  0
APPID
  2
ACAD_NAV_VCDISPLAY
 70
     0
  0
APPID
  2
ACAECLAYERSTANDARD
 70
     0
  0
APPID
  2
ACCMTRANSPARENCY
 70
     0
  0
APPID
  2
ACAD_DSTYLE_DIMJAG
 70
     0
  0
APPID
  2
ACAD_DSTYLE_DIMTALN
 70
     0
  0
APPID
  2
ACDBATTR
 70
     0
  0
APPID
  2
ACADANNOTATIVE
 70
     0
  0
ENDTAB
  0
TABLE
  2
DIMSTYLE
 70
     1
  0
DIMSTYLE
  2
STANDARD
 70
     0
  3

  4

  5

  6

  7

 40
1.0
 41
0.1875
 42
0.0625
 43
0.38
 44
0.125
 45
0.0
 46
0.0
 47
0.01
 48
0.01
140
0.15625
141
0.09
142
0.0
143
25.3999999999999986
144
1.0
145
0.0
146
1.0
147
0.09
 71
     1
 72
     0
 73
     1
 74
     1
 75
     0
 76
     0
 77
     0
 78
     4
170
     0
171
     2
172
     0
173
     0
174
     0
175
     0
176
     0
177
     0
178
     0
  0
ENDTAB
  0
ENDSEC
  0
SECTION
  2
BLOCKS
  0
BLOCK
  8
0
  2
$MODEL_SPACE
 70
     0
 10
0.0
 20
0.0
 30
0.0
  3
$MODEL_SPACE
  1

  0
ENDBLK
  5
21
  8
0
  0
BLOCK
 67
     1
  8
0
  2
$PAPER_SPACE
 70
     0
 10
0.0
 20
0.0
 30
0.0
  3
$PAPER_SPACE
  1

  0
ENDBLK
  5
1D
 67
     1
  8
0
  0
ENDSEC
  0
SECTION
  2
ENTITIES
  0
ATTDEF
  5
2143C
  8
DEFPOINTS
 10
3798.2421233942200161
 20
198.0163149281970902
 30
0.0
 40
0.001
  1
K-73060-4
  3

  2
MODELNUMBER
 70
     0
1001
ACDBATTR
1070
     0
1070
     1
  0
ATTDEF
  5
2143D
  8
DEFPOINTS
 10
3798.2421233942200161
 20
198.0146482615305104
 30
0.0
 40
0.001
  1
COMPOSED
  3

  2
TRADENAME
 70
     0
1001
ACDBATTR
1070
     0
1070
     1
  0
ATTDEF
  5
2143E
  8
DEFPOINTS
 10
3798.2421233942200161
 20
198.0129815948637884
 30
0.0
 40
0.001
  1
BATHROOM SINK FAUCET
  3

  2
PRODUCT
 70
     0
1001
ACDBATTR
1070
     0
1070
     1
  0
LINE
  5
2C7E7
  8
0
 10
3791.613326060044983
 20
202.0554070903293962
 30
0.0
 11
3791.6303636096449736
 21
202.5432986751293924
 31
0.0
  0
LINE
  5
2C7E8
  8
0
 10
3799.8611695530948964
 20
199.9745886760294127
 30
0.0
 11
3799.4084136475948981
 21
199.9745886760294127
 31
0.0
  0
LINE
  5
2C7E9
  8
0
 10
3799.8611695530948964
 20
200.1911241090294027
 30
0.0
 11
3799.4084136475948981
 21
200.1911241090294027
 31
0.0
  0
LINE
  5
2C7EA
  8
0
 10
3791.6437037396908636
 20
202.0228310170788006
 30
0.0
 11
3798.9006794446941058
 21
201.7694118414293882
 31
0.0
  0
LINE
  5
2C7EB
  8
0
 10
3797.5530675858449285
 20
201.7838586775293948
 30
0.0
 11
3797.5530675858449285
 21
198.2018607179587093
 31
0.0
  0
LINE
  5
2C7EC
  8
0
 10
3791.662939682844808
 20
202.5736763548293879
 30
0.0
 11
3798.8997920779252127
 21
202.320958823145105
 31
0.0
  0
LINE
  5
2C7ED
  8
0
 10
3798.9306739130438473
 20
201.8010086884293912
 30
0.0
 11
3798.9301865512447876
 21
202.2895086542293939
 31
0.0
  0
LINE
  5
2C7EE
  8
0
 10
3798.9310203417448975
 20
201.7379345943294027
 30
0.0
 11
3798.9310203417448975
 21
199.9027412017728977
 31
0.0
  0
LINE
  5
2C7EF
  8
0
 10
3798.9310203417448975
 20
199.1545235401366938
 30
0.0
 11
3798.9310203417448975
 21
198.2018607179587093
 31
0.0
  0
LINE
  5
2C7F0
  8
0
 10
3799.1401942971938297
 20
199.7867794649293955
 30
0.0
 11
3798.9281028873961077
 21
199.2040631056734128
 31
0.0
  0
LINE
  5
2C7F1
  8
0
 10
3799.8808545924939608
 20
199.994273715329399
 30
0.0
 11
3799.8808545924939608
 21
200.1714390697293879
 31
0.0
  0
ARC
  5
2C7F2
  8
0
 10
3799.4088801072962269
 20
199.6888365423423863
 30
0.0
 40
0.5022877832806538
 50
90.0532088913050757
 51
160.0177358952711018
  0
ARC
  5
2C7F3
  8
0
 10
3799.4084136475948981
 20
199.6891556051294003
 30
0.0
 40
0.2854330709
 50
90.0
 51
160.0000000000015064
  0
ARC
  5
2C7F4
  8
0
 10
3798.8986940034628788
 20
202.2894854163025116
 30
0.0
 40
0.0314925563554767
 50
0.0422777764541548
 51
88.0018202775802934
  0
ARC
  5
2C7F5
  8
0
 10
3798.8990069736819351
 20
201.8011567352054101
 30
0.0
 40
0.0316672854292943
 50
268.1426747312747239
 51
359.7321372445372845
  0
ARC
  5
2C7F6
  8
0
 10
3791.6448029366351875
 20
202.0543078936632924
 30
0.0
 40
0.0314960630894728
 50
178.0000000674195064
 51
267.9999997437445813
  0
ARC
  5
2C7F7
  8
0
 10
3791.6618404860450937
 20
202.54219947842941
 30
0.0
 40
0.031496063
 50
87.9999999999963336
 51
177.9999999999992895
  0
ARC
  5
2C7F8
  8
0
 10
3797.5844950796808916
 20
201.7839272870008074
 30
0.0
 40
0.0314275687276539
 50
88.0007553137941159
 51
180.1250824173907006
  0
ARC
  5
2C7F9
  8
0
 10
3798.8995561671140422
 20
201.7379677063784982
 30
0.0
 40
0.0314641920542308
 50
359.9397034886673055
 51
87.9540951399637976
  0
ARC
  5
2C7FA
  8
0
 10
3799.8611695530948964
 20
200.1714390697293879
 30
0.0
 40
0.0196850394
 50
0.0
 51
90.0
  0
ARC
  5
2C7FB
  8
0
 10
3799.8611695530948964
 20
199.994273715329399
 30
0.0
 40
0.0196850394
 50
270.0
 51
0.0
  0
ARC
  5
2C7FC
  8
0
 10
3804.8614812257487756
 20
199.5286323709547958
 30
0.0
 40
5.9422490451010708
 50
176.3904167853231115
 51
183.6095832070153051
  0
LINE
  5
2C7FD
  8
0
 10
3798.9368308281100326
 20
199.8604829674517873
 30
0.0
 11
3798.9270633253790947
 21
199.8336043332230929
 31
0.0
  0
LINE
  5
2C7FE
  8
0
 10
3792.754640747591111
 20
201.9840362419294024
 30
0.0
 11
3792.7498306077950474
 21
201.8462918596293889
 31
0.0
  0
LINE
  5
2C7FF
  8
0
 10
3792.7498306077950474
 20
201.8462918596293889
 30
0.0
 11
3792.702265451394851
 21
201.8210010173293938
 31
0.0
  0
LINE
  5
2C800
  8
0
 10
3792.702265451394851
 20
201.8210010173293938
 30
0.0
 11
3791.8563243970947951
 21
201.8505419299293919
 31
0.0
  0
LINE
  5
2C801
  8
0
 10
3791.8563243970947951
 20
201.8505419299293919
 30
0.0
 11
3791.8106393069938349
 21
201.8790891425294092
 31
0.0
  0
LINE
  5
2C802
  8
0
 10
3791.8106393069938349
 20
201.8790891425294092
 30
0.0
 11
3791.815449446790808
 21
202.0168335248336007
 31
0.0
  0
LINE
  5
2C803
  8
0
 10
3791.8106393069938349
 20
201.8790891425294092
 30
0.0
 11
3792.0957122560621428
 21
201.8691341757939028
 31
0.0
  0
LINE
  5
2C804
  8
0
 10
3792.4647576586780815
 20
201.8562468263666005
 30
0.0
 11
3792.7498306077950474
 21
201.8462918596293889
 31
0.0
  0
LINE
  5
2C805
  8
0
 10
3792.0957122562949735
 20
201.869134175729414
 30
0.0
 11
3792.0988942108938318
 21
201.960253434929399
 31
0.0
  0
LINE
  5
2C806
  8
0
 10
3792.0988942108938318
 20
201.960253434929399
 30
0.0
 11
3792.4679396131950853
 21
201.9473660855294099
 31
0.0
  0
LINE
  5
2C807
  8
0
 10
3792.4679396131950853
 20
201.9473660855294099
 30
0.0
 11
3792.4647576584948183
 21
201.8562468263293965
 31
0.0
  0
ARC
  5
2C808
  8
0
 10
3792.30711514584209
 20
202.6324383870039014
 30
0.0
 40
0.7920381939389012
 50
254.5195256059220981
 51
281.4804744009609863
  0
ARC
  5
2C809
  8
0
 10
3792.2565367236861675
 20
201.1840618765436091
 30
0.0
 40
0.7920381917232951
 50
74.5195255643397161
 51
101.4804744436331987
  0
LINE
  5
2C80A
  8
0
 10
3797.2381069559451134
 20
198.0128843401294034
 30
0.0
 11
3799.2459809716451673
 21
198.0128843401294034
 31
0.0
  0
LINE
  5
2C80B
  8
0
 10
3799.2262959322451934
 20
198.17036465512939
 30
0.0
 11
3798.706141735266101
 21
198.17036465512939
 31
0.0
  0
LINE
  5
2C80C
  8
0
 10
3797.7779461923241797
 20
198.17036465512939
 30
0.0
 11
3797.2577919952450429
 21
198.17036465512939
 31
0.0
  0
LINE
  5
2C80D
  8
0
 10
3797.2381069559451134
 20
198.0128843401294034
 30
0.0
 11
3797.2381069559451134
 21
198.1506796157293877
 31
0.0
  0
ARC
  5
2C80E
  8
0
 10
3797.5845636486737931
 20
198.2018607179587093
 30
0.0
 40
0.0314960628292872
 50
179.9999998713659011
 51
270.0000003105507744
  0
ARC
  5
2C80F
  8
0
 10
3797.2577919952450429
 20
198.1506796157293877
 30
0.0
 40
0.0196850394
 50
90.0
 51
180.0
  0
LINE
  5
2C810
  8
0
 10
3799.2459809716451673
 20
198.0128843401294034
 30
0.0
 11
3799.2459809716451673
 21
198.1506796157293877
 31
0.0
  0
ARC
  5
2C811
  8
0
 10
3798.8995242789151234
 20
198.2018607179587093
 30
0.0
 40
0.0314960628292872
 50
269.9999996894492256
 51
0.0000001286340482
  0
ARC
  5
2C812
  8
0
 10
3799.2262959323447831
 20
198.1506796157293877
 30
0.0
 40
0.0196850394
 50
0.0
 51
90.0
  0
LINE
  5
2C814
  8
0
 10
3799.1970439637948402
 20
198.1618843401292906
 30
0.0
 11
3797.2870439637949858
 21
198.1618843401292906
 31
0.0
  0
LINE
  5
2C815
  8
0
 10
3798.6670439637950949
 20
199.0868843401293873
 30
0.0
 11
3797.8170439637951858
 21
199.0868843401293873
 31
0.0
  0
LINE
  5
2C816
  8
0
 10
3798.6633038062950618
 20
199.0980733165293941
 30
0.0
 11
3797.8207841212938547
 21
199.0980733165293941
 31
0.0
  0
LINE
  5
2C817
  8
0
 10
3798.6633038062950618
 20
199.452403981829292
 30
0.0
 11
3797.8207841212938547
 21
199.452403981829292
 31
0.0
  0
LINE
  5
2C818
  8
0
 10
3798.6947998692949113
 20
199.1295693795294142
 30
0.0
 11
3798.6947998692949113
 21
199.4209079188293003
 31
0.0
  0
LINE
  5
2C819
  8
0
 10
3797.8570439637951495
 20
199.0980733165293941
 30
0.0
 11
3797.8570439637951495
 21
199.0868843401293873
 31
0.0
  0
LINE
  5
2C81A
  8
0
 10
3797.7870439637949858
 20
198.1918843401292918
 30
0.0
 11
3797.7870439637949858
 21
199.0568843401293861
 31
0.0
  0
LINE
  5
2C81B
  8
0
 10
3797.2570439637938762
 20
198.0128843401294034
 30
0.0
 11
3797.2570439637938762
 21
198.1318843401292895
 31
0.0
  0
ARC
  5
2C81C
  8
0
 10
3798.6633038062950618
 20
199.1295693795294142
 30
0.0
 40
0.031496063
 50
270.0
 51
0.0
  0
ARC
  5
2C81D
  8
0
 10
3798.6633038062950618
 20
199.4209079188293003
 30
0.0
 40
0.031496063
 50
0.0
 51
90.0
  0
ARC
  5
2C81E
  8
0
 10
3797.8170439637951858
 20
199.0568843401293861
 30
0.0
 40
0.029999999999994
 50
90.0
 51
180.0000000000113971
  0
ARC
  5
2C81F
  8
0
 10
3797.7570439637947857
 20
198.1918843401292918
 30
0.0
 40
0.030000000000004
 50
270.0
 51
359.9999999999935199
  0
ARC
  5
2C820
  8
0
 10
3797.2870439637949858
 20
198.1318843401292895
 30
0.0
 40
0.0299999999999985
 50
90.0
 51
180.0000000000048885
  0
LINE
  5
2C821
  8
0
 10
3798.6270439637951313
 20
199.0980733165293941
 30
0.0
 11
3798.6270439637951313
 21
199.0868843401293873
 31
0.0
  0
LINE
  5
2C822
  8
0
 10
3798.6970439637948402
 20
198.1918843401292918
 30
0.0
 11
3798.6970439637948402
 21
199.0568843401293861
 31
0.0
  0
LINE
  5
2C823
  8
0
 10
3799.2270439637950403
 20
198.0128843401294034
 30
0.0
 11
3799.2270439637950403
 21
198.1318843401292895
 31
0.0
  0
ARC
  5
2C824
  8
0
 10
3798.6670439637950949
 20
199.0568843401293861
 30
0.0
 40
0.029999999999994
 50
359.9999999999885745
 51
90.0
  0
ARC
  5
2C825
  8
0
 10
3798.7270439637950403
 20
198.1918843401292918
 30
0.0
 40
0.030000000000004
 50
180.0000000000065086
 51
270.0
  0
ARC
  5
2C826
  8
0
 10
3799.1970439637948402
 20
198.1318843401292895
 30
0.0
 40
0.0299999999999985
 50
359.9999999999951115
 51
90.0
  0
LINE
  5
2C827
  8
0
 10
3797.7892880582940052
 20
199.1295693795294142
 30
0.0
 11
3797.7892880582940052
 21
199.4209079188293003
 31
0.0
  0
ARC
  5
2C828
  8
0
 10
3797.8207841212938547
 20
199.1295693795294142
 30
0.0
 40
0.031496063
 50
180.0
 51
270.0
  0
ARC
  5
2C829
  8
0
 10
3797.8207841212938547
 20
199.4209079188293003
 30
0.0
 40
0.031496063
 50
90.0
 51
180.0
  0
ENDSEC
  0
EOF
