  0
SECTION
  2
HEADER
  9
$ACADVER
  1
AC1009
  9
$INSBASE
 10
3783.663472196039038
 20
197.2342239200802965
 30
0.0
  9
$EXTMIN
 10
3776.471584034830812
 20
190.6049173095865967
 30
-0.0015258207003583
  9
$EXTMAX
 10
3790.932397747613777
 20
198.8745387569306047
 30
0.0000000349246037
  9
$LIMMIN
 10
0.0
 20
0.0
  9
$LIMMAX
 10
11.6929133858000007
 20
8.2677165353999982
  9
$ORTHOMODE
 70
     0
  9
$REGENMODE
 70
     1
  9
$FILLMODE
 70
     1
  9
$QTEXTMODE
 70
     0
  9
$MIRRTEXT
 70
     0
  9
$DRAGMODE
 70
     2
  9
$LTSCALE
 40
0.6431102362
  9
$OSMODE
 70
     7
  9
$ATTMODE
 70
     1
  9
$TEXTSIZE
 40
0.2
  9
$TRACEWID
 40
0.05
  9
$TEXTSTYLE
  7
STANDARD
  9
$CLAYER
  8
0
  9
$CELTYPE
  6
BYLAYER
  9
$CECOLOR
 62
   256
  9
$DIMSCALE
 40
1.0
  9
$DIMASZ
 40
0.1875
  9
$DIMEXO
 40
0.0625
  9
$DIMDLI
 40
0.4443307087
  9
$DIMRND
 40
0.0
  9
$DIMDLE
 40
0.0
  9
$DIMEXE
 40
0.125
  9
$DIMTP
 40
0.01
  9
$DIMTM
 40
0.01
  9
$DIMTXT
 40
2.0
  9
$DIMCEN
 40
0.1052362205
  9
$DIMTSZ
 40
0.0
  9
$DIMTOL
 70
     1
  9
$DIMLIM
 70
     0
  9
$DIMTIH
 70
     1
  9
$DIMTOH
 70
     1
  9
$DIMSE1
 70
     0
  9
$DIMSE2
 70
     0
  9
$DIMTAD
 70
     0
  9
$DIMZIN
 70
     0
  9
$DIMBLK
  1

  9
$DIMASO
 70
     1
  9
$DIMSHO
 70
     1
  9
$DIMPOST
  1
\X
  9
$DIMAPOST
  1

  9
$DIMALT
 70
     1
  9
$DIMALTD
 70
     2
  9
$DIMALTF
 40
25.3999999999999986
  9
$DIMLFAC
 40
1.0
  9
$DIMTOFL
 70
     0
  9
$DIMTVP
 40
0.0
  9
$DIMTIX
 70
     0
  9
$DIMSOXD
 70
     0
  9
$DIMSAH
 70
     0
  9
$DIMBLK1
  1

  9
$DIMBLK2
  1

  9
$DIMSTYLE
  2
STANDARD
  9
$DIMCLRD
 70
     0
  9
$DIMCLRE
 70
     0
  9
$DIMCLRT
 70
     0
  9
$DIMTFAC
 40
1.0
  9
$DIMGAP
 40
0.09
  9
$LUNITS
 70
     2
  9
$LUPREC
 70
     4
  9
$SKETCHINC
 40
0.1
  9
$FILLETRAD
 40
0.0
  9
$AUNITS
 70
     0
  9
$AUPREC
 70
     0
  9
$MENU
  1
.
  9
$ELEVATION
 40
0.0
  9
$PELEVATION
 40
0.0
  9
$THICKNESS
 40
0.0
  9
$LIMCHECK
 70
     0
  9
$BLIPMODE
 70
     0
  9
$CHAMFERA
 40
0.0
  9
$CHAMFERB
 40
0.0
  9
$SKPOLY
 70
     0
  9
$TDCREATE
 40
2458060.468368056230247
  9
$TDUPDATE
 40
2459633.6652314821258187
  9
$TDINDWG
 40
0.9840927083
  9
$TDUSRTIMER
 40
0.9840927083
  9
$USRTIMER
 70
     1
  9
$ANGBASE
 50
0.0
  9
$ANGDIR
 70
     0
  9
$PDMODE
 70
     0
  9
$PDSIZE
 40
0.3125
  9
$PLINEWID
 40
0.0
  9
$COORDS
 70
     1
  9
$SPLFRAME
 70
     0
  9
$SPLINETYPE
 70
     6
  9
$SPLINESEGS
 70
     8
  9
$ATTDIA
 70
     1
  9
$ATTREQ
 70
     1
  9
$HANDLING
 70
     1
  9
$HANDSEED
  5
2C826
  9
$SURFTAB1
 70
     6
  9
$SURFTAB2
 70
     6
  9
$SURFTYPE
 70
     6
  9
$SURFU
 70
     6
  9
$SURFV
 70
     6
  9
$UCSNAME
  2

  9
$UCSORG
 10
0.0
 20
0.0
 30
0.0
  9
$UCSXDIR
 10
1.0
 20
0.0
 30
0.0
  9
$UCSYDIR
 10
0.0
 20
1.0
 30
0.0
  9
$PUCSNAME
  2

  9
$PUCSORG
 10
0.0
 20
0.0
 30
0.0
  9
$PUCSXDIR
 10
1.0
 20
0.0
 30
0.0
  9
$PUCSYDIR
 10
0.0
 20
1.0
 30
0.0
  9
$USERI1
 70
     0
  9
$USERI2
 70
     0
  9
$USERI3
 70
     0
  9
$USERI4
 70
     0
  9
$USERI5
 70
     0
  9
$USERR1
 40
0.0
  9
$USERR2
 40
0.0
  9
$USERR3
 40
0.0
  9
$USERR4
 40
0.0
  9
$USERR5
 40
0.0
  9
$WORLDVIEW
 70
     1
  9
$SHADEDGE
 70
     3
  9
$SHADEDIF
 70
    70
  9
$TILEMODE
 70
     1
  9
$MAXACTVP
 70
    64
  9
$PLIMCHECK
 70
     0
  9
$PEXTMIN
 10
1.0000000000000000E+20
 20
1.0000000000000000E+20
 30
1.0000000000000000E+20
  9
$PEXTMAX
 10
-1.0000000000000000E+20
 20
-1.0000000000000000E+20
 30
-1.0000000000000000E+20
  9
$PLIMMIN
 10
0.0
 20
0.0
  9
$PLIMMAX
 10
12.0
 20
9.0
  9
$UNITMODE
 70
     0
  9
$VISRETAIN
 70
     1
  9
$PLINEGEN
 70
     0
  9
$PSLTSCALE
 70
     1
  0
ENDSEC
  0
SECTION
  2
TABLES
  0
TABLE
  2
VPORT
 70
     1
  0
VPORT
  2
*ACTIVE
 70
     0
 10
0.0
 20
0.0
 11
1.0
 21
1.0
 12
520.3129528052850219
 22
43.0180254575750496
 13
0.0
 23
0.0
 14
1.0
 24
1.0
 15
0.0
 25
0.0
 16
0.0
 26
0.0
 36
92.3385285193394054
 17
3263.3890380859379547
 27
151.7217025756835938
 37
0.0
 40
8.3288311474442907
 41
2.2831541218637992
 42
50.0
 43
0.0
 44
0.0
 50
0.0
 51
0.0
 71
     0
 72
   100
 73
     1
 74
     1
 75
     0
 76
     0
 77
     0
 78
     0
  0
ENDTAB
  0
TABLE
  2
LTYPE
 70
     2
  0
LTYPE
  2
CONTINUOUS
 70
     0
  3
Solid line
 72
    65
 73
     0
 40
0.0
  0
LTYPE
  2
PHANTOM2
 70
     0
  3
___ _ _ ___ _ _ ___ _ _ ___ _ _
 72
    65
 73
     6
 40
1.25
 49
0.625
 49
-0.125
 49
0.125
 49
-0.125
 49
0.125
 49
-0.125
  0
ENDTAB
  0
TABLE
  2
LAYER
 70
     2
  0
LAYER
  2
0
 70
     0
 62
   255
  6
CONTINUOUS
  0
LAYER
  2
DEFPOINTS
 70
     0
 62
     7
  6
CONTINUOUS
  0
ENDTAB
  0
TABLE
  2
STYLE
 70
     1
  0
STYLE
  2
STANDARD
 70
     0
 40
0.0
 41
0.8
 50
0.0
 71
     0
 42
0.2
  3
txt
  4

  0
ENDTAB
  0
TABLE
  2
VIEW
 70
     0
  0
ENDTAB
  0
TABLE
  2
UCS
 70
     0
  0
ENDTAB
  0
TABLE
  2
APPID
 70
    10
  0
APPID
  2
ACAD
 70
     0
  0
APPID
  2
ACAD_MLEADERVER
 70
     0
  0
APPID
  2
ACAD_EXEMPT_FROM_CAD_STANDARDS
 70
     0
  0
APPID
  2
ACAD_NAV_VCDISPLAY
 70
     0
  0
APPID
  2
ACAECLAYERSTANDARD
 70
     0
  0
APPID
  2
ACCMTRANSPARENCY
 70
     0
  0
APPID
  2
ACAD_DSTYLE_DIMJAG
 70
     0
  0
APPID
  2
ACAD_DSTYLE_DIMTALN
 70
     0
  0
APPID
  2
ACDBATTR
 70
     0
  0
APPID
  2
ACADANNOTATIVE
 70
     0
  0
ENDTAB
  0
TABLE
  2
DIMSTYLE
 70
     1
  0
DIMSTYLE
  2
STANDARD
 70
     0
  3

  4

  5

  6

  7

 40
1.0
 41
0.1875
 42
0.0625
 43
0.38
 44
0.125
 45
0.0
 46
0.0
 47
0.01
 48
0.01
140
0.15625
141
0.09
142
0.0
143
25.3999999999999986
144
1.0
145
0.0
146
1.0
147
0.09
 71
     1
 72
     0
 73
     1
 74
     1
 75
     0
 76
     0
 77
     0
 78
     4
170
     0
171
     2
172
     0
173
     0
174
     0
175
     0
176
     0
177
     0
178
     0
  0
ENDTAB
  0
ENDSEC
  0
SECTION
  2
BLOCKS
  0
BLOCK
  8
0
  2
$MODEL_SPACE
 70
     0
 10
0.0
 20
0.0
 30
0.0
  3
$MODEL_SPACE
  1

  0
ENDBLK
  5
21
  8
0
  0
BLOCK
 67
     1
  8
0
  2
$PAPER_SPACE
 70
     0
 10
0.0
 20
0.0
 30
0.0
  3
$PAPER_SPACE
  1

  0
ENDBLK
  5
1D
 67
     1
  8
0
  0
ENDSEC
  0
SECTION
  2
ENTITIES
  0
ATTDEF
  5
2143C
  8
DEFPOINTS
 10
3783.6635516264650505
 20
197.2376545081480117
 30
0.0
 40
0.001
  1
K-73060-4
  3

  2
MODELNUMBER
 70
     0
1001
ACDBATTR
1070
     0
1070
     1
  0
ATTDEF
  5
2143D
  8
DEFPOINTS
 10
3783.6635516264650505
 20
197.2359878414814034
 30
0.0
 40
0.001
  1
COMPOSED
  3

  2
TRADENAME
 70
     0
1001
ACDBATTR
1070
     0
1070
     1
  0
ATTDEF
  5
2143E
  8
DEFPOINTS
 10
3783.6635516264650505
 20
197.2343211748147098
 30
0.0
 40
0.001
  1
BATHROOM SINK FAUCET
  3

  2
PRODUCT
 70
     0
1001
ACDBATTR
1070
     0
1070
     1
  0
LINE
  5
2C6FB
  8
0
 10
3782.974495818089963
 20
190.755021179480309
 30
0.0
 11
3782.974495818089963
 21
197.2338117927803012
 31
0.0
  0
LINE
  5
2C6FC
  8
0
 10
3783.5551951611369077
 20
197.9146388929185036
 30
0.0
 11
3783.5551951611369077
 21
198.8533495093803083
 31
0.0
  0
LINE
  5
2C6FD
  8
0
 10
3783.7717305942360326
 20
197.9146418583864886
 30
0.0
 11
3783.7717305942360326
 21
198.8533495093803083
 31
0.0
  0
LINE
  5
2C6FE
  8
0
 10
3784.3524485739899319
 20
197.2338117927803012
 30
0.0
 11
3784.3524485739899319
 21
190.755021179480309
 31
0.0
  0
LINE
  5
2C6FF
  8
0
 10
3783.7520446071371225
 20
198.8730345487803106
 30
0.0
 11
3783.5748811481371376
 21
198.8730345487803106
 31
0.0
  0
ARC
  5
2C700
  8
0
 10
3783.1240893168592265
 20
190.7550803397514017
 30
0.0
 40
0.1495935104675409
 50
180.0226589638018027
 51
269.9950973132457079
  0
ARC
  5
2C701
  8
0
 10
3783.5748802005750804
 20
198.8533495093641079
 30
0.0
 40
0.0196850394389376
 50
89.9972420045311452
 51
179.9999999530535888
  0
ARC
  5
2C702
  8
0
 10
3784.2028550752202136
 20
190.7550803397514869
 30
0.0
 40
0.1495935104676034
 50
270.0049026901155003
 51
359.9773410361738115
  0
ARC
  5
2C703
  8
0
 10
3783.6634721959899252
 20
197.2342239200802965
 30
0.0
 40
1.0039370079000001
 50
313.3359227383904795
 51
83.8095381663371484
  0
ARC
  5
2C704
  8
0
 10
3783.6634721959899252
 20
197.2342239200802965
 30
0.0
 40
1.0039370079000001
 50
96.1915316845126256
 51
226.6640772694543955
  0
ARC
  5
2C705
  8
0
 10
3783.7520455547969505
 20
198.8533495093641079
 30
0.0
 40
0.0196850394389454
 50
0.0000000469561827
 51
90.0027582865304367
  0
ARC
  5
2C706
  8
0
 10
3783.663472196039038
 20
197.2342237969417056
 30
0.0
 40
0.6889765011381228
 50
359.9657374366803992
 51
180.0342625633196008
  0
LINE
  5
2C708
  8
0
 10
3776.6634721960399474
 20
196.8798932114802938
 30
0.0
 11
3776.6634721960399474
 21
197.5885546286802992
 31
0.0
  0
LINE
  5
2C709
  8
0
 10
3776.7618973928401829
 20
197.6869798255802948
 30
0.0
 11
3779.6634721960399474
 21
197.6869798255802948
 31
0.0
  0
ARC
  5
2C70A
  8
0
 10
3776.7618973928401829
 20
197.5885546286802992
 30
0.0
 40
0.0984251969
 50
90.0
 51
180.0000000220001937
  0
LINE
  5
2C70C
  8
0
 10
3783.1240765164379809
 20
190.6054868298315057
 30
0.0
 11
3784.2028678756500994
 21
190.6054868298315057
 31
0.0
  0
LINE
  5
2C70D
  8
0
 10
3776.7618973928401829
 20
196.7814680145802981
 30
0.0
 11
3779.6634721960399474
 21
196.7814680145802981
 31
0.0
  0
ARC
  5
2C70E
  8
0
 10
3776.7618973928401829
 20
196.8798932114802938
 30
0.0
 40
0.0984251969
 50
179.9999999779996926
 51
270.0
  0
ARC
  5
2C70F
  8
0
 10
3779.6634721960399474
 20
197.2342239200802965
 30
0.0
 40
0.9849999999999997
 50
207.3645678829921906
 51
152.6354321170078094
  0
ARC
  5
2C710
  8
0
 10
3779.6634721960399474
 20
197.2342239200802965
 30
0.0
 40
0.4527559055000001
 50
270.0
 51
90.0
  0
ARC
  5
2C711
  8
0
 10
3779.6634721960399474
 20
197.2342239200802965
 30
0.0
 40
0.4550000000000006
 50
264.3071313708563821
 51
95.6928686291436037
  0
LINE
  5
2C712
  8
0
 10
3790.663472196039038
 20
196.8798932114802938
 30
0.0
 11
3790.663472196039038
 21
197.5885546286802992
 31
0.0
  0
LINE
  5
2C713
  8
0
 10
3790.5650469992401668
 20
197.6869798255802948
 30
0.0
 11
3787.663472196039038
 21
197.6869798255802948
 31
0.0
  0
ARC
  5
2C714
  8
0
 10
3790.5650469992401668
 20
197.5885546286802992
 30
0.0
 40
0.0984251969
 50
359.9999999779997211
 51
90.0
  0
LINE
  5
2C715
  8
0
 10
3790.5650469992401668
 20
196.7814680145802981
 30
0.0
 11
3787.663472196039038
 21
196.7814680145802981
 31
0.0
  0
ARC
  5
2C716
  8
0
 10
3790.5650469992401668
 20
196.8798932114802938
 30
0.0
 40
0.0984251969
 50
270.0
 51
0.0000000220002784
  0
ARC
  5
2C717
  8
0
 10
3787.663472196039038
 20
197.2342239200802965
 30
0.0
 40
0.9849999999999997
 50
27.3645678829921692
 51
332.635432117007781
  0
ARC
  5
2C718
  8
0
 10
3787.663472196039038
 20
197.2342239200802965
 30
0.0
 40
0.4527559055000001
 50
90.0
 51
270.0
  0
ARC
  5
2C719
  8
0
 10
3787.663472196039038
 20
197.2342239200802965
 30
0.0
 40
0.4550000000000006
 50
84.3071313708563963
 51
275.6928686291435042
  0
ENDSEC
  0
EOF
