  0
SECTION
  2
HEADER
  9
$ACADVER
  1
AC1009
  9
$INSBASE
 10
3.5966550811999989
 20
-1.9909665762999991
 30
0.0
  9
$EXTMIN
 10
2.592718073299999
 20
-2.0020831762762241
 30
0.0
  9
$EXTMAX
 10
6.4655527189999988
 20
8.8236629945262308
 30
0.0
  9
$LIMMIN
 10
0.0
 20
0.0
  9
$LIMMAX
 10
11.692913385800001
 20
8.2677165353999982
  9
$ORTHOMODE
 70
     0
  9
$REGENMODE
 70
     1
  9
$FILLMODE
 70
     1
  9
$QTEXTMODE
 70
     0
  9
$MIRRTEXT
 70
     0
  9
$DRAGMODE
 70
     2
  9
$LTSCALE
 40
0.6431102362
  9
$OSMODE
 70
  3071
  9
$ATTMODE
 70
     1
  9
$TEXTSIZE
 40
0.2
  9
$TRACEWID
 40
0.05
  9
$TEXTSTYLE
  7
STANDARD
  9
$CLAYER
  8
0
  9
$CELTYPE
  6
BYLAYER
  9
$CECOLOR
 62
   256
  9
$DIMSCALE
 40
1.0
  9
$DIMASZ
 40
0.1875
  9
$DIMEXO
 40
0.0625
  9
$DIMDLI
 40
0.4443307087
  9
$DIMRND
 40
0.0
  9
$DIMDLE
 40
0.0
  9
$DIMEXE
 40
0.125
  9
$DIMTP
 40
0.01
  9
$DIMTM
 40
0.01
  9
$DIMTXT
 40
0.15625
  9
$DIMCEN
 40
0.1052362205
  9
$DIMTSZ
 40
0.0
  9
$DIMTOL
 70
     1
  9
$DIMLIM
 70
     0
  9
$DIMTIH
 70
     1
  9
$DIMTOH
 70
     1
  9
$DIMSE1
 70
     0
  9
$DIMSE2
 70
     0
  9
$DIMTAD
 70
     0
  9
$DIMZIN
 70
     0
  9
$DIMBLK
  1

  9
$DIMASO
 70
     1
  9
$DIMSHO
 70
     1
  9
$DIMPOST
  1

  9
$DIMAPOST
  1

  9
$DIMALT
 70
     0
  9
$DIMALTD
 70
     2
  9
$DIMALTF
 40
25.399999999999999
  9
$DIMLFAC
 40
1.0
  9
$DIMTOFL
 70
     0
  9
$DIMTVP
 40
0.0
  9
$DIMTIX
 70
     0
  9
$DIMSOXD
 70
     0
  9
$DIMSAH
 70
     0
  9
$DIMBLK1
  1

  9
$DIMBLK2
  1

  9
$DIMSTYLE
  2
STANDARD
  9
$DIMCLRD
 70
     0
  9
$DIMCLRE
 70
     0
  9
$DIMCLRT
 70
     0
  9
$DIMTFAC
 40
1.0
  9
$DIMGAP
 40
0.09
  9
$LUNITS
 70
     2
  9
$LUPREC
 70
     4
  9
$SKETCHINC
 40
0.1
  9
$FILLETRAD
 40
0.0
  9
$AUNITS
 70
     0
  9
$AUPREC
 70
     0
  9
$MENU
  1
.
  9
$ELEVATION
 40
0.0
  9
$PELEVATION
 40
0.0
  9
$THICKNESS
 40
0.0
  9
$LIMCHECK
 70
     0
  9
$BLIPMODE
 70
     0
  9
$CHAMFERA
 40
0.0
  9
$CHAMFERB
 40
0.0
  9
$SKPOLY
 70
     0
  9
$TDCREATE
 40
2457665.5202560071
  9
$TDUPDATE
 40
2457665.6176699311
  9
$TDINDWG
 40
0.0952109144
  9
$TDUSRTIMER
 40
0.0952109144
  9
$USRTIMER
 70
     1
  9
$ANGBASE
 50
0.0
  9
$ANGDIR
 70
     0
  9
$PDMODE
 70
     0
  9
$PDSIZE
 40
0.3125
  9
$PLINEWID
 40
0.0
  9
$COORDS
 70
     1
  9
$SPLFRAME
 70
     0
  9
$SPLINETYPE
 70
     6
  9
$SPLINESEGS
 70
     8
  9
$ATTDIA
 70
     1
  9
$ATTREQ
 70
     1
  9
$HANDLING
 70
     1
  9
$HANDSEED
  5
783
  9
$SURFTAB1
 70
     6
  9
$SURFTAB2
 70
     6
  9
$SURFTYPE
 70
     6
  9
$SURFU
 70
     6
  9
$SURFV
 70
     6
  9
$UCSNAME
  2

  9
$UCSORG
 10
0.0
 20
0.0
 30
0.0
  9
$UCSXDIR
 10
1.0
 20
0.0
 30
0.0
  9
$UCSYDIR
 10
0.0
 20
1.0
 30
0.0
  9
$PUCSNAME
  2

  9
$PUCSORG
 10
0.0
 20
0.0
 30
0.0
  9
$PUCSXDIR
 10
1.0
 20
0.0
 30
0.0
  9
$PUCSYDIR
 10
0.0
 20
1.0
 30
0.0
  9
$USERI1
 70
     0
  9
$USERI2
 70
     0
  9
$USERI3
 70
     0
  9
$USERI4
 70
     0
  9
$USERI5
 70
     0
  9
$USERR1
 40
0.0
  9
$USERR2
 40
0.0
  9
$USERR3
 40
0.0
  9
$USERR4
 40
0.0
  9
$USERR5
 40
0.0
  9
$WORLDVIEW
 70
     1
  9
$SHADEDGE
 70
     3
  9
$SHADEDIF
 70
    70
  9
$TILEMODE
 70
     1
  9
$MAXACTVP
 70
    64
  9
$PLIMCHECK
 70
     0
  9
$PEXTMIN
 10
1.0000000000000000E+020
 20
1.0000000000000000E+020
 30
1.0000000000000000E+020
  9
$PEXTMAX
 10
-1.0000000000000000E+020
 20
-1.0000000000000000E+020
 30
-1.0000000000000000E+020
  9
$PLIMMIN
 10
0.0
 20
0.0
  9
$PLIMMAX
 10
12.0
 20
9.0
  9
$UNITMODE
 70
     0
  9
$VISRETAIN
 70
     1
  9
$PLINEGEN
 70
     0
  9
$PSLTSCALE
 70
     1
  0
ENDSEC
  0
SECTION
  2
TABLES
  0
TABLE
  2
VPORT
 70
     1
  0
VPORT
  2
*ACTIVE
 70
     0
 10
0.0
 20
0.0
 11
1.0
 21
1.0
 12
-0.2891024558130191
 22
0.2851180617284363
 13
0.0
 23
0.0
 14
1.0
 24
1.0
 15
0.0
 25
0.0
 16
-0.000000000000008
 26
0.0
 36
35.27564418331702
 17
4.5291354656219482
 27
3.4107897907986562
 37
0.0
 40
12.599723959606139
 41
2.3378378378378368
 42
50.0
 43
0.0
 44
0.0
 50
0.0
 51
0.0
 71
     0
 72
   100
 73
     1
 74
     1
 75
     0
 76
     0
 77
     0
 78
     0
  0
ENDTAB
  0
TABLE
  2
LTYPE
 70
     2
  0
LTYPE
  2
CONTINUOUS
 70
     0
  3
Solid line
 72
    65
 73
     0
 40
0.0
  0
ENDTAB
  0
TABLE
  2
LAYER
 70
     2
  0
LAYER
  2
0
 70
     0
 62
     7
  6
CONTINUOUS
  0
LAYER
  2
DEFPOINTS
 70
     0
 62
     7
  6
CONTINUOUS
  0
ENDTAB
  0
TABLE
  2
STYLE
 70
     1
  0
STYLE
  2
STANDARD
 70
     0
 40
0.0
 41
0.8
 50
0.0
 71
     0
 42
0.2
  3
txt
  4

  0
ENDTAB
  0
TABLE
  2
VIEW
 70
     0
  0
ENDTAB
  0
TABLE
  2
UCS
 70
     0
  0
ENDTAB
  0
TABLE
  2
APPID
 70
     5
  0
APPID
  2
ACAD
 70
     0
  0
APPID
  2
ACAD_MLEADERVER
 70
     0
  0
APPID
  2
ACAD_NAV_VCDISPLAY
 70
     0
  0
APPID
  2
ACAD_EXEMPT_FROM_CAD_STANDARDS
 70
     0
  0
APPID
  2
AcDbAttr
 70
     0
  0
ENDTAB
  0
TABLE
  2
DIMSTYLE
 70
     2
  0
DIMSTYLE
  2
STANDARD
 70
     0
  3

  4

  5

  6

  7

 40
1.0
 41
0.1875
 42
0.0625
 43
0.38
 44
0.125
 45
0.0
 46
0.0
 47
0.01
 48
0.01
140
0.15625
141
0.09
142
0.0
143
25.399999999999999
144
1.0
145
0.0
146
1.0
147
0.09
 71
     1
 72
     0
 73
     1
 74
     1
 75
     0
 76
     0
 77
     0
 78
     4
170
     0
171
     2
172
     0
173
     0
174
     0
175
     0
176
     0
177
     0
178
     0
  0
ENDTAB
  0
ENDSEC
  0
SECTION
  2
BLOCKS
  0
BLOCK
  8
0
  2
$MODEL_SPACE
 70
     0
 10
0.0
 20
0.0
 30
0.0
  3
$MODEL_SPACE
  1

  0
ENDBLK
  5
21
  8
0
  0
BLOCK
 67
     1
  8
0
  2
$PAPER_SPACE
 70
     0
 10
0.0
 20
0.0
 30
0.0
  3
$PAPER_SPACE
  1

  0
ENDBLK
  5
1D
 67
     1
  8
0
  0
ENDSEC
  0
SECTION
  2
ENTITIES
  0
LINE
  5
214
  8
0
 10
2.592718073299999
 20
-1.9909665762999991
 30
0.0
 11
4.6005920891000001
 21
-1.9909665762999991
 31
0.0
  0
LINE
  5
216
  8
0
 10
4.5809055629999991
 20
-1.8334862613
 30
0.0
 11
2.6124094025999991
 21
-1.8334862613
 31
0.0
  0
LINE
  5
218
  8
0
 10
2.592718073299999
 20
-1.9909665762999991
 30
0.0
 11
2.592718073299999
 21
-1.853171300699999
 31
0.0
  0
LINE
  5
219
  8
0
 10
2.9076787031999989
 20
-1.8138012219999999
 30
0.0
 11
2.9076787031999989
 21
7.9814626054999991
 31
0.0
  0
LINE
  5
21A
  8
0
 10
2.9076787031999989
 20
8.0326755417999998
 30
0.0
 11
2.9076787031999989
 21
8.7880448777999991
 31
0.0
  0
LINE
  5
21D
  8
0
 10
3.1242141362999991
 20
8.2524762151999997
 30
0.0
 11
3.1242141362999991
 21
8.2385984415999989
 31
0.0
  0
LINE
  5
252
  8
0
 10
4.0690960261000004
 20
8.2524773234000008
 30
0.0
 11
4.0690960261000004
 21
8.2385984415999989
 31
0.0
  0
LINE
  5
256
  8
0
 10
4.2856314592000002
 20
8.7880448777999991
 30
0.0
 11
4.2856314592000002
 21
8.0326755417999998
 31
0.0
  0
LINE
  5
257
  8
0
 10
4.2856314592000002
 20
-1.8138012219999999
 30
0.0
 11
4.2856314592000002
 21
6.0190019319000001
 31
0.0
  0
LINE
  5
258
  8
0
 10
4.2856314592000002
 20
7.7943405061000002
 30
0.0
 11
4.2856314592000002
 21
7.981462295
 31
0.0
  0
LINE
  5
25A
  8
0
 10
4.6005920891000001
 20
-1.9909665762999991
 30
0.0
 11
4.6005920891000001
 21
-1.853171300699999
 31
0.0
  0
LINE
  5
25C
  8
0
 10
4.8958676795999994
 20
7.5661200378999993
 30
0.0
 11
4.8958676795999994
 21
6.2520528400000002
 31
0.0
  0
LINE
  5
25F
  8
0
 10
5.0482298844000004
 20
7.568088541799999
 30
0.0
 11
5.0482298843999986
 21
6.2452651988999994
 31
0.0
  0
LINE
  5
262
  8
0
 10
6.4655527189999988
 20
6.2688759434000003
 30
0.0
 11
6.4655527189999988
 21
7.5444664945999991
 31
0.0
  0
LINE
  5
277
  8
0
 10
6.4340566560000001
 20
6.2373798803999989
 30
0.0
 11
5.5757889394999998
 21
6.2373798803999989
 31
0.0
  0
LINE
  5
278
  8
0
 10
5.3080724039999989
 20
6.2373798803999989
 30
0.0
 11
5.0561039001000001
 21
6.2373798803999989
 31
0.0
  0
LINE
  5
279
  8
0
 10
4.8761826402999988
 20
6.2373798803999989
 30
0.0
 11
4.5021668921999991
 21
6.2373798803999989
 31
0.0
  0
LINE
  5
27A
  8
0
 10
4.908170342
 20
6.2520528400000002
 30
0.0
 11
4.8958676795999994
 21
6.2520528400000002
 31
0.0
  0
LINE
  5
290
  8
0
 10
4.8958676795999994
 20
7.5661200378999993
 30
0.0
 11
4.908170342
 21
7.5661200378999993
 31
0.0
  0
LINE
  5
291
  8
0
 10
6.4340566560000001
 20
7.5759625575999987
 30
0.0
 11
5.0561039001000001
 21
7.5759625575999987
 31
0.0
  0
LINE
  5
292
  8
0
 10
4.8761826402999988
 20
7.5759625575999987
 30
0.0
 11
4.5021668921999991
 21
7.5759625575999987
 31
0.0
  0
LINE
  5
2DC
  8
0
 10
3.0572850025
 20
8.3053744771000009
 30
0.0
 11
4.1360251598999991
 21
8.3053744771000009
 31
0.0
  0
ARC
  5
3BE
  8
0
 10
2.6124031127
 20
-1.853171300699999
 30
0.0
 40
0.0196850394
 50
90.0
 51
180.0
  0
ARC
  5
3BF
  8
0
 10
4.2659464197999997
 20
-1.8138012219999999
 30
0.0
 40
0.0196850394
 50
270.0
 51
360.0
  0
ARC
  5
3C0
  8
0
 10
2.927363742599999
 20
-1.8138012219999999
 30
0.0
 40
0.0196850394
 50
180.0
 51
270.0
  0
ARC
  5
3C8
  8
0
 10
3.3462227488999989
 20
8.3634246551999993
 30
0.0
 40
0.629863518
 50
343.76442763270001
 51
348.56107080980001
  0
ARC
  5
3C9
  8
0
 10
3.4301422323000001
 20
8.2087571959000005
 30
0.0
 40
0.1577713102
 50
187.78181707109999
 51
223.29508025120001
  0
ARC
  5
3DC
  8
0
 10
3.8470874135000002
 20
8.3634246551999993
 30
0.0
 40
0.629863518
 50
191.43892919020001
 51
196.23557236729999
  0
ARC
  5
3DD
  8
0
 10
3.7631678958999988
 20
8.2087572050999995
 30
0.0
 40
0.1577713433
 50
316.70492584739998
 51
352.21818132409999
  0
ARC
  5
3ED
  8
0
 10
4.7742242475518593
 20
6.7136806016593296
 30
0.0
 40
0.4806680211461063
 50
286.18063577923903
 51
304.7544518967394
  0
ARC
  5
3EE
  8
0
 10
4.659647207199999
 20
6.9066712189999988
 30
0.0
 40
0.7047244094
 50
56.536702610399999
 51
69.350333119599995
  0
ARC
  5
3F4
  8
0
 10
6.4340566560000001
 20
6.2688759434000003
 30
0.0
 40
0.031496063
 50
270.0
 51
360.0
  0
ARC
  5
3F5
  8
0
 10
4.5809070497000004
 20
-1.853171300699999
 30
0.0
 40
0.0196850394
 50
0.0
 51
90.0
  0
ARC
  5
3F6
  8
0
 10
4.8756490628348104
 20
6.2586367883250213
 30
0.0
 40
0.0212636036325964
 50
271.437900491753
 51
341.96278621693369
  0
ARC
  5
3FA
  8
0
 10
6.4340566560000001
 20
7.5444664945999991
 30
0.0
 40
0.031496063
 50
0.0
 51
90.0
  0
ARC
  5
3FB
  8
0
 10
4.8761826402999988
 20
7.5562775181999999
 30
0.0
 40
0.0196850394
 50
0.0
 51
90.0
  0
ARC
  5
3FC
  8
0
 10
5.0561039001000001
 20
7.568088541799999
 30
0.0
 40
0.0078740157
 50
90.0
 51
180.0
  0
ARC
  5
61E
  8
0
 10
5.4419306717585858
 20
5.5896203058772702
 30
0.0
 40
0.6614457666685504
 50
78.324283881405023
 51
101.6757161200195
  0
ARC
  5
61F
  8
0
 10
2.9363034982986229
 20
7.9769806167331314
 30
0.0
 40
0.0289735589416373
 50
84.312676586620427
 51
171.10104430228611
  0
ARC
  5
620
  8
0
 10
4.2569094951207669
 20
7.9768570305919768
 30
0.0
 40
0.0290888239851067
 50
9.1092404430771996
 51
95.472413675627621
  0
ARC
  5
621
  8
0
 10
3.596682584410372
 20
-3.5376068423112401
 30
0.0
 40
11.56212749414401
 50
86.740253845356776
 51
93.260019179115929
  0
ARC
  5
622
  8
0
 10
2.9385643443258012
 20
8.0323020980278415
 30
0.0
 40
0.0308878986917382
 50
179.30726107044489
 51
246.058987578765
  0
ARC
  5
623
  8
0
 10
4.2527126681199903
 20
8.0328208541625976
 30
0.0
 40
0.0329191118022958
 50
297.8422346857032
 51
359.74708272274518
  0
ARC
  5
624
  8
0
 10
2.9400577561713122
 20
8.7877537310346288
 30
0.0
 40
0.0323803619115834
 50
97.296013742500136
 51
179.48482099174589
  0
ARC
  5
625
  8
0
 10
3.593902967571966
 20
-48.27387956500796
 30
0.0
 40
57.097542559534197
 50
89.333905540309004
 51
90.660256349978297
  0
ARC
  5
626
  8
0
 10
4.2536077574067672
 20
8.7880405791949663
 30
0.0
 40
0.0320237020816859
 50
0.0076902104595522
 51
82.698148147789695
  0
ARC
  5
627
  8
0
 10
3.029884390194387
 20
6.9932664052759996
 30
0.0
 40
1.312394142664626
 50
88.803672258231231
 51
95.342928680160725
  0
ARC
  5
628
  8
0
 10
4.1604448948321062
 20
6.9109256434267188
 30
0.0
 40
1.394662637768334
 50
84.850131882754937
 51
91.003267178853136
  0
ARC
  5
629
  8
0
 10
2.9391656487369362
 20
8.3001640312998521
 30
0.0
 40
0.0314876165198668
 50
180.3740453413651
 51
270.0165904002406
  0
ARC
  5
62A
  8
0
 10
4.25414451366305
 20
8.3001640312998841
 30
0.0
 40
0.0314876165199008
 50
269.98340959978282
 51
359.62595465857072
  0
ARC
  5
634
  8
0
 10
3.030692974105067
 20
7.3401720592793378
 30
0.0
 40
0.9330053776129335
 50
88.366764664063396
 51
95.629809817805807
  0
ARC
  5
635
  8
0
 10
3.5966550811995481
 20
-122.7970207752346
 30
0.0
 40
131.07092896494191
 50
89.76422142903462
 51
90.23577857096501
  0
ARC
  5
636
  8
0
 10
4.1626136201947741
 20
7.3402971984435093
 30
0.0
 40
0.9328801875903755
 50
84.369845022737834
 51
91.633235335936519
  0
ARC
  5
637
  8
0
 10
3.484918787335872
 20
4.1016647291017883
 30
0.0
 40
4.1664545885445268
 50
88.682732336209909
 51
94.966514679548666
  0
ARC
  5
638
  8
0
 10
4.0689149812206642
 20
29.498645510427341
 30
0.0
 40
21.23723971684128
 50
268.68273233620988
 51
269.6635907505825
  0
ARC
  5
639
  8
0
 10
3.9388455744801432
 20
7.3460369701216477
 30
0.0
 40
0.9157506725078398
 50
81.822888262005449
 51
89.663590750582486
  0
ARC
  5
63B
  8
0
 10
4.0678784161111841
 20
8.2440037187814248
 30
0.0
 40
0.0085606395390075
 50
63.340016101915168
 51
81.822888262004085
  0
ARC
  5
63C
  8
0
 10
4.0703244229283673
 20
8.2488755355218775
 30
0.0
 40
0.0031092591906681
 50
29.408200138334241
 51
63.340016101922572
  0
ARC
  5
63D
  8
0
 10
4.0716232647537511
 20
8.2507324764102492
 30
0.0
 40
0.0014479245384179
 50
289.43578442110748
 51
346.81742049241018
  0
ARC
  5
63E
  8
0
 10
4.061934842721544
 20
8.2706531648634911
 30
0.0
 40
0.0235909207201274
 50
287.67135598137838
 51
295.53785547367528
  0
ARC
  5
63F
  8
0
 10
3.1279985074820278
 20
8.2626873473683773
 30
0.0
 40
0.0149407919073234
 50
242.01582548524539
 51
255.32764542863509
  0
ARC
  5
640
  8
0
 10
3.12165368260069
 20
8.2507465119123164
 30
0.0
 40
0.0014189446162333
 50
194.04028469333809
 51
242.0158254852216
  0
ARC
  5
641
  8
0
 10
3.1214342864621649
 20
8.2501998241554624
 30
0.0
 40
0.0011747336641902
 50
118.6973397279793
 51
170.07647452960799
  0
ARC
  5
642
  8
0
 10
3.1260264175200918
 20
8.2425020664249793
 30
0.0
 40
0.0101374556475944
 50
100.2981715125776
 51
120.5726430686918
  0
ARC
  5
644
  8
0
 10
3.1257747122786008
 20
8.2382303346667154
 30
0.0
 40
0.0016034026628763
 50
100.3606692540159
 51
166.72773674915311
  0
ARC
  5
645
  8
0
 10
3.1701693251417651
 20
8.0564694816275662
 30
0.0
 40
0.1887046150698885
 50
93.023010048633225
 51
103.6970385681059
  0
ARC
  5
646
  8
0
 10
3.603153097918999
 20
-1.3812782898588241
 30
0.0
 40
9.6363749283096798
 50
87.558732665973096
 51
92.634525871654446
  0
ARC
  5
647
  8
0
 10
4.0724789733130251
 20
8.7911846843293695
 30
0.0
 40
0.548004320162117
 50
263.83387917490478
 51
266.9830039857469
  0
ARC
  5
648
  8
0
 10
4.0376647163321806
 20
8.1306382140960523
 30
0.0
 40
0.1134589606228582
 50
75.818841945792656
 51
86.983003985747104
  0
ARC
  5
649
  8
0
 10
4.063505565002937
 20
8.2329016550345422
 30
0.0
 40
0.0079811866010057
 50
45.543050485382949
 51
75.818841945787639
  0
ARC
  5
64A
  8
0
 10
4.0637139617666689
 20
8.2435635846471982
 30
0.0
 40
0.0073220380326536
 50
275.02804042010342
 51
317.30391659106692
  0
ARC
  5
64B
  8
0
 10
4.019022030832736
 20
8.4716337939905113
 30
0.0
 40
0.2396901891692146
 50
274.21451111067631
 51
280.90227264197551
  0
ARC
  5
64C
  8
0
 10
3.8931934765412031
 20
10.010662254201049
 30
0.0
 40
1.7838471823279121
 50
272.1934536373173
 51
274.6122754105059
  0
ARC
  5
64D
  8
0
 10
3.314094788558354
 20
10.26960977607888
 30
0.0
 40
2.0431439898419641
 50
265.73811062476727
 51
267.69273189902049
  0
ARC
  5
64E
  8
0
 10
3.1879647910736719
 20
8.5770780028679781
 30
0.0
 40
0.3459190254975393
 50
260.28184254246281
 51
265.7381106247671
  0
ARC
  5
64F
  8
0
 10
3.1304854937749682
 20
8.2451362434923574
 30
0.0
 40
0.009059402748667
 50
226.19164255157321
 51
264.21952123984943
  0
ARC
  5
650
  8
0
 10
3.2967075086760311
 20
8.4981837128628221
 30
0.0
 40
0.3166646807831475
 50
260.97284656501898
 51
266.00762119301828
  0
ARC
  5
651
  8
0
 10
3.2494234512011531
 20
8.2005568890955161
 30
0.0
 40
0.0153052470215617
 50
246.66855820957059
 51
260.97284656501938
  0
ARC
  5
652
  8
0
 10
3.2443323235432979
 20
8.1887532570960033
 30
0.0
 40
0.0024504693413175
 50
215.7133681370465
 51
246.6685582095439
  0
ARC
  5
653
  8
0
 10
3.2436239832543481
 20
8.1871221752737675
 30
0.0
 40
0.0012969300225731
 50
102.03643721733469
 51
171.0991428293384
  0
ARC
  5
654
  8
0
 10
3.2677387487226901
 20
8.0983578364543334
 30
0.0
 40
0.0932766641535741
 50
94.570719153847165
 51
105.1548670672185
  0
ARC
  5
655
  8
0
 10
3.6039776372315671
 20
1.241426377083771
 30
0.0
 40
6.9584035561037743
 50
87.437305859525694
 51
92.830961537972286
  0
ARC
  5
656
  8
0
 10
3.889710822128988
 20
7.795814565277789
 30
0.0
 40
0.3978674905455665
 50
82.580877491783227
 51
86.3404924437977
  0
ARC
  5
657
  8
0
 10
3.9348292758310701
 20
8.1389581370797899
 30
0.0
 40
0.0517724848186827
 50
74.053609062760529
 51
83.058725214090103
  0
ARC
  5
658
  8
0
 10
3.9488162863794618
 20
8.186416103997006
 30
0.0
 40
0.0023343169936482
 50
22.857386771950178
 51
84.176513388190884
  0
ARC
  5
659
  8
0
 10
3.9491801722034992
 20
8.1884472228214982
 30
0.0
 40
0.0021114108734616
 50
285.1443491090011
 51
327.8237610976114
  0
ARC
  5
65A
  8
0
 10
3.9103746843406002
 20
8.3639496321604696
 30
0.0
 40
0.1818505088623317
 50
272.60859477111393
 51
282.49917503119917
  0
ARC
  5
65B
  8
0
 10
3.596654879346382
 20
3.5901940014677578
 30
0.0
 40
4.6085219817992131
 50
85.983096324714495
 51
94.016909587054926
  0
ARC
  5
65D
  8
0
 10
3.315577708960896
 20
8.1008825267987774
 30
0.0
 40
0.0004149065500422
 50
152.54295151228729
 51
230.07747642629829
  0
ARC
  5
65E
  8
0
 10
3.3174111478564301
 20
8.0989040641947856
 30
0.0
 40
0.0030911131609206
 50
103.5262390823799
 51
135.41731819641021
  0
ARC
  5
65F
  8
0
 10
3.316617752441037
 20
8.1019077181458616
 30
0.0
 40
0.0018737256868074
 50
225.7924945876351
 51
246.4655803810804
  0
ARC
  5
660
  8
0
 10
3.3633836223487821
 20
8.3482382569950282
 30
0.0
 40
0.2525581078954088
 50
259.15625944282311
 51
268.3460630441661
  0
ARC
  5
661
  8
0
 10
3.5904365559340641
 20
13.8862916523289
 30
0.0
 40
5.7952462761810093
 50
267.68249817094852
 51
272.64339595486962
  0
ARC
  5
662
  8
0
 10
3.8491112019268852
 20
8.2290598008077041
 30
0.0
 40
0.132128012137835
 50
273.7318330720264
 51
281.87160863164701
  0
ARC
  5
663
  8
0
 10
3.8751710165424971
 20
8.1043380847826523
 30
0.0
 40
0.0047155129899971
 50
283.75819176074782
 51
306.84801689179949
  0
ARC
  5
664
  8
0
 10
3.8777375010023039
 20
8.1008816295414245
 30
0.0
 40
0.0004108919824429
 50
309.50416314354692
 51
28.56465671668975
  0
ARC
  5
665
  8
0
 10
3.8548724900913229
 20
8.0266716980320378
 30
0.0
 40
0.0779471243091636
 50
72.664295205708584
 51
87.983621937482297
  0
ARC
  5
666
  8
0
 10
3.6111939059751088
 20
3.216153828061922
 30
0.0
 40
4.8946237362837159
 50
87.114208398270463
 51
93.449526472987557
  0
ARC
  5
667
  8
0
 10
3.5966551810653371
 20
3.025137036377664
 30
0.0
 40
5.2262670473223043
 50
85.974130373963803
 51
94.025869610202037
  0
ARC
  5
66F
  8
0
 10
5.372987209703207
 20
6.0398039557710979
 30
0.0
 40
1.0875547123476259
 50
175.3725300512354
 51
181.09598243355191
  0
ARC
  5
670
  8
0
 10
4.448033888168843
 20
6.1146702815934484
 30
0.0
 40
0.1595764724305512
 50
149.2950532781222
 51
175.3725300512356
  0
ARC
  5
671
  8
0
 10
4.3886645923893548
 20
6.1321569975754908
 30
0.0
 40
0.1007664614647155
 50
92.899572837219566
 51
140.5733430265966
  0
ARC
  5
672
  8
0
 10
4.4787511690393877
 20
5.3069648506294076
 30
0.0
 40
0.930709634480134
 50
88.558343399949536
 51
95.869916062096038
  0
ARC
  5
673
  8
0
 10
5.1740681240194197
 20
7.7712399745757672
 30
0.0
 40
0.8887369363046397
 50
178.51056933949229
 51
186.48259038936101
  0
ARC
  5
674
  8
0
 10
4.3948505169978738
 20
7.6826991769891348
 30
0.0
 40
0.1045051134807624
 50
186.48259038936089
 51
243.0341325706367
  0
ARC
  5
675
  8
0
 10
4.4691055032551441
 20
8.0868249960575191
 30
0.0
 40
0.5119311344953808
 50
256.25402963611708
 51
273.70283652668661
  0
ARC
  5
676
  8
0
 10
5.055768921859916
 20
6.2449194061177717
 30
0.0
 40
0.0075469635264971
 50
177.3738569489262
 51
272.54395650469672
  0
ATTDEF
  5
6C8
  8
DEFPOINTS
 10
3.582266757212607
 20
-1.99708317627622
 30
0.0
 40
0.001
  1
K-73054-7
  3

  2
MODELNUMBER
 70
     0
1001
AcDbAttr
1070
     0
1070
     1
  0
ATTDEF
  5
6C9
  8
DEFPOINTS
 10
3.582266757212607
 20
-1.9987498429428849
 30
0.0
 40
0.001
  1
COMPOSED
  3

  2
TRADENAME
 70
     0
1001
AcDbAttr
1070
     0
1070
     1
  0
ATTDEF
  5
6CA
  8
DEFPOINTS
 10
3.582266757212607
 20
-2.0004165096095572
 30
0.0
 40
0.001
  1
BATHROOM SINK FAUCET
  3

  2
PRODUCT
 70
     0
1001
AcDbAttr
1070
     0
1070
     1
  0
ATTDEF
  5
6CB
  8
DEFPOINTS
 10
3.582266757212607
 20
-2.0020831762762219
 30
0.0
 40
0.001
  1
METAL
  3

  2
MATERIAL
 70
     0
1001
AcDbAttr
1070
     0
1070
     1
  0
ENDSEC
  0
EOF
