  0
SECTION
  2
HEADER
  9
$ACADVER
  1
AC1009
  9
$INSBASE
 10
7.4328324399322669
 20
10.8687950692250102
 30
0.0
  9
$EXTMIN
 10
6.3120422948990571
 20
9.8683319602491437
 30
-0.0015258207003583
  9
$EXTMAX
 10
8.5544739125232212
 20
10.8748016681927204
 30
0.0000000349246037
  9
$LIMMIN
 10
0.0
 20
0.0
  9
$LIMMAX
 10
22.0
 20
17.0
  9
$ORTHOMODE
 70
     0
  9
$REGENMODE
 70
     1
  9
$FILLMODE
 70
     1
  9
$QTEXTMODE
 70
     0
  9
$MIRRTEXT
 70
     0
  9
$DRAGMODE
 70
     2
  9
$LTSCALE
 40
1.2099999999999991
  9
$OSMODE
 70
  4095
  9
$ATTMODE
 70
     1
  9
$TEXTSIZE
 40
0.2
  9
$TRACEWID
 40
0.05
  9
$TEXTSTYLE
  7
STANDARD
  9
$CLAYER
  8
0
  9
$CELTYPE
  6
BYLAYER
  9
$CECOLOR
 62
   256
  9
$DIMSCALE
 40
1.0
  9
$DIMASZ
 40
0.1875
  9
$DIMEXO
 40
0.0625
  9
$DIMDLI
 40
0.8359999999999999
  9
$DIMRND
 40
0.0
  9
$DIMDLE
 40
0.0
  9
$DIMEXE
 40
0.125
  9
$DIMTP
 40
0.0
  9
$DIMTM
 40
0.0
  9
$DIMTXT
 40
0.15625
  9
$DIMCEN
 40
0.198
  9
$DIMTSZ
 40
0.0
  9
$DIMTOL
 70
     0
  9
$DIMLIM
 70
     0
  9
$DIMTIH
 70
     1
  9
$DIMTOH
 70
     1
  9
$DIMSE1
 70
     0
  9
$DIMSE2
 70
     0
  9
$DIMTAD
 70
     0
  9
$DIMZIN
 70
     0
  9
$DIMBLK
  1

  9
$DIMASO
 70
     1
  9
$DIMSHO
 70
     1
  9
$DIMPOST
  1

  9
$DIMAPOST
  1

  9
$DIMALT
 70
     0
  9
$DIMALTD
 70
     2
  9
$DIMALTF
 40
25.3999999999999986
  9
$DIMLFAC
 40
1.0
  9
$DIMTOFL
 70
     0
  9
$DIMTVP
 40
0.0
  9
$DIMTIX
 70
     0
  9
$DIMSOXD
 70
     0
  9
$DIMSAH
 70
     0
  9
$DIMBLK1
  1

  9
$DIMBLK2
  1

  9
$DIMSTYLE
  2
STANDARD
  9
$DIMCLRD
 70
     0
  9
$DIMCLRE
 70
     0
  9
$DIMCLRT
 70
     0
  9
$DIMTFAC
 40
1.0
  9
$DIMGAP
 40
0.09
  9
$LUNITS
 70
     2
  9
$LUPREC
 70
     4
  9
$SKETCHINC
 40
0.1
  9
$FILLETRAD
 40
0.0
  9
$AUNITS
 70
     0
  9
$AUPREC
 70
     0
  9
$MENU
  1
.
  9
$ELEVATION
 40
0.0
  9
$PELEVATION
 40
0.0
  9
$THICKNESS
 40
0.0
  9
$LIMCHECK
 70
     0
  9
$BLIPMODE
 70
     0
  9
$CHAMFERA
 40
0.0
  9
$CHAMFERB
 40
0.0
  9
$SKPOLY
 70
     0
  9
$TDCREATE
 40
2457346.4747916669584811
  9
$TDUPDATE
 40
2459636.7246874999254942
  9
$TDINDWG
 40
0.0390232639
  9
$TDUSRTIMER
 40
0.0390232639
  9
$USRTIMER
 70
     1
  9
$ANGBASE
 50
0.0
  9
$ANGDIR
 70
     0
  9
$PDMODE
 70
     0
  9
$PDSIZE
 40
0.3125
  9
$PLINEWID
 40
0.0
  9
$COORDS
 70
     1
  9
$SPLFRAME
 70
     0
  9
$SPLINETYPE
 70
     6
  9
$SPLINESEGS
 70
     8
  9
$ATTDIA
 70
     1
  9
$ATTREQ
 70
     1
  9
$HANDLING
 70
     1
  9
$HANDSEED
  5
769
  9
$SURFTAB1
 70
     6
  9
$SURFTAB2
 70
     6
  9
$SURFTYPE
 70
     6
  9
$SURFU
 70
     6
  9
$SURFV
 70
     6
  9
$UCSNAME
  2

  9
$UCSORG
 10
0.0
 20
0.0
 30
0.0
  9
$UCSXDIR
 10
1.0
 20
0.0
 30
0.0
  9
$UCSYDIR
 10
0.0
 20
1.0
 30
0.0
  9
$PUCSNAME
  2

  9
$PUCSORG
 10
0.0
 20
0.0
 30
0.0
  9
$PUCSXDIR
 10
1.0
 20
0.0
 30
0.0
  9
$PUCSYDIR
 10
0.0
 20
1.0
 30
0.0
  9
$USERI1
 70
     0
  9
$USERI2
 70
     0
  9
$USERI3
 70
     0
  9
$USERI4
 70
     0
  9
$USERI5
 70
     0
  9
$USERR1
 40
0.0
  9
$USERR2
 40
0.0
  9
$USERR3
 40
0.0
  9
$USERR4
 40
0.0
  9
$USERR5
 40
0.0
  9
$WORLDVIEW
 70
     1
  9
$SHADEDGE
 70
     3
  9
$SHADEDIF
 70
    70
  9
$TILEMODE
 70
     1
  9
$MAXACTVP
 70
    64
  9
$PLIMCHECK
 70
     0
  9
$PEXTMIN
 10
1.0000000000000000E+20
 20
1.0000000000000000E+20
 30
1.0000000000000000E+20
  9
$PEXTMAX
 10
-1.0000000000000000E+20
 20
-1.0000000000000000E+20
 30
-1.0000000000000000E+20
  9
$PLIMMIN
 10
0.0
 20
0.0
  9
$PLIMMAX
 10
12.0
 20
9.0
  9
$UNITMODE
 70
     0
  9
$VISRETAIN
 70
     1
  9
$PLINEGEN
 70
     0
  9
$PSLTSCALE
 70
     1
  0
ENDSEC
  0
SECTION
  2
TABLES
  0
TABLE
  2
VPORT
 70
     1
  0
VPORT
  2
*ACTIVE
 70
     0
 10
0.0
 20
0.0
 11
1.0
 21
1.0
 12
7.4332581037111387
 22
10.3715668142209303
 13
0.0
 23
0.0
 14
1.0
 24
1.0
 15
0.0
 25
0.0
 16
0.0
 26
0.0
 36
1.0
 17
0.0
 27
0.0
 37
0.0
 40
1.1029564052205449
 41
2.0410052910052912
 42
50.0
 43
0.0
 44
0.0
 50
0.0
 51
0.0
 71
     0
 72
   100
 73
     1
 74
     1
 75
     0
 76
     0
 77
     0
 78
     0
  0
ENDTAB
  0
TABLE
  2
LTYPE
 70
     1
  0
LTYPE
  2
CONTINUOUS
 70
     0
  3
Solid line
 72
    65
 73
     0
 40
0.0
  0
ENDTAB
  0
TABLE
  2
LAYER
 70
     2
  0
LAYER
  2
0
 70
     0
 62
     7
  6
CONTINUOUS
  0
LAYER
  2
DEFPOINTS
 70
     0
 62
     7
  6
CONTINUOUS
  0
ENDTAB
  0
TABLE
  2
STYLE
 70
     1
  0
STYLE
  2
STANDARD
 70
     0
 40
0.0
 41
0.8
 50
0.0
 71
     0
 42
0.2
  3
txt
  4

  0
ENDTAB
  0
TABLE
  2
VIEW
 70
     0
  0
ENDTAB
  0
TABLE
  2
UCS
 70
     0
  0
ENDTAB
  0
TABLE
  2
APPID
 70
     8
  0
APPID
  2
ACAD
 70
     0
  0
APPID
  2
ACAD_MLEADERVER
 70
     0
  0
APPID
  2
ACAD_NAV_VCDISPLAY
 70
     0
  0
APPID
  2
ACDBATTR
 70
     0
  0
APPID
  2
ACAD_EXEMPT_FROM_CAD_STANDARDS
 70
     0
  0
APPID
  2
ACADANNOTATIVE
 70
     0
  0
APPID
  2
ACAD_DSTYLE_DIMJAG
 70
     0
  0
APPID
  2
ACAD_DSTYLE_DIMTALN
 70
     0
  0
ENDTAB
  0
TABLE
  2
DIMSTYLE
 70
     1
  0
DIMSTYLE
  2
STANDARD
 70
     0
  3

  4

  5

  6

  7

 40
1.0
 41
0.1875
 42
0.0625
 43
0.38
 44
0.125
 45
0.0
 46
0.0
 47
1.5
 48
1.5
140
0.15625
141
0.09
142
0.0
143
25.3999999999999986
144
1.0
145
0.0
146
1.0
147
0.09
 71
     0
 72
     0
 73
     1
 74
     1
 75
     0
 76
     0
 77
     0
 78
     4
170
     0
171
     2
172
     0
173
     0
174
     0
175
     0
176
     0
177
     0
178
     0
  0
ENDTAB
  0
ENDSEC
  0
SECTION
  2
BLOCKS
  0
BLOCK
  8
0
  2
$MODEL_SPACE
 70
     0
 10
0.0
 20
0.0
 30
0.0
  3
$MODEL_SPACE
  1

  0
ENDBLK
  5
21
  8
0
  0
BLOCK
 67
     1
  8
0
  2
$PAPER_SPACE
 70
     0
 10
0.0
 20
0.0
 30
0.0
  3
$PAPER_SPACE
  1

  0
ENDBLK
  5
1D
 67
     1
  8
0
  0
ENDSEC
  0
SECTION
  2
ENTITIES
  0
ATTDEF
  5
374
  8
DEFPOINTS
 10
7.4293107126138187
 20
10.8728465402140202
 30
0.0
 40
0.001
  1
K-72799
  3

  2
MODELNUMBER
 70
     0
1001
ACDBATTR
1070
     0
1070
     1
  0
ATTDEF
  5
375
  8
DEFPOINTS
 10
7.4293107126138187
 20
10.8711798735473497
 30
0.0
 40
0.001
  1
ARTIFACTS
  3

  2
TRADENAME
 70
     0
1001
ACDBATTR
1070
     0
1070
     1
  0
ATTDEF
  5
376
  8
DEFPOINTS
 10
7.4293107126138187
 20
10.8695132068806792
 30
0.0
 40
0.001
  1
SLIDEBAR TRIM
  3

  2
PRODUCT
 70
     0
1001
ACDBATTR
1070
     0
1070
     1
  0
LINE
  5
6AD
  8
0
 10
6.3128324399322659
 20
10.8387950692250108
 30
0.0
 11
6.3128324399322659
 21
10.70879506922501
 31
0.0
  0
LINE
  5
6AE
  8
0
 10
6.6828324399322669
 20
10.3844771395250106
 30
0.0
 11
6.6828324399322669
 21
10.3551442544250101
 31
0.0
  0
LINE
  5
6AF
  8
0
 10
6.3428324399322671
 20
10.8687950692250102
 30
0.0
 11
8.5228324399322677
 21
10.8687950692250102
 31
0.0
  0
LINE
  5
6B0
  8
0
 10
6.3428324399322671
 20
10.6787950692250106
 30
0.0
 11
8.5228324399322677
 21
10.6787950692250106
 31
0.0
  0
LINE
  5
6B1
  8
0
 10
8.2062062038859693
 20
10.4137362064250105
 30
0.0
 11
6.6594586759785663
 21
10.4137362064250105
 31
0.0
  0
LINE
  5
6B2
  8
0
 10
6.7082196481517338
 20
10.3255010064250108
 30
0.0
 11
8.1574452317127975
 21
10.3255010064250108
 31
0.0
  0
LINE
  5
6B3
  8
0
 10
6.947514911575019
 20
9.9852503439250082
 30
0.0
 11
7.918149968214709
 21
9.9852503439250082
 31
0.0
  0
LINE
  5
6B4
  8
0
 10
7.8978324399322668
 20
9.8687950692250102
 30
0.0
 11
6.9678324399322671
 21
9.8687950692250102
 31
0.0
  0
LINE
  5
6B5
  8
0
 10
8.1828324399322678
 20
10.3844771395250106
 30
0.0
 11
8.1828324399322678
 21
10.3551442544250101
 31
0.0
  0
LINE
  5
6B6
  8
0
 10
8.5528324399322671
 20
10.8387950692250108
 30
0.0
 11
8.5528324399322671
 21
10.70879506922501
 31
0.0
  0
ARC
  5
6B7
  8
0
 10
8.5141220647322662
 20
10.6187950692250102
 30
0.0
 40
0.06
 50
90.0
 51
173.3101618533042938
  0
ARC
  5
6B8
  8
0
 10
7.8978324399322668
 20
9.9287950692250106
 30
0.0
 40
0.06
 50
270.0
 51
70.2058861817530726
  0
ARC
  5
6B9
  8
0
 10
6.9678324399322671
 20
9.9287950692250106
 30
0.0
 40
0.06
 50
109.7931525591998962
 51
270.0
  0
ARC
  5
6BA
  8
0
 10
6.3515428151322668
 20
10.6187950692250102
 30
0.0
 40
0.06
 50
6.6898381466038197
 51
90.0
  0
ARC
  5
6BB
  8
0
 10
7.9283087325322672
 20
10.0134779812250105
 30
0.0
 40
0.03
 50
179.9999999997623945
 51
250.2087698443129113
  0
ARC
  5
6BC
  8
0
 10
8.1528324399322667
 20
10.3551442544250101
 30
0.0
 40
0.03
 50
273.4982915768264888
 51
0.0
  0
ARC
  5
6BD
  8
0
 10
8.2128324399322672
 20
10.3844771395250106
 30
0.0
 40
0.03
 50
98.909671762282585
 51
180.0
  0
ARC
  5
6BE
  8
0
 10
6.6528324399322658
 20
10.3844771395250106
 30
0.0
 40
0.03
 50
0.0
 51
77.239596183793509
  0
ARC
  5
6BF
  8
0
 10
6.7128324399322672
 20
10.3551442544250101
 30
0.0
 40
0.03
 50
180.0
 51
261.1551281147998793
  0
ARC
  5
6C0
  8
0
 10
6.9373561473322676
 20
10.0134779812250105
 30
0.0
 40
0.03
 50
289.7931525591999957
 51
0.0000000039973211
  0
ARC
  5
6C1
  8
0
 10
6.3428324399322671
 20
10.70879506922501
 30
0.0
 40
0.03
 50
180.0
 51
270.0
  0
ARC
  5
6C2
  8
0
 10
6.3428324399322671
 20
10.8387950692250108
 30
0.0
 40
0.03
 50
90.0
 51
180.0
  0
ARC
  5
6C3
  8
0
 10
8.5228324399322677
 20
10.8387950692250108
 30
0.0
 40
0.03
 50
0.0
 51
90.0
  0
ARC
  5
6C4
  8
0
 10
8.5228324399322677
 20
10.70879506922501
 30
0.0
 40
0.03
 50
270.0
 51
0.0
  0
ARC
  5
6C5
  8
0
 10
8.2421647829008045
 20
10.65492928414319
 30
0.0
 40
0.21435633452944
 50
307.1196776509063966
 51
352.1856883063480268
  0
ARC
  5
6C6
  8
0
 10
8.1281344319185447
 20
10.8270092151408708
 30
0.0
 40
0.4205826688193305
 50
280.9723476933996267
 51
305.3590463393629761
  0
ARC
  5
6C7
  8
0
 10
8.1873705690420326
 20
10.0357399420808697
 30
0.0
 40
0.2913022489268962
 50
96.4467938805213265
 51
143.5941654963760925
  0
ARC
  5
6C8
  8
0
 10
8.2665161888550855
 20
10.0156529624833599
 30
0.0
 40
0.3682138800143115
 50
148.393381245497693
 51
180.3384390922155944
  0
ARC
  5
6C9
  8
0
 10
6.6235000969637268
 20
10.6549292841432006
 30
0.0
 40
0.21435633452944
 50
187.8143116936809065
 51
240.0580529926656084
  0
ARC
  5
6CA
  8
0
 10
6.7375304479459901
 20
10.8270092151408797
 30
0.0
 40
0.4205826688193305
 50
238.2974216811203121
 51
259.3022721143304921
  0
ARC
  5
6CB
  8
0
 10
6.6782943108224897
 20
10.0357399420808893
 30
0.0
 40
0.2913022489268962
 50
36.4058345036279718
 51
84.1036304184865458
  0
ARC
  5
6CC
  8
0
 10
6.5991486910094368
 20
10.0156529624833706
 30
0.0
 40
0.3682138800143115
 50
359.6615609080885747
 51
31.6066187545015715
  0
ENDSEC
  0
EOF
