  0
SECTION
  2
HEADER
  9
$ACADVER
  1
AC1009
  9
$INSBASE
 10
426.6238136385317148
 20
86.206383384448273
 30
0.0
  9
$EXTMIN
 10
420.8257470406833818
 20
70.8695154816761601
 30
-0.0000000000000058
  9
$EXTMAX
 10
426.6521939971351003
 20
101.5412118582717937
 30
0.0000000000000104
  9
$LIMMIN
 10
0.0
 20
0.0
  9
$LIMMAX
 10
11.6929133858000007
 20
8.2677165353999982
  9
$ORTHOMODE
 70
     0
  9
$REGENMODE
 70
     1
  9
$FILLMODE
 70
     1
  9
$QTEXTMODE
 70
     0
  9
$MIRRTEXT
 70
     0
  9
$DRAGMODE
 70
     2
  9
$LTSCALE
 40
0.6431102362
  9
$OSMODE
 70
  4095
  9
$ATTMODE
 70
     1
  9
$TEXTSIZE
 40
0.2
  9
$TRACEWID
 40
0.05
  9
$TEXTSTYLE
  7
STANDARD
  9
$CLAYER
  8
0
  9
$CELTYPE
  6
BYLAYER
  9
$CECOLOR
 62
   256
  9
$DIMSCALE
 40
1.0
  9
$DIMASZ
 40
0.1875
  9
$DIMEXO
 40
0.0625
  9
$DIMDLI
 40
0.4443307087
  9
$DIMRND
 40
0.0
  9
$DIMDLE
 40
0.0
  9
$DIMEXE
 40
0.125
  9
$DIMTP
 40
0.01
  9
$DIMTM
 40
0.01
  9
$DIMTXT
 40
1.0
  9
$DIMCEN
 40
0.1052362205
  9
$DIMTSZ
 40
0.0
  9
$DIMTOL
 70
     1
  9
$DIMLIM
 70
     0
  9
$DIMTIH
 70
     0
  9
$DIMTOH
 70
     1
  9
$DIMSE1
 70
     0
  9
$DIMSE2
 70
     0
  9
$DIMTAD
 70
     0
  9
$DIMZIN
 70
     0
  9
$DIMBLK
  1

  9
$DIMASO
 70
     1
  9
$DIMSHO
 70
     1
  9
$DIMPOST
  1
\X
  9
$DIMAPOST
  1

  9
$DIMALT
 70
     1
  9
$DIMALTD
 70
     2
  9
$DIMALTF
 40
25.3999999999999986
  9
$DIMLFAC
 40
1.0
  9
$DIMTOFL
 70
     0
  9
$DIMTVP
 40
0.0
  9
$DIMTIX
 70
     0
  9
$DIMSOXD
 70
     0
  9
$DIMSAH
 70
     0
  9
$DIMBLK1
  1

  9
$DIMBLK2
  1

  9
$DIMSTYLE
  2
STANDARD
  9
$DIMCLRD
 70
     0
  9
$DIMCLRE
 70
     0
  9
$DIMCLRT
 70
     0
  9
$DIMTFAC
 40
1.0
  9
$DIMGAP
 40
0.09
  9
$LUNITS
 70
     2
  9
$LUPREC
 70
     4
  9
$SKETCHINC
 40
0.1
  9
$FILLETRAD
 40
0.0
  9
$AUNITS
 70
     0
  9
$AUPREC
 70
     0
  9
$MENU
  1
.
  9
$ELEVATION
 40
0.0
  9
$PELEVATION
 40
0.0
  9
$THICKNESS
 40
0.0
  9
$LIMCHECK
 70
     0
  9
$BLIPMODE
 70
     0
  9
$CHAMFERA
 40
0.0
  9
$CHAMFERB
 40
0.0
  9
$SKPOLY
 70
     0
  9
$TDCREATE
 40
2458172.5207638889551163
  9
$TDUPDATE
 40
2459594.5912615740671754
  9
$TDINDWG
 40
0.2868259028
  9
$TDUSRTIMER
 40
0.2868259028
  9
$USRTIMER
 70
     1
  9
$ANGBASE
 50
0.0
  9
$ANGDIR
 70
     0
  9
$PDMODE
 70
     0
  9
$PDSIZE
 40
0.3125
  9
$PLINEWID
 40
0.0
  9
$COORDS
 70
     1
  9
$SPLFRAME
 70
     0
  9
$SPLINETYPE
 70
     6
  9
$SPLINESEGS
 70
     8
  9
$ATTDIA
 70
     1
  9
$ATTREQ
 70
     1
  9
$HANDLING
 70
     1
  9
$HANDSEED
  5
10D26
  9
$SURFTAB1
 70
     6
  9
$SURFTAB2
 70
     6
  9
$SURFTYPE
 70
     6
  9
$SURFU
 70
     6
  9
$SURFV
 70
     6
  9
$UCSNAME
  2

  9
$UCSORG
 10
0.0
 20
0.0
 30
0.0
  9
$UCSXDIR
 10
1.0
 20
0.0
 30
0.0
  9
$UCSYDIR
 10
0.0
 20
1.0
 30
0.0
  9
$PUCSNAME
  2

  9
$PUCSORG
 10
0.0
 20
0.0
 30
0.0
  9
$PUCSXDIR
 10
1.0
 20
0.0
 30
0.0
  9
$PUCSYDIR
 10
0.0
 20
1.0
 30
0.0
  9
$USERI1
 70
     0
  9
$USERI2
 70
     0
  9
$USERI3
 70
     0
  9
$USERI4
 70
     0
  9
$USERI5
 70
     0
  9
$USERR1
 40
0.0
  9
$USERR2
 40
0.0
  9
$USERR3
 40
0.0
  9
$USERR4
 40
0.0
  9
$USERR5
 40
0.0
  9
$WORLDVIEW
 70
     1
  9
$SHADEDGE
 70
     3
  9
$SHADEDIF
 70
    70
  9
$TILEMODE
 70
     1
  9
$MAXACTVP
 70
    64
  9
$PLIMCHECK
 70
     0
  9
$PEXTMIN
 10
1.0000000000000000E+20
 20
1.0000000000000000E+20
 30
1.0000000000000000E+20
  9
$PEXTMAX
 10
-1.0000000000000000E+20
 20
-1.0000000000000000E+20
 30
-1.0000000000000000E+20
  9
$PLIMMIN
 10
0.0
 20
0.0
  9
$PLIMMAX
 10
12.0
 20
9.0
  9
$UNITMODE
 70
     0
  9
$VISRETAIN
 70
     1
  9
$PLINEGEN
 70
     0
  9
$PSLTSCALE
 70
     1
  0
ENDSEC
  0
SECTION
  2
TABLES
  0
TABLE
  2
VPORT
 70
     1
  0
VPORT
  2
*ACTIVE
 70
     0
 10
0.0
 20
0.0
 11
1.0
 21
1.0
 12
-5.8903185891445018
 22
16.5028221577553289
 13
0.0
 23
0.0
 14
1.0
 24
1.0
 15
0.0
 25
0.0
 16
0.0
 26
0.0
 36
14.6338572656650907
 17
429.6292891080536833
 27
69.7025415122186871
 37
0.0
 40
30.9148009713903988
 41
1.67063492063492
 42
50.0
 43
0.0
 44
0.0
 50
0.0
 51
0.0
 71
     0
 72
   100
 73
     1
 74
     1
 75
     0
 76
     0
 77
     0
 78
     0
  0
ENDTAB
  0
TABLE
  2
LTYPE
 70
     2
  0
LTYPE
  2
CONTINUOUS
 70
     0
  3
Solid line
 72
    65
 73
     0
 40
0.0
  0
LTYPE
  2
PHANTOM2
 70
     0
  3
___ _ _ ___ _ _ ___ _ _ ___ _ _
 72
    65
 73
     6
 40
1.25
 49
0.625
 49
-0.125
 49
0.125
 49
-0.125
 49
0.125
 49
-0.125
  0
ENDTAB
  0
TABLE
  2
LAYER
 70
     2
  0
LAYER
  2
0
 70
     0
 62
   255
  6
CONTINUOUS
  0
LAYER
  2
DEFPOINTS
 70
     0
 62
     7
  6
CONTINUOUS
  0
ENDTAB
  0
TABLE
  2
STYLE
 70
     1
  0
STYLE
  2
STANDARD
 70
     0
 40
0.0
 41
0.8
 50
0.0
 71
     0
 42
0.2
  3
txt
  4

  0
ENDTAB
  0
TABLE
  2
VIEW
 70
     0
  0
ENDTAB
  0
TABLE
  2
UCS
 70
     0
  0
ENDTAB
  0
TABLE
  2
APPID
 70
    10
  0
APPID
  2
ACAD
 70
     0
  0
APPID
  2
ACAD_MLEADERVER
 70
     0
  0
APPID
  2
ACAD_EXEMPT_FROM_CAD_STANDARDS
 70
     0
  0
APPID
  2
ACAD_DSTYLE_DIMJAG
 70
     0
  0
APPID
  2
ACAD_DSTYLE_DIMTALN
 70
     0
  0
APPID
  2
ACAD_NAV_VCDISPLAY
 70
     0
  0
APPID
  2
ACAECLAYERSTANDARD
 70
     0
  0
APPID
  2
ACCMTRANSPARENCY
 70
     0
  0
APPID
  2
DCO15
 70
     0
  0
APPID
  2
ACDBATTR
 70
     0
  0
ENDTAB
  0
TABLE
  2
DIMSTYLE
 70
     1
  0
DIMSTYLE
  2
STANDARD
 70
     0
  3

  4

  5

  6

  7

 40
1.0
 41
0.1875
 42
0.0625
 43
0.38
 44
0.125
 45
0.0
 46
0.0
 47
0.01
 48
0.01
140
0.15625
141
0.09
142
0.0
143
25.3999999999999986
144
1.0
145
0.0
146
1.0
147
0.09
 71
     1
 72
     0
 73
     1
 74
     1
 75
     0
 76
     0
 77
     0
 78
     4
170
     0
171
     2
172
     0
173
     0
174
     0
175
     0
176
     0
177
     0
178
     0
  0
ENDTAB
  0
ENDSEC
  0
SECTION
  2
BLOCKS
  0
BLOCK
  8
0
  2
$MODEL_SPACE
 70
     0
 10
0.0
 20
0.0
 30
0.0
  3
$MODEL_SPACE
  1

  0
ENDBLK
  5
21
  8
0
  0
BLOCK
 67
     1
  8
0
  2
$PAPER_SPACE
 70
     0
 10
0.0
 20
0.0
 30
0.0
  3
$PAPER_SPACE
  1

  0
ENDBLK
  5
1D
 67
     1
  8
0
  0
ENDSEC
  0
SECTION
  2
ENTITIES
  0
ATTDEF
  5
100F7
  8
DEFPOINTS
 10
426.6198596327668042
 20
86.2102803582992152
 30
0.0
 40
0.001
  1
K-72798
  3

  2
MODELNUMBER
 70
     0
1001
ACDBATTR
1070
     0
1070
     1
  0
ATTDEF
  5
100F8
  8
DEFPOINTS
 10
426.6198596327668042
 20
86.2086136916325358
 30
0.0
 40
0.001
  1
ARTIFACTS
  3

  2
TRADENAME
 70
     0
1001
ACDBATTR
1070
     0
1070
     1
  0
ATTDEF
  5
100F9
  8
DEFPOINTS
 10
426.6198596327668042
 20
86.2069470249658707
 30
0.0
 40
0.001
  1
SLIDEBAR
  3

  2
PRODUCT
 70
     0
1001
ACDBATTR
1070
     0
1070
     1
  0
LINE
  5
10B6F
  8
0
 10
424.2552604056313044
 20
70.872383384448284
 30
0.0
 11
423.7523668684311815
 21
70.872383384448284
 31
0.0
  0
LINE
  5
10B70
  8
0
 10
423.5313653024313112
 20
71.2063833844482872
 30
0.0
 11
423.5314284341312145
 21
71.2063833844482872
 31
0.0
  0
LINE
  5
10B71
  8
0
 10
423.5313653024313112
 20
71.2063833844482872
 30
0.0
 11
424.4762653024312158
 21
71.2063833844482872
 31
0.0
  0
LINE
  5
10B72
  8
0
 10
424.4937733409312841
 20
71.8063833844482815
 30
0.0
 11
425.6238136385312032
 21
71.8063833844482815
 31
0.0
  0
LINE
  5
10B73
  8
0
 10
424.4937525099841764
 20
72.6063622496090346
 30
0.0
 11
425.6238136385313169
 21
72.60637437290805
 31
0.0
  0
LINE
  5
10B74
  8
0
 10
423.2376521920289179
 20
91.7432446954482828
 30
0.0
 11
423.237580005728887
 21
91.7433375520482741
 31
0.0
  0
LINE
  5
10B75
  8
0
 10
424.6038153024289272
 20
91.2363833844482883
 30
0.0
 11
424.6038153024289272
 21
91.3332213995482647
 31
0.0
  0
LINE
  5
10B76
  8
0
 10
424.6038153024289272
 20
92.9705453693482866
 30
0.0
 11
424.6038153024289272
 21
93.0663833844482724
 31
0.0
  0
LINE
  5
10B77
  8
0
 10
424.4762653024312158
 20
101.2063833844483014
 30
0.0
 11
424.4762653024312158
 21
100.5963866867337941
 31
0.0
  0
LINE
  5
10B78
  8
0
 10
424.4762437065298855
 20
99.8164216911824269
 30
0.0
 11
424.4762613594749041
 21
93.0963833844482735
 31
0.0
  0
LINE
  5
10B79
  8
0
 10
424.4762653023768166
 20
91.2063833844482872
 30
0.0
 11
424.4762653024312158
 21
72.5963866867338368
 31
0.0
  0
LINE
  5
10B7A
  8
0
 10
424.4759700911179721
 20
71.8167773689868909
 30
0.0
 11
424.4762653024312158
 21
71.2063833844482872
 31
0.0
  0
LINE
  5
10B7B
  8
0
 10
424.4268153024312937
 20
71.0563833844482815
 30
0.0
 11
424.4268153024312937
 21
71.0058443214482651
 31
0.0
  0
LINE
  5
10B7C
  8
0
 10
424.4268153024312937
 20
101.3563833844483071
 30
0.0
 11
424.4268153024312937
 21
101.4069224474482951
 31
0.0
  0
LINE
  5
10B7D
  8
0
 10
423.5808153024311764
 20
71.0563833844482815
 30
0.0
 11
423.5808153024311764
 21
71.0058443214482651
 31
0.0
  0
LINE
  5
10B7E
  8
0
 10
423.5808153024311764
 20
101.3563833844483071
 30
0.0
 11
423.5808153024311764
 21
101.4069224474482951
 31
0.0
  0
LINE
  5
10B7F
  8
0
 10
423.5313653024313112
 20
101.2063833844483014
 30
0.0
 11
423.5313653023890197
 21
93.0963833844482735
 31
0.0
  0
LINE
  5
10B80
  8
0
 10
423.5313653023770826
 20
91.2063833844482872
 30
0.0
 11
423.5313653024313112
 21
71.2063833844482872
 31
0.0
  0
LINE
  5
10B81
  8
0
 10
423.4038153024288818
 20
91.2363833844482883
 30
0.0
 11
423.4038153024288818
 21
91.3332213995482647
 31
0.0
  0
LINE
  5
10B82
  8
0
 10
423.4038153024288818
 20
92.9705453693482866
 30
0.0
 11
423.4038153024288818
 21
93.0663833844482724
 31
0.0
  0
LINE
  5
10B83
  8
0
 10
423.4338153024289113
 20
91.2063833844482872
 30
0.0
 11
424.5738149347288868
 21
91.2063833844482872
 31
0.0
  0
LINE
  5
10B84
  8
0
 10
424.6225653024288818
 20
91.3610321439482647
 30
0.0
 11
423.3850653024289272
 21
91.3610321439482647
 31
0.0
  0
LINE
  5
10B85
  8
0
 10
424.6225653024288818
 20
92.9427346249482866
 30
0.0
 11
423.3850653024289272
 21
92.9427346249482866
 31
0.0
  0
LINE
  5
10B86
  8
0
 10
423.4338153024289113
 20
93.0963833844482735
 30
0.0
 11
424.5738153024288977
 21
93.0963833844482735
 31
0.0
  0
LINE
  5
10B87
  8
0
 10
424.4937733409312841
 20
99.8063833844482815
 30
0.0
 11
425.6238136385312032
 21
99.8063833844482815
 31
0.0
  0
LINE
  5
10B88
  8
0
 10
424.4937682691312943
 20
100.6063833844483071
 30
0.0
 11
425.6238136385312032
 21
100.6063833844481934
 31
0.0
  0
LINE
  5
10B89
  8
0
 10
424.4762653024312158
 20
101.2063833844483014
 30
0.0
 11
424.4762021706312112
 21
101.2063833844483014
 31
0.0
  0
LINE
  5
10B8A
  8
0
 10
423.5314284341312145
 20
101.2063833844483014
 30
0.0
 11
423.5313653024313112
 21
101.2063833844483014
 31
0.0
  0
LINE
  5
10B8B
  8
0
 10
423.5314284341312145
 20
101.2063833844483014
 30
0.0
 11
424.4762021706312112
 21
101.2063833844483014
 31
0.0
  0
LINE
  5
10B8C
  8
0
 10
424.4728153024311723
 20
101.3263833844483059
 30
0.0
 11
423.5348153024312978
 21
101.3263833844483059
 31
0.0
  0
LINE
  5
10B8D
  8
0
 10
423.6087721321312074
 20
101.436852790848306
 30
0.0
 11
424.3988584726312183
 21
101.436852790848306
 31
0.0
  0
LINE
  5
10B8E
  8
0
 10
423.7523701991311782
 20
101.5403833844483046
 30
0.0
 11
424.2552604056313044
 21
101.5403833844483046
 31
0.0
  0
ARC
  5
10B8F
  8
0
 10
424.4727642406551809
 20
71.1464344462243332
 30
0.0
 40
0.0600510834851255
 50
270.0487189313795966
 51
86.657681002133657
  0
ARC
  5
10B90
  8
0
 10
424.4568153024312096
 20
71.0563833844482815
 30
0.0
 40
0.03
 50
90.0
 51
180.0
  0
ARC
  5
10B91
  8
0
 10
424.2552637363313011
 20
70.9023833844482851
 30
0.0
 40
0.03
 50
270.0
 51
346.6507122847996243
  0
ARC
  5
10B92
  8
0
 10
424.3968153024312073
 20
71.0058443214482651
 30
0.0
 40
0.03
 50
273.9051906323992966
 51
0.0
  0
ARC
  5
10B93
  8
0
 10
424.4727661189643868
 20
101.2663342009814045
 30
0.0
 40
0.0600492036087849
 50
273.2802907952487885
 51
89.9530717275503093
  0
ARC
  5
10B94
  8
0
 10
424.6038153024289272
 20
92.8963833844482849
 30
0.0
 40
0.05
 50
298.0158152443013932
 51
67.9756871627997867
  0
ARC
  5
10B95
  8
0
 10
424.6038153024289272
 20
91.4073833844482806
 30
0.0
 40
0.05
 50
292.0243128370983072
 51
61.9841847559014312
  0
ARC
  5
10B96
  8
0
 10
424.4568153024312096
 20
101.3563833844483071
 30
0.0
 40
0.03
 50
180.0
 51
270.0
  0
ARC
  5
10B97
  8
0
 10
424.2552637359484038
 20
101.5103833842042036
 30
0.0
 40
0.0300000004288842
 50
13.3492879998354397
 51
90.0063604370956654
  0
ARC
  5
10B98
  8
0
 10
424.3968153024312073
 20
101.4069224474482951
 30
0.0
 40
0.03
 50
0.0
 51
86.0948093676007744
  0
ARC
  5
10B99
  8
0
 10
424.5738153024288977
 20
93.0663833844482724
 30
0.0
 40
0.03
 50
0.0
 51
90.0
  0
ARC
  5
10B9A
  8
0
 10
424.6338153024287863
 20
92.9705453693482866
 30
0.0
 40
0.03
 50
180.0
 51
247.9756871629998898
  0
ARC
  5
10B9B
  8
0
 10
424.6413925234289195
 20
92.8257579466482667
 30
0.0
 40
0.03
 50
118.0158152441979951
 51
196.4526339768999037
  0
ARC
  5
10B9C
  8
0
 10
424.6413925234289195
 20
91.4780088222482846
 30
0.0
 40
0.03
 50
163.5473660231000963
 51
241.9841847557983954
  0
ARC
  5
10B9D
  8
0
 10
424.6338153024287863
 20
91.3332213995482647
 30
0.0
 40
0.03
 50
112.0243128369999965
 51
180.0
  0
ARC
  5
10B9E
  8
0
 10
424.5738153024288977
 20
91.2363833844482883
 30
0.0
 40
0.03
 50
270.0
 51
0.0
  0
ARC
  5
10B9F
  8
0
 10
423.5348663642072893
 20
71.1464344462243332
 30
0.0
 40
0.0600510834851253
 50
93.342318997866343
 51
269.9512810686205171
  0
ARC
  5
10BA0
  8
0
 10
423.7523668684311815
 20
70.9023833844482851
 30
0.0
 40
0.03
 50
193.3492877152004041
 51
270.0
  0
ARC
  5
10BA1
  8
0
 10
423.5508153024313174
 20
71.0563833844482815
 30
0.0
 40
0.03
 50
0.0
 51
90.0
  0
ARC
  5
10BA2
  8
0
 10
423.610815302431206
 20
71.0058443214482651
 30
0.0
 40
0.03
 50
180.0
 51
266.094809367600817
  0
ARC
  5
10BA3
  8
0
 10
422.3595045881289138
 20
92.1518833844482685
 30
0.0
 40
2.3493107143
 50
343.5473660230999826
 51
16.4526339768999215
  0
ARC
  5
10BA4
  8
0
 10
423.5348644859009823
 20
101.2663342009785055
 30
0.0
 40
0.0600492036117302
 50
90.0469282752636673
 51
266.7197091064763868
  0
ARC
  5
10BA5
  8
0
 10
423.4038153024288818
 20
92.8963833844482849
 30
0.0
 40
0.05
 50
112.0243128372001991
 51
241.9841847556984931
  0
ARC
  5
10BA6
  8
0
 10
423.4038153024288818
 20
91.4073833844482806
 30
0.0
 40
0.05
 50
118.0158152440985049
 51
247.9756871629016928
  0
ARC
  5
10BA7
  8
0
 10
423.7523668688140788
 20
101.5103833842042036
 30
0.0
 40
0.0300000004288801
 50
89.9936395629108148
 51
166.6507120001693067
  0
ARC
  5
10BA8
  8
0
 10
423.5508153024313174
 20
101.3563833844483071
 30
0.0
 40
0.03
 50
270.0
 51
0.0
  0
ARC
  5
10BA9
  8
0
 10
423.610815302431206
 20
101.4069224474482951
 30
0.0
 40
0.03
 50
93.9051906323992256
 51
180.0
  0
ARC
  5
10BAA
  8
0
 10
423.4338153024289113
 20
93.0663833844482724
 30
0.0
 40
0.03
 50
90.0
 51
180.0
  0
ARC
  5
10BAB
  8
0
 10
423.373815302428909
 20
92.9705453693482866
 30
0.0
 40
0.03
 50
292.024312837000025
 51
0.0
  0
ARC
  5
10BAC
  8
0
 10
423.3662380813289019
 20
92.8257579466482667
 30
0.0
 40
0.03
 50
343.5473660230999826
 51
61.9841847557983527
  0
ARC
  5
10BAD
  8
0
 10
423.4338153024289113
 20
91.2363833844482883
 30
0.0
 40
0.03
 50
180.0
 51
270.0
  0
ARC
  5
10BAE
  8
0
 10
423.373815302428909
 20
91.3332213995482647
 30
0.0
 40
0.03
 50
0.0
 51
67.975687162999975
  0
ARC
  5
10BAF
  8
0
 10
423.3662380813289019
 20
91.4780088222482846
 30
0.0
 40
0.03
 50
298.0158152441979951
 51
16.4526339768999215
  0
ARC
  5
10BB0
  8
0
 10
424.4119869156967866
 20
70.8026345315821573
 30
0.0
 40
0.1737760702385243
 50
94.3327124981500447
 51
117.3712817788842955
  0
ARC
  5
10BB1
  8
0
 10
424.377954422790026
 20
70.8722282086052928
 30
0.0
 40
0.0963434151566349
 50
118.4261107435984997
 51
166.0484209922636012
  0
ARC
  5
10BB2
  8
0
 10
423.5956436890658097
 20
70.8026345315821573
 30
0.0
 40
0.1737760702385243
 50
62.6287182211156619
 51
85.6672875018499838
  0
ARC
  5
10BB3
  8
0
 10
423.6296761819726271
 20
70.8722282086052928
 30
0.0
 40
0.0963434151566349
 50
13.9515790077364095
 51
61.5738892564015075
  0
ARC
  5
10BB4
  8
0
 10
424.4942995612545928
 20
72.5850879071883242
 30
0.0
 40
0.0212813747330196
 50
91.4729866975992962
 51
147.9321344055886129
  0
ARC
  5
10BB5
  8
0
 10
424.4941887994121998
 20
71.8275390653671195
 30
0.0
 40
0.0211597599440241
 50
210.570125957318993
 51
268.8749613751489278
  0
ARC
  5
10BB6
  8
0
 10
425.5441271665786758
 20
71.7473276030235354
 30
0.0
 40
1.364269140797119
 50
141.5117204617841935
 51
151.2616974400970946
  0
ARC
  5
10BB7
  8
0
 10
424.7181762704548191
 20
72.1943039009021845
 30
0.0
 40
0.4251760943043921
 50
150.5602260513030899
 51
178.3719743794320038
  0
ARC
  5
10BB8
  8
0
 10
424.7624680443275906
 20
72.2307683205546027
 30
0.0
 40
0.4699293425107969
 50
182.9744505024800958
 51
208.1158029754134873
  0
ARC
  5
10BB9
  8
0
 10
425.5113487503459169
 20
72.6437983975126826
 30
0.0
 40
1.3251312197696981
 50
208.6077409772281896
 51
218.6165274197848873
  0
ARC
  5
10BBA
  8
0
 10
423.1415009150966853
 20
92.8556057188905442
 30
0.0
 40
0.2542425270756708
 50
270.7221258415755187
 51
343.6663002583479738
  0
LINE
  5
10BBB
  8
0
 10
423.1447051692285868
 20
92.601383384448269
 30
0.0
 11
422.4388153024289068
 21
92.601383384448269
 31
0.0
  0
LINE
  5
10BBC
  8
0
 10
422.4288153024288022
 20
92.5913755216482741
 30
0.0
 11
422.4288153024288022
 21
92.5538833844482838
 31
0.0
  0
LINE
  5
10BBD
  8
0
 10
422.4288153024288022
 20
92.5538833844482838
 30
0.0
 11
422.403648709528909
 21
92.5538833844482838
 31
0.0
  0
LINE
  5
10BBE
  8
0
 10
422.3936487095289181
 20
92.5913833844482639
 30
0.0
 11
422.3889244629336872
 21
92.6090612452418753
 31
0.0
  0
LINE
  5
10BBF
  8
0
 10
422.3599106056288974
 20
92.6313833844482701
 30
0.0
 11
422.2173868280289071
 21
92.6313833844482701
 31
0.0
  0
LINE
  5
10BC0
  8
0
 10
422.1884083986491873
 20
92.6091467862801068
 30
0.0
 11
422.1836487094288941
 21
92.5913833843970622
 31
0.0
  0
LINE
  5
10BC1
  8
0
 10
421.8787309191288841
 20
92.7113833844482826
 30
0.0
 11
420.961617505428876
 21
92.7113833844482826
 31
0.0
  0
LINE
  5
10BC2
  8
0
 10
421.0422275017277798
 20
91.5913833844482781
 30
0.0
 11
421.8099642097288893
 21
91.5913833844482781
 31
0.0
  0
LINE
  5
10BC3
  8
0
 10
421.8286295572289077
 20
91.6041997360482867
 30
0.0
 11
421.866874093228887
 21
91.7122931171482776
 31
0.0
  0
LINE
  5
10BC4
  8
0
 10
421.9810567034289193
 20
91.7953833844482858
 30
0.0
 11
422.0879147030289005
 21
91.7953833844482858
 31
0.0
  0
LINE
  5
10BC5
  8
0
 10
422.2173868280289071
 20
91.6713833844482764
 30
0.0
 11
422.3599105918289069
 21
91.6713833844482764
 31
0.0
  0
LINE
  5
10BC6
  8
0
 10
422.3936487095289181
 20
91.7113833844482826
 30
0.0
 11
422.3936487095289181
 21
92.5913833844482639
 31
0.0
  0
LINE
  5
10BC7
  8
0
 10
422.403648709528909
 20
91.748883384448277
 30
0.0
 11
422.4288153024288022
 21
91.748883384448277
 31
0.0
  0
LINE
  5
10BC8
  8
0
 10
422.4288153024288022
 20
91.748883384448277
 30
0.0
 11
422.4288153024288022
 21
91.7113912472482866
 31
0.0
  0
LINE
  5
10BC9
  8
0
 10
422.4388153024289068
 20
91.7013833844482633
 30
0.0
 11
422.668815302428925
 21
91.7013833844482633
 31
0.0
  0
LINE
  5
10BCA
  8
0
 10
422.9288153024289159
 20
91.7013833844482633
 30
0.0
 11
423.0188153024288908
 21
91.7013833844482633
 31
0.0
  0
ARC
  5
10BCB
  8
0
 10
422.4388153046118077
 20
92.5913833791783674
 30
0.0
 40
0.0100000052699019
 50
90.0000125068895755
 51
180.0450203121118875
  0
ARC
  5
10BCC
  8
0
 10
422.403648709528909
 20
92.5638833844482747
 30
0.0
 40
0.0099999999999945
 50
179.9999999999689919
 51
270.0000000000163141
  0
ARC
  5
10BCD
  8
0
 10
422.3591167609517925
 20
92.6003346844557313
 30
0.0
 40
0.0310588467364606
 50
16.3180224749883784
 51
88.5353962517879722
  0
ARC
  5
10BCE
  8
0
 10
422.2181716374021789
 20
92.6003601869480804
 30
0.0
 40
0.031033122770479
 50
91.4491309683888858
 51
163.5525297104960885
  0
ARC
  5
10BCF
  8
0
 10
422.1536573003289163
 20
92.5921012842482867
 30
0.0
 40
0.0300000000000022
 50
286.2512674437992928
 51
358.62878124788881
  0
ARC
  5
10BD0
  8
0
 10
422.1836487096625774
 20
92.4892138928420451
 30
0.0
 40
0.0771694916671696
 50
106.2512675675452982
 51
153.2903032521587932
  0
ARC
  5
10BD1
  8
0
 10
422.087914703013098
 20
92.5373833845038405
 30
0.0
 40
0.0300000000555807
 50
270.0000000300707939
 51
333.2903027630052861
  0
ARC
  5
10BD2
  8
0
 10
422.0740713698835975
 20
92.6294851315299042
 30
0.0
 40
0.1221159153732979
 50
187.852046217690912
 51
269.1272006008334756
  0
ARC
  5
10BD3
  8
0
 10
421.8787313183266861
 20
92.6413833844470958
 30
0.0
 40
0.0700000000023128
 50
8.0362481075726429
 51
90.0003267478709574
  0
LINE
  5
10BD4
  8
0
 10
421.948043905930092
 20
92.6511693539972612
 30
0.0
 11
421.9531003949289243
 21
92.6128022059482703
 31
0.0
  0
ARC
  5
10BD5
  8
0
 10
420.9640096446976827
 20
92.6107215966963651
 30
0.0
 40
0.1006902072879281
 50
91.361327820710045
 51
149.0815031217854028
  0
ARC
  5
10BD6
  8
0
 10
422.4603272104736789
 20
92.3341275688801773
 30
0.0
 40
1.6163969006346921
 50
168.2802443270117863
 51
191.4636468500632134
  0
ARC
  5
10BD7
  8
0
 10
422.3630246107131825
 20
92.317657883688014
 30
0.0
 40
1.5177654715246509
 50
191.584348524309604
 51
208.1578359129185003
  0
ARC
  5
10BD8
  8
0
 10
421.0422275059739263
 20
91.6113833916733142
 30
0.0
 40
0.020000007225047
 50
209.8750148050571056
 51
269.9999878359761283
  0
LINE
  5
10BD9
  8
0
 10
423.3950097073288816
 20
91.4865055001482546
 30
0.0
 11
423.3857346647324107
 21
91.5187573209867082
 31
0.0
  0
ARC
  5
10BDA
  8
0
 10
423.1393172885499894
 20
91.447882897138058
 30
0.0
 40
0.2564073073071469
 50
16.0462632115484887
 51
53.8571469189823802
  0
LINE
  5
10BDB
  8
0
 10
423.2905464492288843
 20
91.6549443570982874
 30
0.0
 11
423.2455505041289143
 21
91.732396941648247
 31
0.0
  0
ARC
  5
10BDC
  8
0
 10
423.1314921578039048
 20
91.6575541807368666
 30
0.0
 40
0.1364212051964311
 50
33.272068783843153
 51
45.3271028570434709
  0
ARC
  5
10BDD
  8
0
 10
423.1524411103004013
 20
91.7044494739781584
 30
0.0
 40
0.0901737438517744
 50
33.7655627953338211
 51
54.9823058831414286
  0
LINE
  5
10BDE
  8
0
 10
423.0288153024288818
 20
91.7178769690482767
 30
0.0
 11
423.0288153024288818
 21
91.7113833844482826
 31
0.0
  0
ARC
  5
10BDF
  8
0
 10
423.0188153024269013
 20
91.7113833844530575
 30
0.0
 40
0.0100000000047692
 50
270.0000000113241754
 51
0.0013544449103742
  0
ARC
  5
10BE0
  8
0
 10
422.7988153024289204
 20
91.2646116476328331
 30
0.0
 40
0.4557077463471229
 50
73.4249785921153943
 51
106.5750214078846057
  0
ARC
  5
10BE1
  8
0
 10
422.4388153046118077
 20
91.7113833897181792
 30
0.0
 40
0.0100000052699048
 50
179.954979687872509
 51
269.9999874930877013
  0
ARC
  5
10BE2
  8
0
 10
422.403648709528909
 20
91.7388833844482861
 30
0.0
 40
0.0099999999999962
 50
89.9999999999804601
 51
180.0000000000202931
  0
LINE
  5
10BE3
  8
0
 10
422.3936487095289181
 20
91.7113833844482826
 30
0.0
 11
422.3888890012289039
 21
91.6936199403482846
 31
0.0
  0
ARC
  5
10BE4
  8
0
 10
422.3591257846837834
 20
91.7024065690042249
 30
0.0
 40
0.0310331097740577
 50
271.4491274603084889
 51
343.5524661766187933
  0
ARC
  5
10BE5
  8
0
 10
422.2181716374020084
 20
91.7024065819482246
 30
0.0
 40
0.0310331227702426
 50
196.4474702891797051
 51
268.55086903193029
  0
LINE
  5
10BE6
  8
0
 10
422.1884083986491873
 20
91.6936199826164398
 30
0.0
 11
422.1836487094288941
 21
91.7113833844994844
 31
0.0
  0
ARC
  5
10BE7
  8
0
 10
422.153657300257521
 20
91.7106654846230356
 30
0.0
 40
0.0300000000719749
 50
1.3712174485096511
 51
73.7487323090854403
  0
ARC
  5
10BE8
  8
0
 10
422.1836487095288817
 20
91.8135528759482895
 30
0.0
 40
0.0771694915000295
 50
206.7096967220030876
 51
253.7487325560852014
  0
ARC
  5
10BE9
  8
0
 10
422.087914703013098
 20
91.765383384392706
 30
0.0
 40
0.0300000000555647
 50
26.7096972370012296
 51
89.9999999699356721
  0
ARC
  5
10BEA
  8
0
 10
421.9834007784955929
 20
91.6721621764975652
 30
0.0
 40
0.1232435019656079
 50
91.0898238445621047
 51
160.9966657566612014
  0
ARC
  5
10BEB
  8
0
 10
421.8099642097001265
 20
91.6113833845537613
 30
0.0
 40
0.0200000001054747
 50
270.0000000823438882
 51
338.9500056616108736
  0
ARC
  5
10BEC
  8
0
 10
424.4941769198160841
 20
99.8274130698386841
 30
0.0
 40
0.0210335575577694
 50
211.5043930261963112
 51
268.900576575936384
  0
ARC
  5
10BED
  8
0
 10
425.3812692241107811
 20
100.5503198366796056
 30
0.0
 40
1.1651942651064719
 50
205.0014826394755119
 51
219.0390907110788135
  0
ARC
  5
10BEE
  8
0
 10
424.685906365053313
 20
100.2134983848882968
 30
0.0
 40
0.3927989173417783
 50
181.0378870062662031
 51
203.3426397712134985
  0
ARC
  5
10BEF
  8
0
 10
424.4943652194344281
 20
100.5850170981376976
 30
0.0
 40
0.0213746237479607
 50
91.6003641101405179
 51
147.8647305023899889
  0
ARC
  5
10BF0
  8
0
 10
425.6119924590839219
 20
99.7024390086536414
 30
0.0
 40
1.445343774160065
 50
141.793192087688908
 51
150.4794086217285098
  0
ARC
  5
10BF1
  8
0
 10
424.7540870744829249
 20
100.1841917081625013
 30
0.0
 40
0.4614491055422394
 50
150.0435646270809116
 51
177.2435074482372954
  0
ARC
  5
10BF2
  8
0
 10
424.3769133154120823
 20
101.5404903609993994
 30
0.0
 40
0.09532161848484
 50
194.0743406575313088
 51
239.1999340677378996
  0
ARC
  5
10BF3
  8
0
 10
424.4073710919576001
 20
101.5904415703724055
 30
0.0
 40
0.1538245035311274
 50
238.9821172750224889
 51
266.8276416692780231
  0
ARC
  5
10BF4
  8
0
 10
423.6240921764483005
 20
101.545044356235195
 30
0.0
 40
0.1028935690835205
 50
290.8357519756182228
 51
344.3628525640669977
  0
ARC
  5
10BF5
  8
0
 10
423.6004160356087027
 20
101.5910006345827981
 30
0.0
 40
0.1543741626099006
 50
273.1028713767768181
 51
292.9820933094811153
  0
LINE
  5
10BF6
  8
0
 10
422.0879147030289005
 20
92.5073833844482749
 30
0.0
 11
422.0879147030289005
 21
91.7953833844482858
 31
0.0
  0
ARC
  5
10BF7
  8
0
 10
421.4622095816474143
 20
92.4746422102387555
 30
0.0
 40
0.9264703932704669
 50
351.6906500105246778
 51
8.2073662973605632
  0
ARC
  5
10BF8
  8
0
 10
422.350116873957802
 20
92.5998149918189455
 30
0.0
 40
0.0299252781899314
 50
13.6983232706545
 51
89.8156133894365354
  0
ARC
  5
10BF9
  8
0
 10
420.5223533790330066
 20
92.1513833358391139
 30
0.0
 40
1.866233175205132
 50
354.1761498072032737
 51
5.8238519515600533
  0
ARC
  5
10BFA
  8
0
 10
421.4523035753394993
 20
91.8281158118637393
 30
0.0
 40
0.936274752916764
 50
351.8796994949203736
 51
8.222270137769593
  0
ARC
  5
10BFB
  8
0
 10
422.3493460645115078
 20
91.703929769788374
 30
0.0
 40
0.0309152787547769
 50
271.6072459173058178
 51
344.8787511366019771
  0
ARC
  5
10BFC
  8
0
 10
423.1150869836729953
 20
92.4746421478483569
 30
0.0
 40
0.9264695395778204
 50
171.7926190940779065
 51
188.309353800890193
  0
ARC
  5
10BFD
  8
0
 10
422.2271805346935025
 20
92.5998150213923168
 30
0.0
 40
0.0299252485835625
 50
90.1843670598391185
 51
166.3016235649342036
  0
ARC
  5
10BFE
  8
0
 10
424.0549440399270793
 20
92.1513833358390286
 30
0.0
 40
1.8662331752074619
 50
174.1761480484447873
 51
185.8238501927899051
  0
ARC
  5
10BFF
  8
0
 10
423.1249938436175739
 20
91.8281158118637535
 30
0.0
 40
0.9362747529161572
 50
171.7777298622320075
 51
188.1203005050851971
  0
ARC
  5
10C00
  8
0
 10
422.2279513544463043
 20
91.703929769788374
 30
0.0
 40
0.0309152787547769
 50
195.1212488633979945
 51
268.3927540826941254
  0
LINE
  5
10C01
  8
0
 10
422.350213177928822
 20
92.6297401150482642
 30
0.0
 11
422.2270842410288765
 21
92.6297401150482642
 31
0.0
  0
LINE
  5
10C02
  8
0
 10
422.3789540913289215
 20
92.3407508603482654
 30
0.0
 11
422.1983433276288906
 21
92.3407508603481091
 31
0.0
  0
LINE
  5
10C03
  8
0
 10
422.3789540961328726
 20
91.9620158688563833
 30
0.0
 11
422.1983433228248259
 21
91.9620158688562555
 31
0.0
  0
LINE
  5
10C04
  8
0
 10
422.3502131779288788
 20
91.6730266538482681
 30
0.0
 11
422.2270842410288765
 21
91.6730266538482681
 31
0.0
  0
ARC
  5
10C05
  8
0
 10
420.5826032368856886
 20
91.8549932127820057
 30
0.0
 40
2.546515262503442
 50
345.3545572084818218
 51
358.571357867241602
  0
ARC
  5
10C06
  8
0
 10
421.4138644091510173
 20
91.6900585443000011
 30
0.0
 40
1.701313653203266
 50
333.8501996899755113
 51
343.6503100561419046
  0
ARC
  5
10C07
  8
0
 10
418.065326624200793
 20
91.9165309921544349
 30
0.0
 40
5.1646178302564234
 50
355.5531590287333188
 51
358.2028997811801219
  0
ARC
  5
10C08
  8
0
 10
425.819874831763002
 20
91.3835242493598656
 30
0.0
 40
2.6088480502571789
 50
177.087172123736508
 51
183.4771250088529086
  0
ARC
  5
10C09
  8
0
 10
422.9449914096271073
 20
91.1949679153378554
 30
0.0
 40
0.2725309497723998
 50
312.762249203980673
 51
6.3896071535193339
  0
ARC
  5
10C0A
  8
0
 10
422.9839157996494805
 20
90.9196210367138349
 30
0.0
 40
0.047583227304388
 50
154.2994386464891079
 51
313.4987359911816043
  0
ARC
  5
10C0B
  8
0
 10
423.6832608973530228
 20
90.2727152398048531
 30
0.0
 40
0.9051880097791146
 50
133.1398637825699893
 51
137.4267020582346106
  0
ARC
  5
10C0C
  8
0
 10
421.674024510329275
 20
92.4807929360024445
 30
0.0
 40
2.0803555133737142
 50
311.935396089381527
 51
314.4175574376315012
  0
LINE
  5
10C0D
  8
0
 10
422.4288153024288022
 20
92.5538833844482838
 30
0.0
 11
422.4288153024288022
 21
91.748883384448277
 31
0.0
  0
LINE
  5
10C0E
  8
0
 10
423.5348153024312978
 20
71.0863833844482826
 30
0.0
 11
424.4728153024311723
 21
71.0863833844482826
 31
0.0
  0
LINE
  5
10C0F
  8
0
 10
423.6087721322307971
 20
70.9759139780482826
 30
0.0
 11
424.3988584725316855
 21
70.9759139780482826
 31
0.0
  0
LINE
  5
10C10
  8
0
 10
422.072211222828912
 20
92.5073833844482749
 30
0.0
 11
422.0879147030289005
 21
92.5073833844482749
 31
0.0
  0
ARC
  5
10C11
  8
0
 10
423.0786823045295932
 20
91.6478150714696937
 30
0.0
 40
0.0859967787403645
 50
102.9340530215183946
 51
125.4414405919484068
  0
ARC
  5
10C12
  8
0
 10
423.0554488685946808
 20
91.7444069619260887
 30
0.0
 40
0.0133839606018803
 50
287.3214058061441847
 51
356.8871107524561239
  0
ARC
  5
10C13
  8
0
 10
423.092362291637528
 20
91.7467716068666448
 30
0.0
 40
0.0237358231153484
 50
134.133401427425099
 51
187.2268139619212093
  0
ARC
  5
10C14
  8
0
 10
423.1493881542427857
 20
91.6879940846780812
 30
0.0
 40
0.1056305489560741
 50
58.7506372967844186
 51
134.1334014274256958
  0
ARC
  5
10C15
  8
0
 10
424.469503990325677
 20
92.490559282330139
 30
0.0
 40
1.1230637346329679
 50
163.0880081875245082
 51
164.8480848668056922
  0
LINE
  5
10C16
  8
0
 10
423.3950096244789165
 20
92.8172609879482451
 30
0.0
 11
424.6126209803921938
 21
92.8172609879482451
 31
0.0
  0
LINE
  5
10C17
  8
0
 10
423.3950097073288816
 20
91.4865055001482546
 30
0.0
 11
424.6126208975152849
 21
91.486505500139657
 31
0.0
  0
LINE
  5
10C18
  8
0
 10
425.6238136385312032
 20
100.6713833844482053
 30
0.0
 11
425.6238136385312032
 21
99.7413833844482696
 31
0.0
  0
LINE
  5
10C19
  8
0
 10
425.7402689132313185
 20
100.6917009128054019
 30
0.0
 11
425.7402689132312048
 21
99.7210658560908314
 31
0.0
  0
LINE
  5
10C1A
  8
0
 10
426.0805195758607056
 20
100.9309961764184038
 30
0.0
 11
426.0805195758607056
 21
99.4817705924780853
 31
0.0
  0
LINE
  5
10C1B
  8
0
 10
426.4338136385312055
 20
101.2963833844483048
 30
0.0
 11
426.4338136385312055
 21
99.1163833844482838
 31
0.0
  0
LINE
  5
10C1C
  8
0
 10
426.6238136385312032
 20
101.2963833844483048
 30
0.0
 11
426.6238136385312032
 21
99.1163833844482696
 31
0.0
  0
LINE
  5
10C1D
  8
0
 10
426.5938136385312873
 20
101.3263833844483059
 30
0.0
 11
426.4638136385312919
 21
101.3263833844483059
 31
0.0
  0
LINE
  5
10C1E
  8
0
 10
426.1101628238312173
 20
100.9563833844483014
 30
0.0
 11
426.1387547758312166
 21
100.9563833844483014
 31
0.0
  0
ARC
  5
10C1F
  8
0
 10
426.5938136385312873
 20
101.2963833844482053
 30
0.0
 40
0.03
 50
0.0000000000089564
 51
89.9999999999934914
  0
ARC
  5
10C20
  8
0
 10
426.4638136385312919
 20
101.2963833844483048
 30
0.0
 40
0.03
 50
89.9999999999934914
 51
179.9999999999974989
  0
ARC
  5
10C21
  8
0
 10
426.1108719044029272
 20
100.9255554300236071
 30
0.0
 40
0.0308361082055654
 50
91.3176405120796915
 51
169.837487602820886
  0
ARC
  5
10C22
  8
0
 10
426.1394774015996063
 20
100.986395471538799
 30
0.0
 40
0.0300207854583177
 50
268.6207087745897866
 51
345.2104127987169022
  0
ARC
  5
10C23
  8
0
 10
426.3738136385312032
 20
101.2876730092481949
 30
0.0
 40
0.0599999999999901
 50
278.4469715719466762
 51
0.000000000007328
  0
ARC
  5
10C24
  8
0
 10
426.4103333489505872
 20
101.014650086373905
 30
0.0
 40
0.2154625587672845
 50
97.3880517934006207
 51
144.1400427448533037
  0
ARC
  5
10C25
  8
0
 10
426.5915295201691038
 20
100.898380622934198
 30
0.0
 40
0.4305894677594725
 50
145.7257097501083081
 51
169.2451029805280029
  0
ARC
  5
10C26
  8
0
 10
425.7646903762425268
 20
100.9688080552370053
 30
0.0
 40
0.3180846137607498
 50
323.1713952018117197
 51
353.1728978525159732
  0
ARC
  5
10C27
  8
0
 10
425.7815338178162961
 20
100.9903516590740935
 30
0.0
 40
0.3186912579621153
 50
267.8681363251789094
 51
318.2499366540192227
  0
ARC
  5
10C28
  8
0
 10
425.768505140863283
 20
100.7018781696384053
 30
0.0
 40
0.0300201362633338
 50
236.0318427492717888
 51
272.240355515136514
  0
ARC
  5
10C29
  8
0
 10
425.768496551110502
 20
100.7018596775616004
 30
0.0
 40
0.0300000006935828
 50
199.7931532441124887
 51
236.0257155001959006
  0
ARC
  5
10C2A
  8
0
 10
425.6838136385312055
 20
100.6713833844482053
 30
0.0
 40
0.0599999999999996
 50
19.7931525481962893
 51
180.0
  0
LINE
  5
10C2B
  8
0
 10
426.1685035923337068
 20
100.978732064267902
 30
0.0
 11
426.1685035923337068
 21
99.4340347046291413
 31
0.0
  0
LINE
  5
10C2C
  8
0
 10
426.5938136385312873
 20
99.0863833844482969
 30
0.0
 11
426.4638136385312919
 21
99.0863833844482969
 31
0.0
  0
LINE
  5
10C2D
  8
0
 10
426.1101628238312173
 20
99.456383384448273
 30
0.0
 11
426.1387547758312166
 21
99.456383384448273
 31
0.0
  0
ARC
  5
10C2E
  8
0
 10
426.5938136385312873
 20
99.1163833844482838
 30
0.0
 40
0.03
 50
270.0000000000064801
 51
359.9999999999910187
  0
ARC
  5
10C2F
  8
0
 10
426.4638136385312919
 20
99.1163833844482838
 30
0.0
 40
0.03
 50
180.0000000000015916
 51
270.0000000000064801
  0
ARC
  5
10C30
  8
0
 10
426.1108719044029272
 20
99.4872113388729247
 30
0.0
 40
0.0308361082055654
 50
190.1625123971790003
 51
268.6823594879203938
  0
ARC
  5
10C31
  8
0
 10
426.1394774015996063
 20
99.4263712973576759
 30
0.0
 40
0.0300207854583177
 50
14.7895872012830694
 51
91.3792912254102134
  0
ARC
  5
10C32
  8
0
 10
426.3738136385312032
 20
99.1250937596482942
 30
0.0
 40
0.0599999999999901
 50
359.9999999999919282
 51
81.5530284280533238
  0
ARC
  5
10C33
  8
0
 10
426.4103333489505872
 20
99.3981166825226552
 30
0.0
 40
0.2154625587672845
 50
215.8599572551466963
 51
262.6119482065993793
  0
ARC
  5
10C34
  8
0
 10
426.5915295201691038
 20
99.5143861459623622
 30
0.0
 40
0.4305894677594725
 50
190.7548970194719971
 51
214.2742902498916919
  0
ARC
  5
10C35
  8
0
 10
425.7646903762425268
 20
99.4439587136595549
 30
0.0
 40
0.3180846137607498
 50
6.8271021474840214
 51
36.8286047981883229
  0
ARC
  5
10C36
  8
0
 10
425.7815338178162961
 20
99.422415109822424
 30
0.0
 40
0.3186912579621153
 50
41.7500633459807418
 51
92.1318636748211333
  0
ARC
  5
10C37
  8
0
 10
425.768505140863283
 20
99.7108885992581406
 30
0.0
 40
0.0300201362633338
 50
87.7596444848635571
 51
123.9681572507280976
  0
ARC
  5
10C38
  8
0
 10
425.768496551110502
 20
99.7109070913348887
 30
0.0
 40
0.0300000006935828
 50
123.9742844998039999
 51
160.2068467558866871
  0
ARC
  5
10C39
  8
0
 10
425.6838136385312055
 20
99.7413833844482838
 30
0.0
 40
0.0599999999999996
 50
180.0
 51
340.2068474518036965
  0
LINE
  5
10C3A
  8
0
 10
425.6238136385312032
 20
72.6713833844482764
 30
0.0
 11
425.6238136385312032
 21
71.7413833844482838
 31
0.0
  0
LINE
  5
10C3B
  8
0
 10
425.7402689132313185
 20
72.6917009128054588
 30
0.0
 11
425.7402689132312048
 21
71.7210658560908172
 31
0.0
  0
LINE
  5
10C3C
  8
0
 10
426.0805195758607056
 20
72.9309961764184607
 30
0.0
 11
426.0805195758607056
 21
71.4817705924780995
 31
0.0
  0
LINE
  5
10C3D
  8
0
 10
426.4338136385312055
 20
73.2963833844482764
 30
0.0
 11
426.4338136385312055
 21
71.1163833844482838
 31
0.0
  0
LINE
  5
10C3E
  8
0
 10
426.6238136385312032
 20
73.2963833844482764
 30
0.0
 11
426.6238136385312032
 21
71.1163833844482838
 31
0.0
  0
LINE
  5
10C3F
  8
0
 10
426.5938136385312873
 20
73.3263833844482633
 30
0.0
 11
426.4638136385312919
 21
73.3263833844482633
 31
0.0
  0
LINE
  5
10C40
  8
0
 10
426.1101628238312173
 20
72.956383384448273
 30
0.0
 11
426.1387547758312166
 21
72.956383384448273
 31
0.0
  0
ARC
  5
10C41
  8
0
 10
426.5938136385312873
 20
73.2963833844482764
 30
0.0
 40
0.03
 50
0.0000000000089564
 51
89.9999999999934914
  0
ARC
  5
10C42
  8
0
 10
426.4638136385312919
 20
73.2963833844482764
 30
0.0
 40
0.03
 50
89.9999999999934914
 51
179.9999999999974989
  0
ARC
  5
10C43
  8
0
 10
426.1108719044029272
 20
72.9255554300236355
 30
0.0
 40
0.0308361082055654
 50
91.3176405120796915
 51
169.837487602820886
  0
ARC
  5
10C44
  8
0
 10
426.1394774015996063
 20
72.9863954715388701
 30
0.0
 40
0.0300207854583177
 50
268.6207087745897866
 51
345.2104127987169022
  0
ARC
  5
10C45
  8
0
 10
426.3738136385312032
 20
73.287673009248266
 30
0.0
 40
0.0599999999999901
 50
278.4469715719466762
 51
0.000000000007328
  0
ARC
  5
10C46
  8
0
 10
426.4103333489505872
 20
73.0146500863738908
 30
0.0
 40
0.2154625587672845
 50
97.3880517934006207
 51
144.1400427448533037
  0
ARC
  5
10C47
  8
0
 10
426.5915295201691038
 20
72.8983806229341837
 30
0.0
 40
0.4305894677594725
 50
145.7257097501083081
 51
169.2451029805280029
  0
ARC
  5
10C48
  8
0
 10
425.7646903762425268
 20
72.9688080552370195
 30
0.0
 40
0.3180846137607498
 50
323.1713952018117197
 51
353.1728978525159732
  0
ARC
  5
10C49
  8
0
 10
425.7815338178162961
 20
72.9903516590741503
 30
0.0
 40
0.3186912579621153
 50
267.8681363251789094
 51
318.2499366540192227
  0
ARC
  5
10C4A
  8
0
 10
425.768505140863283
 20
72.7018781696384053
 30
0.0
 40
0.0300201362633338
 50
236.0318427492717888
 51
272.240355515136514
  0
ARC
  5
10C4B
  8
0
 10
425.768496551110502
 20
72.7018596775616572
 30
0.0
 40
0.0300000006935828
 50
199.7931532441133129
 51
236.0257155001959006
  0
ARC
  5
10C4C
  8
0
 10
425.6838136385312055
 20
72.6713833844482764
 30
0.0
 40
0.0599999999999996
 50
19.7931525481962893
 51
180.0
  0
LINE
  5
10C4D
  8
0
 10
426.1685035923337068
 20
72.9787320642679447
 30
0.0
 11
426.1685035923337068
 21
71.4340347046291555
 31
0.0
  0
LINE
  5
10C4E
  8
0
 10
426.5938136385312873
 20
71.0863833844482826
 30
0.0
 11
426.4638136385312919
 21
71.0863833844482826
 31
0.0
  0
LINE
  5
10C4F
  8
0
 10
426.1101628238312173
 20
71.456383384448273
 30
0.0
 11
426.1387547758312166
 21
71.456383384448273
 31
0.0
  0
ARC
  5
10C50
  8
0
 10
426.5938136385312873
 20
71.1163833844482838
 30
0.0
 40
0.03
 50
270.0000000000064801
 51
359.9999999999910187
  0
ARC
  5
10C51
  8
0
 10
426.4638136385312919
 20
71.1163833844482838
 30
0.0
 40
0.03
 50
180.0000000000015916
 51
270.0000000000064801
  0
ARC
  5
10C52
  8
0
 10
426.1108719044029272
 20
71.4872113388729247
 30
0.0
 40
0.0308361082055654
 50
190.1625123971790003
 51
268.6823594879203938
  0
ARC
  5
10C53
  8
0
 10
426.1394774015996063
 20
71.4263712973576901
 30
0.0
 40
0.0300207854583177
 50
14.7895872012830694
 51
91.3792912254102134
  0
ARC
  5
10C54
  8
0
 10
426.3738136385312032
 20
71.12509375964828
 30
0.0
 40
0.0599999999999901
 50
359.9999999999919282
 51
81.5530284280533238
  0
ARC
  5
10C55
  8
0
 10
426.4103333489505872
 20
71.3981166825226694
 30
0.0
 40
0.2154625587672845
 50
215.8599572551466963
 51
262.6119482065993793
  0
ARC
  5
10C56
  8
0
 10
426.5915295201691038
 20
71.5143861459623764
 30
0.0
 40
0.4305894677594725
 50
190.7548970194719971
 51
214.2742902498916919
  0
ARC
  5
10C57
  8
0
 10
425.7646903762425268
 20
71.4439587136595406
 30
0.0
 40
0.3180846137607498
 50
6.8271021474840214
 51
36.8286047981883229
  0
ARC
  5
10C58
  8
0
 10
425.7815338178162961
 20
71.4224151098224098
 30
0.0
 40
0.3186912579621153
 50
41.7500633459807418
 51
92.1318636748211333
  0
ARC
  5
10C59
  8
0
 10
425.768505140863283
 20
71.7108885992581406
 30
0.0
 40
0.0300201362633338
 50
87.7596444848635571
 51
123.9681572507280976
  0
ARC
  5
10C5A
  8
0
 10
425.768496551110502
 20
71.7109070913349029
 30
0.0
 40
0.0300000006935828
 50
123.9742844998039999
 51
160.2068467558866871
  0
ARC
  5
10C5B
  8
0
 10
425.6838136385312055
 20
71.7413833844482838
 30
0.0
 40
0.0599999999999996
 50
180.0
 51
340.2068474518036965
  0
LINE
  5
10C5D
  8
0
 10
422.1836487094288941
 20
92.5913833843970622
 30
0.0
 11
422.1836487094288941
 21
91.7113833844994844
 31
0.0
  0
ENDSEC
  0
EOF
