  0
SECTION
  2
HEADER
  9
$ACADVER
  1
AC1009
  9
$INSBASE
 10
415.7235284790688752
 20
110.6486192069731942
 30
0.0
  9
$EXTMIN
 10
414.5974138598336936
 20
104.8674319638089969
 30
-0.0000000000000058
  9
$EXTMAX
 10
416.8555692181508903
 20
110.6588804527542038
 30
0.0000000000000104
  9
$LIMMIN
 10
0.0
 20
0.0
  9
$LIMMAX
 10
11.6929133858000007
 20
8.2677165353999982
  9
$ORTHOMODE
 70
     0
  9
$REGENMODE
 70
     1
  9
$FILLMODE
 70
     1
  9
$QTEXTMODE
 70
     0
  9
$MIRRTEXT
 70
     0
  9
$DRAGMODE
 70
     2
  9
$LTSCALE
 40
0.6431102362
  9
$OSMODE
 70
  4095
  9
$ATTMODE
 70
     1
  9
$TEXTSIZE
 40
0.2
  9
$TRACEWID
 40
0.05
  9
$TEXTSTYLE
  7
STANDARD
  9
$CLAYER
  8
0
  9
$CELTYPE
  6
BYLAYER
  9
$CECOLOR
 62
   256
  9
$DIMSCALE
 40
1.0
  9
$DIMASZ
 40
0.1875
  9
$DIMEXO
 40
0.0625
  9
$DIMDLI
 40
0.4443307087
  9
$DIMRND
 40
0.0
  9
$DIMDLE
 40
0.0
  9
$DIMEXE
 40
0.125
  9
$DIMTP
 40
0.01
  9
$DIMTM
 40
0.01
  9
$DIMTXT
 40
1.0
  9
$DIMCEN
 40
0.1052362205
  9
$DIMTSZ
 40
0.0
  9
$DIMTOL
 70
     1
  9
$DIMLIM
 70
     0
  9
$DIMTIH
 70
     0
  9
$DIMTOH
 70
     1
  9
$DIMSE1
 70
     0
  9
$DIMSE2
 70
     0
  9
$DIMTAD
 70
     0
  9
$DIMZIN
 70
     0
  9
$DIMBLK
  1

  9
$DIMASO
 70
     1
  9
$DIMSHO
 70
     1
  9
$DIMPOST
  1
\X
  9
$DIMAPOST
  1

  9
$DIMALT
 70
     1
  9
$DIMALTD
 70
     2
  9
$DIMALTF
 40
25.3999999999999986
  9
$DIMLFAC
 40
1.0
  9
$DIMTOFL
 70
     0
  9
$DIMTVP
 40
0.0
  9
$DIMTIX
 70
     0
  9
$DIMSOXD
 70
     0
  9
$DIMSAH
 70
     0
  9
$DIMBLK1
  1

  9
$DIMBLK2
  1

  9
$DIMSTYLE
  2
STANDARD
  9
$DIMCLRD
 70
     0
  9
$DIMCLRE
 70
     0
  9
$DIMCLRT
 70
     0
  9
$DIMTFAC
 40
1.0
  9
$DIMGAP
 40
0.09
  9
$LUNITS
 70
     2
  9
$LUPREC
 70
     4
  9
$SKETCHINC
 40
0.1
  9
$FILLETRAD
 40
0.0
  9
$AUNITS
 70
     0
  9
$AUPREC
 70
     0
  9
$MENU
  1
.
  9
$ELEVATION
 40
0.0
  9
$PELEVATION
 40
0.0
  9
$THICKNESS
 40
0.0
  9
$LIMCHECK
 70
     0
  9
$BLIPMODE
 70
     0
  9
$CHAMFERA
 40
0.0
  9
$CHAMFERB
 40
0.0
  9
$SKPOLY
 70
     0
  9
$TDCREATE
 40
2458172.5207638889551163
  9
$TDUPDATE
 40
2459594.5906134261749685
  9
$TDINDWG
 40
0.2877171065
  9
$TDUSRTIMER
 40
0.2877171065
  9
$USRTIMER
 70
     1
  9
$ANGBASE
 50
0.0
  9
$ANGDIR
 70
     0
  9
$PDMODE
 70
     0
  9
$PDSIZE
 40
0.3125
  9
$PLINEWID
 40
0.0
  9
$COORDS
 70
     1
  9
$SPLFRAME
 70
     0
  9
$SPLINETYPE
 70
     6
  9
$SPLINESEGS
 70
     8
  9
$ATTDIA
 70
     1
  9
$ATTREQ
 70
     1
  9
$HANDLING
 70
     1
  9
$HANDSEED
  5
10B1E
  9
$SURFTAB1
 70
     6
  9
$SURFTAB2
 70
     6
  9
$SURFTYPE
 70
     6
  9
$SURFU
 70
     6
  9
$SURFV
 70
     6
  9
$UCSNAME
  2

  9
$UCSORG
 10
0.0
 20
0.0
 30
0.0
  9
$UCSXDIR
 10
1.0
 20
0.0
 30
0.0
  9
$UCSYDIR
 10
0.0
 20
1.0
 30
0.0
  9
$PUCSNAME
  2

  9
$PUCSORG
 10
0.0
 20
0.0
 30
0.0
  9
$PUCSXDIR
 10
1.0
 20
0.0
 30
0.0
  9
$PUCSYDIR
 10
0.0
 20
1.0
 30
0.0
  9
$USERI1
 70
     0
  9
$USERI2
 70
     0
  9
$USERI3
 70
     0
  9
$USERI4
 70
     0
  9
$USERI5
 70
     0
  9
$USERR1
 40
0.0
  9
$USERR2
 40
0.0
  9
$USERR3
 40
0.0
  9
$USERR4
 40
0.0
  9
$USERR5
 40
0.0
  9
$WORLDVIEW
 70
     1
  9
$SHADEDGE
 70
     3
  9
$SHADEDIF
 70
    70
  9
$TILEMODE
 70
     1
  9
$MAXACTVP
 70
    64
  9
$PLIMCHECK
 70
     0
  9
$PEXTMIN
 10
1.0000000000000000E+20
 20
1.0000000000000000E+20
 30
1.0000000000000000E+20
  9
$PEXTMAX
 10
-1.0000000000000000E+20
 20
-1.0000000000000000E+20
 30
-1.0000000000000000E+20
  9
$PLIMMIN
 10
0.0
 20
0.0
  9
$PLIMMAX
 10
12.0
 20
9.0
  9
$UNITMODE
 70
     0
  9
$VISRETAIN
 70
     1
  9
$PLINEGEN
 70
     0
  9
$PSLTSCALE
 70
     1
  0
ENDSEC
  0
SECTION
  2
TABLES
  0
TABLE
  2
VPORT
 70
     1
  0
VPORT
  2
*ACTIVE
 70
     0
 10
0.0
 20
0.0
 11
1.0
 21
1.0
 12
-13.9027975690613594
 22
38.0606146960629701
 13
0.0
 23
0.0
 14
1.0
 24
1.0
 15
0.0
 25
0.0
 16
0.0
 26
0.0
 36
14.6338572656650907
 17
429.6292891080536833
 27
69.7025415122186871
 37
0.0
 40
5.837351647378056
 41
1.67063492063492
 42
50.0
 43
0.0
 44
0.0
 50
0.0
 51
0.0
 71
     0
 72
   100
 73
     1
 74
     1
 75
     0
 76
     0
 77
     0
 78
     0
  0
ENDTAB
  0
TABLE
  2
LTYPE
 70
     2
  0
LTYPE
  2
CONTINUOUS
 70
     0
  3
Solid line
 72
    65
 73
     0
 40
0.0
  0
LTYPE
  2
PHANTOM2
 70
     0
  3
___ _ _ ___ _ _ ___ _ _ ___ _ _
 72
    65
 73
     6
 40
1.25
 49
0.625
 49
-0.125
 49
0.125
 49
-0.125
 49
0.125
 49
-0.125
  0
ENDTAB
  0
TABLE
  2
LAYER
 70
     2
  0
LAYER
  2
0
 70
     0
 62
   255
  6
CONTINUOUS
  0
LAYER
  2
DEFPOINTS
 70
     0
 62
     7
  6
CONTINUOUS
  0
ENDTAB
  0
TABLE
  2
STYLE
 70
     1
  0
STYLE
  2
STANDARD
 70
     0
 40
0.0
 41
0.8
 50
0.0
 71
     0
 42
0.2
  3
txt
  4

  0
ENDTAB
  0
TABLE
  2
VIEW
 70
     0
  0
ENDTAB
  0
TABLE
  2
UCS
 70
     0
  0
ENDTAB
  0
TABLE
  2
APPID
 70
    10
  0
APPID
  2
ACAD
 70
     0
  0
APPID
  2
ACAD_MLEADERVER
 70
     0
  0
APPID
  2
ACAD_EXEMPT_FROM_CAD_STANDARDS
 70
     0
  0
APPID
  2
ACAD_DSTYLE_DIMJAG
 70
     0
  0
APPID
  2
ACAD_DSTYLE_DIMTALN
 70
     0
  0
APPID
  2
ACAD_NAV_VCDISPLAY
 70
     0
  0
APPID
  2
ACAECLAYERSTANDARD
 70
     0
  0
APPID
  2
ACCMTRANSPARENCY
 70
     0
  0
APPID
  2
DCO15
 70
     0
  0
APPID
  2
ACDBATTR
 70
     0
  0
ENDTAB
  0
TABLE
  2
DIMSTYLE
 70
     1
  0
DIMSTYLE
  2
STANDARD
 70
     0
  3

  4

  5

  6

  7

 40
1.0
 41
0.1875
 42
0.0625
 43
0.38
 44
0.125
 45
0.0
 46
0.0
 47
0.01
 48
0.01
140
0.15625
141
0.09
142
0.0
143
25.3999999999999986
144
1.0
145
0.0
146
1.0
147
0.09
 71
     1
 72
     0
 73
     1
 74
     1
 75
     0
 76
     0
 77
     0
 78
     4
170
     0
171
     2
172
     0
173
     0
174
     0
175
     0
176
     0
177
     0
178
     0
  0
ENDTAB
  0
ENDSEC
  0
SECTION
  2
BLOCKS
  0
BLOCK
  8
0
  2
$MODEL_SPACE
 70
     0
 10
0.0
 20
0.0
 30
0.0
  3
$MODEL_SPACE
  1

  0
ENDBLK
  5
21
  8
0
  0
BLOCK
 67
     1
  8
0
  2
$PAPER_SPACE
 70
     0
 10
0.0
 20
0.0
 30
0.0
  3
$PAPER_SPACE
  1

  0
ENDBLK
  5
1D
 67
     1
  8
0
  0
ENDSEC
  0
SECTION
  2
ENTITIES
  0
ATTDEF
  5
FFEB
  8
DEFPOINTS
 10
415.7202229137420773
 20
110.6524743466639933
 30
0.0
 40
0.001
  1
K-72798
  3

  2
MODELNUMBER
 70
     0
1001
ACDBATTR
1070
     0
1070
     1
  0
ATTDEF
  5
FFEC
  8
DEFPOINTS
 10
415.7202229137420773
 20
110.6508076799972997
 30
0.0
 40
0.001
  1
ARTIFACTS
  3

  2
TRADENAME
 70
     0
1001
ACDBATTR
1070
     0
1070
     1
  0
ATTDEF
  5
FFED
  8
DEFPOINTS
 10
415.7202229137420773
 20
110.6491410133306061
 30
0.0
 40
0.001
  1
SLIDEBAR
  3

  2
PRODUCT
 70
     0
1001
ACDBATTR
1070
     0
1070
     1
  0
ARC
  5
109D2
  8
0
 10
415.7235282378118768
 20
105.3684530194803983
 30
0.0
 40
0.4476406801347621
 50
89.9999736084171644
 51
216.9293534434121113
  0
ARC
  5
109D3
  8
0
 10
415.7235284440739065
 20
105.368453038298
 30
0.0
 40
0.4121322991896157
 50
90.0000000096957535
 51
214.5157537002585002
  0
ARC
  5
109D4
  8
0
 10
415.7235284440541818
 20
108.0286196311875955
 30
0.0
 40
0.529
 50
90.0000000054161973
 51
269.9999999945837885
  0
LINE
  5
109D5
  8
0
 10
415.3235284440540909
 20
109.6486192069731942
 30
0.0
 11
415.3235284440540909
 21
108.3748002198981055
 31
0.0
  0
ARC
  5
109D6
  8
0
 10
415.7225289610145751
 20
108.0283377163116967
 30
0.0
 40
0.7040371092905902
 50
124.5226667261246973
 51
222.9136904757741888
  0
LINE
  5
109D7
  8
0
 10
415.2737872867541
 20
107.3787044654876013
 30
0.0
 11
415.2735284440541932
 21
106.4636196311875977
 31
0.0
  0
ARC
  5
109D8
  8
0
 10
415.0216263533977781
 20
107.3779144592146935
 30
0.0
 40
0.2521621708763935
 50
0.1795039244549928
 51
42.7126995043397031
  0
ARC
  5
109D9
  8
0
 10
415.7236814813865067
 20
105.3685264099015058
 30
0.0
 40
0.6251514620915616
 50
126.8522865300160021
 51
232.4268823180701986
  0
LINE
  5
109DA
  8
0
 10
415.2835284440541841
 20
106.4536196311876068
 30
0.0
 11
415.3210284440540931
 21
106.4536196311876068
 31
0.0
  0
LINE
  5
109DB
  8
0
 10
415.3210284440540931
 20
106.4536196311876068
 30
0.0
 11
415.3210284440540931
 21
106.4284530382876
 31
0.0
  0
LINE
  5
109DC
  8
0
 10
416.1635285352579103
 20
106.4184530382875948
 30
0.0
 11
415.2835284440541841
 21
106.4184530382875948
 31
0.0
  0
LINE
  5
109DD
  8
0
 10
415.2435284440541068
 20
106.384683456287604
 30
0.0
 11
415.2435284440541068
 21
106.2422226201876043
 31
0.0
  0
ARC
  5
109DE
  8
0
 10
415.2835284440541841
 20
106.4636196311875977
 30
0.0
 40
0.0099999999999962
 50
179.9999999504138088
 51
270.000000000019611
  0
ARC
  5
109DF
  8
0
 10
415.3110284440542159
 20
106.4284530382876
 30
0.0
 40
0.00999999999999
 50
269.9999999999445777
 51
0.0000000000407111
  0
LINE
  5
109E0
  8
0
 10
415.2835284440541841
 20
106.4184530382875948
 30
0.0
 11
415.265763854954173
 21
106.4136920421876056
 31
0.0
  0
ARC
  5
109E1
  8
0
 10
415.2735283780888835
 20
106.384714322771103
 30
0.0
 40
0.0299999340347358
 50
104.9999384184431932
 51
179.9999610073791132
  0
ARC
  5
109E2
  8
0
 10
415.2735283795061036
 20
106.2421917812664987
 30
0.0
 40
0.0299999513026271
 50
179.9411018932246975
 51
254.9998473483277905
  0
LINE
  5
109E3
  8
0
 10
415.265763743552327
 20
106.2132140742028952
 30
0.0
 11
415.2835284441792965
 21
106.2084530381857945
 31
0.0
  0
ARC
  5
109E4
  8
0
 10
415.2828105401268886
 20
106.1784616236817982
 30
0.0
 40
0.0300000055029294
 50
16.2512752792156014
 51
88.6287736146033893
  0
ARC
  5
109E5
  8
0
 10
415.3856979356604029
 20
106.2084530384212968
 30
0.0
 40
0.0771694916671712
 50
196.2512675675093874
 51
243.290303252170105
  0
ARC
  5
109E6
  8
0
 10
415.3375284440541009
 20
106.1127190317876057
 30
0.0
 40
0.0299999999999999
 50
359.9999999999860734
 51
63.2902982306847406
  0
ARC
  5
109E7
  8
0
 10
415.2668743298967229
 20
105.9273400799678058
 30
0.0
 40
0.1006677279311293
 50
324.4166335122931741
 51
0.936185231037244
  0
LINE
  5
109E8
  8
0
 10
415.3675286200049186
 20
105.9289848685973965
 30
0.0
 11
415.3675284440541873
 21
106.1127190317876057
 31
0.0
  0
ARC
  5
109E9
  8
0
 10
415.7227404484063982
 20
105.2941007557587056
 30
0.0
 40
0.6856453937631374
 50
89.934151337738399
 51
123.0564995357293014
  0
LINE
  5
109EA
  8
0
 10
415.3210284440540931
 20
106.4536196311876068
 30
0.0
 11
416.1635284965996107
 21
106.4536196311876068
 31
0.0
  0
ARC
  5
109EB
  8
0
 10
415.2734758438045901
 20
106.3746697378948056
 30
0.0
 40
0.0299476051176378
 50
103.7555251310088948
 51
179.7878112205432046
  0
ARC
  5
109EC
  8
0
 10
415.400219458105596
 20
105.506868924277299
 30
0.0
 40
0.9068243950456686
 50
81.6130167044721162
 51
98.488971167331627
  0
ARC
  5
109ED
  8
0
 10
415.7235284440541818
 20
104.5271916319892966
 30
0.0
 40
1.8865016979992091
 50
90.0000000015177051
 51
95.8121582663200684
  0
ARC
  5
109EE
  8
0
 10
415.2734758438045901
 20
106.252236338680305
 30
0.0
 40
0.0299476051176378
 50
180.2121887794558859
 51
256.2444748689910057
  0
ARC
  5
109EF
  8
0
 10
415.400219458105596
 20
107.1200371522977974
 30
0.0
 40
0.9068243950456686
 50
261.5110288326683872
 51
278.386983295527898
  0
ARC
  5
109F0
  8
0
 10
415.7235284440541818
 20
108.0997144445858993
 30
0.0
 40
1.8865016979992091
 50
264.1878417336766915
 51
269.9999999984822807
  0
LINE
  5
109F1
  8
0
 10
415.5324873024541716
 20
106.403995281487596
 30
0.0
 11
415.5324873135494954
 21
106.2229107939582065
 31
0.0
  0
LINE
  5
109F2
  8
0
 10
415.3675284440541873
 20
106.1127189485921036
 30
0.0
 11
416.0795285140835063
 21
106.1127182667542996
 31
0.0
  0
ARC
  5
109F3
  8
0
 10
415.5489993020038924
 20
105.7618564806659975
 30
0.0
 40
0.0007031199608676
 50
122.7686619064922979
 51
266.3074538256220762
  0
ARC
  5
109F4
  8
0
 10
415.7316185761883958
 20
105.2477758462840001
 30
0.0
 40
0.5449076172841976
 50
90.8506899995085604
 51
109.5859863789481068
  0
ARC
  5
109F5
  8
0
 10
415.7172602610842773
 20
105.455774117214105
 30
0.0
 40
0.3499834316631336
 50
88.9737810513047833
 51
118.8074492225500052
  0
ARC
  5
109F6
  8
0
 10
413.2716985671896168
 20
105.0997222679982031
 30
0.0
 40
2.1159403273540329
 50
354.3786067344138928
 51
0.6316880751607639
  0
ARC
  5
109F7
  8
0
 10
415.366263643413788
 20
105.1231126394532964
 30
0.0
 40
0.0212631558971038
 50
359.832804401875876
 51
33.7485049077876127
  0
ARC
  5
109F8
  8
0
 10
415.3479874544320865
 20
105.0868942257696972
 30
0.0
 40
0.0217342216885657
 50
1.565161523622717
 51
35.441056297526913
  0
ARC
  5
109F9
  8
0
 10
415.4900259788361723
 20
104.9218509036108031
 30
0.0
 40
0.1204358581726001
 50
181.3223647924407089
 51
195.0549187571137111
  0
LINE
  5
109FA
  8
0
 10
415.3737238043541993
 20
104.8905683182873929
 30
0.0
 11
415.3751212057541125
 21
104.8887358533876011
 31
0.0
  0
LINE
  5
109FB
  8
0
 10
415.3751212057541125
 20
104.8887358533876011
 30
0.0
 11
415.3765184707542062
 21
104.8907989015876012
 31
0.0
  0
LINE
  5
109FC
  8
0
 10
415.3765184707542062
 20
104.8907989015876012
 30
0.0
 11
415.3778471067524265
 21
104.8963954418766065
 31
0.0
  0
ARC
  5
109FD
  8
0
 10
419.8198005917371916
 20
105.0008653496172997
 30
0.0
 40
4.4509300136705781
 50
178.8848581765620906
 51
181.0529718679279938
  0
LINE
  5
109FE
  8
0
 10
415.3697135672542231
 20
105.0874878704876068
 30
0.0
 11
415.3875361986954999
 21
105.1205689950033957
 31
0.0
  0
ARC
  5
109FF
  8
0
 10
415.7235287321170176
 20
105.3684530194803983
 30
0.0
 40
0.4476406801348001
 50
323.0706474650835958
 51
90.0000368770132155
  0
ARC
  5
10A00
  8
0
 10
415.7235285258551016
 20
105.368453038298
 30
0.0
 40
0.4121322991896249
 50
325.4842472082323184
 51
90.0000113791399912
  0
ARC
  5
10A01
  8
0
 10
415.7235284836946789
 20
108.0286196311875955
 30
0.0
 40
0.5290000000000049
 50
269.9999957011390848
 51
90.0000042988609152
  0
LINE
  5
10A02
  8
0
 10
416.1235284580076836
 20
109.6486192069731942
 30
0.0
 11
416.1235284782056283
 21
108.3748002262405947
 31
0.0
  0
ARC
  5
10A03
  8
0
 10
415.7245279667387194
 20
108.0283377163275986
 30
0.0
 40
0.7040371092905902
 50
317.0863104327207225
 51
55.4773341823667394
  0
LINE
  5
10A04
  8
0
 10
416.1732696512999041
 20
107.3787044726187929
 30
0.0
 11
416.1735285085097189
 21
106.4636196383228963
 31
0.0
  0
ARC
  5
10A05
  8
0
 10
416.4254305846687885
 20
107.3779144703441943
 30
0.0
 40
0.2521621708763935
 50
137.2873014041539932
 51
179.8204969840388117
  0
ARC
  5
10A06
  8
0
 10
415.7233754885413077
 20
105.3685264098991041
 30
0.0
 40
0.6251514620915616
 50
307.5731185904263043
 51
53.1477143784746602
  0
LINE
  5
10A07
  8
0
 10
416.1260285087471971
 20
106.4536196311876068
 30
0.0
 11
416.1260285090672824
 21
106.4284530446696948
 31
0.0
  0
LINE
  5
10A08
  8
0
 10
416.2035285097608153
 20
106.3847143507985038
 30
0.0
 11
416.2035285120201138
 21
106.242222627798597
 31
0.0
  0
ARC
  5
10A09
  8
0
 10
416.1635284965996107
 20
106.4636196430976014
 30
0.0
 40
0.0100000119100159
 50
269.9999999999380975
 51
359.9999726924924062
  0
ARC
  5
10A0A
  8
0
 10
416.1360285090672733
 20
106.4284530448283022
 30
0.0
 40
0.00999999999999
 50
180.0000009084527051
 51
270.0000009085479746
  0
LINE
  5
10A0B
  8
0
 10
416.1635285092257845
 20
106.4184530452643003
 30
0.0
 11
416.1812930984012837
 21
106.4136920494459986
 31
0.0
  0
ARC
  5
10A0C
  8
0
 10
416.1735285757259817
 20
106.3847143299064015
 30
0.0
 40
0.0299999340347358
 50
0.0000399011143213
 51
75.0000624900485633
  0
ARC
  5
10A0D
  8
0
 10
416.1735285765686854
 20
106.2421917884016977
 30
0.0
 40
0.0299999513026271
 50
285.0001535601649039
 51
0.0588990152692089
  0
LINE
  5
10A0E
  8
0
 10
416.1812932129819842
 20
106.2132140814613024
 30
0.0
 11
416.1635285124305028
 21
106.2084530451625
 31
0.0
  0
ARC
  5
10A0F
  8
0
 10
416.1642464169585196
 20
106.1784616306700002
 30
0.0
 40
0.030000005502933
 50
91.3712272938888361
 51
163.7487386225662931
  0
ARC
  5
10A10
  8
0
 10
416.0613590209493964
 20
106.2084530437779932
 30
0.0
 40
0.0771694916671924
 50
296.7096976563324233
 51
343.7487282897722025
  0
ARC
  5
10A11
  8
0
 10
416.1095285140735882
 20
106.1127190379080929
 30
0.0
 40
0.0299999999999999
 50
116.709702677810796
 51
180.0000009085063937
  0
ARC
  5
10A12
  8
0
 10
416.1801826311703962
 20
105.9273400872086057
 30
0.0
 40
0.1006677279311293
 50
179.063815677456887
 51
215.5833673962009982
  0
LINE
  5
10A13
  8
0
 10
416.0795283410362231
 20
105.9289848742422038
 30
0.0
 11
416.0795285140736155
 21
106.1127190374323987
 31
0.0
  0
ARC
  5
10A14
  8
0
 10
415.7243165222777748
 20
105.2941007548531047
 30
0.0
 40
0.6856453947637096
 50
56.9435013849304923
 51
90.0658555709560886
  0
ARC
  5
10A15
  8
0
 10
416.1735811101697209
 20
106.3746697450309995
 30
0.0
 40
0.0299476051176378
 50
0.2121896879499392
 51
76.2444757774849364
  0
ARC
  5
10A16
  8
0
 10
416.0468375096286877
 20
105.5068689294037938
 30
0.0
 40
0.9068243950456686
 50
81.5110297411644353
 51
98.3869842040211324
  0
ARC
  5
10A17
  8
0
 10
415.7235285392141009
 20
104.5271916319892966
 30
0.0
 40
1.8865016979992091
 50
84.1878426421725834
 51
90.0000009069749183
  0
ARC
  5
10A18
  8
0
 10
416.1735811121109805
 20
106.2522363458163994
 30
0.0
 40
0.0299476051176378
 50
283.7555260394993866
 51
359.7878121290372064
  0
ARC
  5
10A19
  8
0
 10
416.0468374840498882
 20
107.1200371574243064
 30
0.0
 40
0.9068243950456686
 50
261.6130176129686902
 51
278.4889720758242788
  0
ARC
  5
10A1A
  8
0
 10
415.7235284825674171
 20
108.0997144445858993
 30
0.0
 40
1.8865016979992091
 50
270.0000009100136253
 51
275.8121591748159176
  0
LINE
  5
10A1B
  8
0
 10
415.9145696510549897
 20
106.403995284516796
 30
0.0
 11
415.9145696428311112
 21
106.2229107969874065
 31
0.0
  0
ARC
  5
10A1C
  8
0
 10
415.8980576616872895
 20
105.7618564834334052
 30
0.0
 40
0.0007031199608678
 50
273.6925470828609832
 51
56.8277379438821271
  0
ARC
  5
10A1D
  8
0
 10
415.7154384064543819
 20
105.2477758867402997
 30
0.0
 40
0.544907575427317
 50
70.4140141689577348
 51
89.1493198868419512
  0
ARC
  5
10A1E
  8
0
 10
415.7297967001438792
 20
105.4557740985959953
 30
0.0
 40
0.3499834515896434
 50
61.1925521130082899
 51
91.0262308790197068
  0
ARC
  5
10A1F
  8
0
 10
418.175358407000374
 20
105.0997223068748951
 30
0.0
 40
2.1159403273540329
 50
179.3683128333325101
 51
185.6213941740795121
  0
ARC
  5
10A20
  8
0
 10
416.0807933304054131
 20
105.1231126451181979
 30
0.0
 40
0.0212631558971038
 50
146.2514960007077036
 51
180.1671965066173016
  0
ARC
  5
10A21
  8
0
 10
416.0990695199612901
 20
105.0868942317243011
 30
0.0
 40
0.0217342216885657
 50
144.5589446109673872
 51
178.4348393848709122
  0
ARC
  5
10A22
  8
0
 10
415.9570309981742184
 20
104.9218509073132992
 30
0.0
 40
0.1204358581726001
 50
344.9450821513797223
 51
358.6776361160527813
  0
LINE
  5
10A23
  8
0
 10
416.0733331731522071
 20
104.8905683238340032
 30
0.0
 11
416.0719357717812841
 21
104.8887358589119998
 31
0.0
  0
LINE
  5
10A24
  8
0
 10
416.0719357717812841
 20
104.8887358589119998
 30
0.0
 11
416.0705385067486191
 21
104.8907989070898026
 31
0.0
  0
LINE
  5
10A25
  8
0
 10
416.0705385067486191
 20
104.8907989070898026
 30
0.0
 11
416.069209870661723
 21
104.8963954473578042
 31
0.0
  0
ARC
  5
10A26
  8
0
 10
411.627256384020427
 20
105.0008652846660056
 30
0.0
 40
4.4509300136705781
 50
358.9470290405657806
 51
1.1151427319316209
  0
LINE
  5
10A27
  8
0
 10
416.0773434071297743
 20
105.0874878760976969
 30
0.0
 11
416.0595207751640032
 21
105.120569000330903
 31
0.0
  0
ARC
  5
10A28
  8
0
 10
415.3552551928489152
 20
104.8896111707668979
 30
0.0
 40
0.0209182958673813
 50
232.3611806560022046
 51
269.3448339917119938
  0
ARC
  5
10A29
  8
0
 10
415.3552483292273791
 20
104.8890109573792984
 30
0.0
 40
0.0203180432372429
 50
269.3448339917119938
 51
327.4106158969270837
  0
ARC
  5
10A2A
  8
0
 10
415.3439696455374133
 20
104.8962210324362019
 30
0.0
 40
0.0337043753750081
 50
327.4106158969270837
 51
353.586935012276399
  0
ARC
  5
10A2B
  8
0
 10
416.0904590904817155
 20
104.893508438130894
 30
0.0
 40
0.0248592997387975
 50
273.4519680288311179
 51
304.6025749019904083
  0
ARC
  5
10A2C
  8
0
 10
416.0925096167604806
 20
104.8905293264156029
 30
0.0
 40
0.0218421033571948
 50
236.8393125551349101
 51
268.5473789957090958
  0
ARC
  5
10A2D
  8
0
 10
416.0973635474206844
 20
104.8944440182333011
 30
0.0
 40
0.0278407253343018
 50
184.0939502182729086
 51
232.8804591081008937
  0
CIRCLE
  5
10A2E
  8
0
 10
415.7235284440541818
 20
108.0286196311875955
 30
0.0
 40
0.2806378126946107
  0
CIRCLE
  5
10A2F
  8
0
 10
415.7235284440042165
 20
108.0286196311875955
 30
0.0
 40
0.4229999999999783
  0
ARC
  5
10A30
  8
0
 10
415.7235284440042165
 20
108.0286196311875955
 30
0.0
 40
0.5999999603038653
 50
131.8103182798793114
 51
48.1896817073084804
  0
ARC
  5
10A31
  8
0
 10
415.7235284440541818
 20
108.0286196311875955
 30
0.0
 40
0.6499999999440647
 50
127.9798724487005046
 51
52.020127551299467
  0
LINE
  5
10A32
  8
0
 10
415.2585284790689002
 20
109.6486192069731942
 30
0.0
 11
416.188528479068907
 21
109.6486192069731942
 31
0.0
  0
LINE
  5
10A33
  8
0
 10
415.2382109507117889
 20
109.7650744816732953
 30
0.0
 11
416.2088460074263025
 21
109.7650744816730963
 31
0.0
  0
LINE
  5
10A34
  8
0
 10
414.9989156870987017
 20
110.1053251443026966
 30
0.0
 11
416.4481412710391055
 21
110.1053251443026966
 31
0.0
  0
LINE
  5
10A35
  8
0
 10
414.6335284790689002
 20
110.4586192069731965
 30
0.0
 11
416.8135284790690207
 21
110.4586192069731965
 31
0.0
  0
LINE
  5
10A36
  8
0
 10
414.6335284790689002
 20
110.6486192069731942
 30
0.0
 11
416.8135284790690207
 21
110.6486192069731942
 31
0.0
  0
LINE
  5
10A37
  8
0
 10
414.6035284790689275
 20
110.6186192069731931
 30
0.0
 11
414.6035284790689275
 21
110.4886192069731976
 31
0.0
  0
LINE
  5
10A38
  8
0
 10
414.9735284790688752
 20
110.1349683922731941
 30
0.0
 11
414.9735284790688752
 21
110.1635603442731934
 31
0.0
  0
ARC
  5
10A39
  8
0
 10
414.6335284790689002
 20
110.6186192069731931
 30
0.0
 40
0.03
 50
90.0000000000097771
 51
179.9999999999934914
  0
ARC
  5
10A3A
  8
0
 10
414.6335284790689002
 20
110.4886192069731976
 30
0.0
 40
0.03
 50
179.9999999999934914
 51
269.9999999999968168
  0
ARC
  5
10A3B
  8
0
 10
415.0043564334935127
 20
110.1356774728449039
 30
0.0
 40
0.0308361082055654
 50
181.3176405120788104
 51
259.8374876028191238
  0
ARC
  5
10A3C
  8
0
 10
414.9435163919782781
 20
110.1642829700414978
 30
0.0
 40
0.0300207854583177
 50
358.6207087745897866
 51
75.2104127987169306
  0
ARC
  5
10A3D
  8
0
 10
414.6422388542688964
 20
110.3986192069731942
 30
0.0
 40
0.0599999999999901
 50
8.4469715719481595
 51
90.0000000000065086
  0
ARC
  5
10A3E
  8
0
 10
414.9152617771433142
 20
110.4351389173926066
 30
0.0
 40
0.2154625587672845
 50
187.3880517933999101
 51
234.1400427448519963
  0
ARC
  5
10A3F
  8
0
 10
415.0315312405829786
 20
110.6163350886109953
 30
0.0
 40
0.4305894677594725
 50
235.7257097501081091
 51
259.2451029805271787
  0
ARC
  5
10A40
  8
0
 10
414.961103808280086
 20
109.7894959446844041
 30
0.0
 40
0.3180846137607498
 50
53.1713952018133114
 51
83.1728978525157885
  0
ARC
  5
10A41
  8
0
 10
414.939560204443012
 20
109.8063393862583013
 30
0.0
 40
0.3186912579621153
 50
357.8681363251797052
 51
48.2499366540186472
  0
ARC
  5
10A42
  8
0
 10
415.2280336938787855
 20
109.793310709305203
 30
0.0
 40
0.0300201362633338
 50
326.0318427492733804
 51
2.2403555151356311
  0
ARC
  5
10A43
  8
0
 10
415.2280521859555051
 20
109.793302119552493
 30
0.0
 40
0.0300000006935828
 50
289.7931532441115223
 51
326.0257155001967817
  0
ARC
  5
10A44
  8
0
 10
415.2585284790689002
 20
109.7086192069731965
 30
0.0
 40
0.0599999999999996
 50
109.7931525481970993
 51
270.0
  0
LINE
  5
10A45
  8
0
 10
414.9511797992491893
 20
110.1933091607756978
 30
0.0
 11
416.4958771588879927
 21
110.1933091607756978
 31
0.0
  0
LINE
  5
10A46
  8
0
 10
416.8435284790688797
 20
110.6186192069731931
 30
0.0
 11
416.8435284790688797
 21
110.4886192069731976
 31
0.0
  0
LINE
  5
10A47
  8
0
 10
416.4735284790688752
 20
110.1349683922731941
 30
0.0
 11
416.4735284790688752
 21
110.1635603442731934
 31
0.0
  0
ARC
  5
10A48
  8
0
 10
416.8135284790690207
 20
110.6186192069731931
 30
0.0
 40
0.03
 50
0.0000000000065138
 51
89.9999999999902229
  0
ARC
  5
10A49
  8
0
 10
416.8135284790690207
 20
110.4886192069731976
 30
0.0
 40
0.03
 50
270.0000000000032969
 51
0.0000000000065138
  0
ARC
  5
10A4A
  8
0
 10
416.4427005246442945
 20
110.1356774728449039
 30
0.0
 40
0.0308361082055654
 50
280.1625123971808762
 51
358.6823594879210759
  0
ARC
  5
10A4B
  8
0
 10
416.5035405661594723
 20
110.1642829700414978
 30
0.0
 40
0.0300207854583177
 50
104.7895872012830978
 51
181.3792912254100997
  0
ARC
  5
10A4C
  8
0
 10
416.8048181038689108
 20
110.3986192069731942
 30
0.0
 40
0.0599999999999901
 50
89.9999999999934914
 51
171.553028428051789
  0
ARC
  5
10A4D
  8
0
 10
416.531795180994493
 20
110.4351389173926066
 30
0.0
 40
0.2154625587672845
 50
305.8599572551480037
 51
352.6119482066001183
  0
ARC
  5
10A4E
  8
0
 10
416.4155257175547717
 20
110.6163350886109953
 30
0.0
 40
0.4305894677594725
 50
280.7548970194728213
 51
304.2742902498919193
  0
ARC
  5
10A4F
  8
0
 10
416.4859531498576075
 20
109.7894959446844041
 30
0.0
 40
0.3180846137607498
 50
96.8271021474842115
 51
126.8286047981867029
  0
ARC
  5
10A50
  8
0
 10
416.5074967536947952
 20
109.8063393862583013
 30
0.0
 40
0.3186912579621153
 50
131.7500633459812889
 51
182.1318636748202948
  0
ARC
  5
10A51
  8
0
 10
416.2190232642590786
 20
109.793310709305203
 30
0.0
 40
0.0300201362633338
 50
177.7596444848651913
 51
213.9681572507265059
  0
ARC
  5
10A52
  8
0
 10
416.2190047721821884
 20
109.793302119552493
 30
0.0
 40
0.0300000006935828
 50
213.9742844998031899
 51
250.2068467558885061
  0
ARC
  5
10A53
  8
0
 10
416.188528479068907
 20
109.7086192069731965
 30
0.0
 40
0.0599999999999996
 50
270.0
 51
70.2068474518029433
  0
LINE
  5
10A55
  8
0
 10
415.3116118541828996
 20
106.1868571366993024
 30
0.0
 11
416.135445100865411
 21
106.1868571366993024
 31
0.0
  0
ENDSEC
  0
EOF
