  0
SECTION
  2
HEADER
  9
$ACADVER
  1
AC1009
  9
$INSBASE
 10
428.7991130326112739
 20
82.3982424490811525
 30
0.0
  9
$EXTMIN
 10
427.6755763756405031
 20
67.0609719746741462
 30
-0.0000000000000058
  9
$EXTMAX
 10
429.9388261244661749
 20
97.7371013049066306
 30
0.0000000000000104
  9
$LIMMIN
 10
0.0
 20
0.0
  9
$LIMMAX
 10
11.6929133858000007
 20
8.2677165353999982
  9
$ORTHOMODE
 70
     0
  9
$REGENMODE
 70
     1
  9
$FILLMODE
 70
     1
  9
$QTEXTMODE
 70
     0
  9
$MIRRTEXT
 70
     0
  9
$DRAGMODE
 70
     2
  9
$LTSCALE
 40
0.6431102362
  9
$OSMODE
 70
  4095
  9
$ATTMODE
 70
     1
  9
$TEXTSIZE
 40
0.2
  9
$TRACEWID
 40
0.05
  9
$TEXTSTYLE
  7
STANDARD
  9
$CLAYER
  8
0
  9
$CELTYPE
  6
BYLAYER
  9
$CECOLOR
 62
   256
  9
$DIMSCALE
 40
1.0
  9
$DIMASZ
 40
0.1875
  9
$DIMEXO
 40
0.0625
  9
$DIMDLI
 40
0.4443307087
  9
$DIMRND
 40
0.0
  9
$DIMDLE
 40
0.0
  9
$DIMEXE
 40
0.125
  9
$DIMTP
 40
0.01
  9
$DIMTM
 40
0.01
  9
$DIMTXT
 40
1.0
  9
$DIMCEN
 40
0.1052362205
  9
$DIMTSZ
 40
0.0
  9
$DIMTOL
 70
     1
  9
$DIMLIM
 70
     0
  9
$DIMTIH
 70
     0
  9
$DIMTOH
 70
     1
  9
$DIMSE1
 70
     0
  9
$DIMSE2
 70
     0
  9
$DIMTAD
 70
     0
  9
$DIMZIN
 70
     0
  9
$DIMBLK
  1

  9
$DIMASO
 70
     1
  9
$DIMSHO
 70
     1
  9
$DIMPOST
  1
\X
  9
$DIMAPOST
  1

  9
$DIMALT
 70
     1
  9
$DIMALTD
 70
     2
  9
$DIMALTF
 40
25.3999999999999986
  9
$DIMLFAC
 40
1.0
  9
$DIMTOFL
 70
     0
  9
$DIMTVP
 40
0.0
  9
$DIMTIX
 70
     0
  9
$DIMSOXD
 70
     0
  9
$DIMSAH
 70
     0
  9
$DIMBLK1
  1

  9
$DIMBLK2
  1

  9
$DIMSTYLE
  2
STANDARD
  9
$DIMCLRD
 70
     0
  9
$DIMCLRE
 70
     0
  9
$DIMCLRT
 70
     0
  9
$DIMTFAC
 40
1.0
  9
$DIMGAP
 40
0.09
  9
$LUNITS
 70
     2
  9
$LUPREC
 70
     4
  9
$SKETCHINC
 40
0.1
  9
$FILLETRAD
 40
0.0
  9
$AUNITS
 70
     0
  9
$AUPREC
 70
     0
  9
$MENU
  1
.
  9
$ELEVATION
 40
0.0
  9
$PELEVATION
 40
0.0
  9
$THICKNESS
 40
0.0
  9
$LIMCHECK
 70
     0
  9
$BLIPMODE
 70
     0
  9
$CHAMFERA
 40
0.0
  9
$CHAMFERB
 40
0.0
  9
$SKPOLY
 70
     0
  9
$TDCREATE
 40
2458172.5207638889551163
  9
$TDUPDATE
 40
2459594.5903819450177252
  9
$TDINDWG
 40
0.2884925694
  9
$TDUSRTIMER
 40
0.2884925694
  9
$USRTIMER
 70
     1
  9
$ANGBASE
 50
0.0
  9
$ANGDIR
 70
     0
  9
$PDMODE
 70
     0
  9
$PDSIZE
 40
0.3125
  9
$PLINEWID
 40
0.0
  9
$COORDS
 70
     1
  9
$SPLFRAME
 70
     0
  9
$SPLINETYPE
 70
     6
  9
$SPLINESEGS
 70
     8
  9
$ATTDIA
 70
     1
  9
$ATTREQ
 70
     1
  9
$HANDLING
 70
     1
  9
$HANDSEED
  5
10D54
  9
$SURFTAB1
 70
     6
  9
$SURFTAB2
 70
     6
  9
$SURFTYPE
 70
     6
  9
$SURFU
 70
     6
  9
$SURFV
 70
     6
  9
$UCSNAME
  2

  9
$UCSORG
 10
0.0
 20
0.0
 30
0.0
  9
$UCSXDIR
 10
1.0
 20
0.0
 30
0.0
  9
$UCSYDIR
 10
0.0
 20
1.0
 30
0.0
  9
$PUCSNAME
  2

  9
$PUCSORG
 10
0.0
 20
0.0
 30
0.0
  9
$PUCSXDIR
 10
1.0
 20
0.0
 30
0.0
  9
$PUCSYDIR
 10
0.0
 20
1.0
 30
0.0
  9
$USERI1
 70
     0
  9
$USERI2
 70
     0
  9
$USERI3
 70
     0
  9
$USERI4
 70
     0
  9
$USERI5
 70
     0
  9
$USERR1
 40
0.0
  9
$USERR2
 40
0.0
  9
$USERR3
 40
0.0
  9
$USERR4
 40
0.0
  9
$USERR5
 40
0.0
  9
$WORLDVIEW
 70
     1
  9
$SHADEDGE
 70
     3
  9
$SHADEDIF
 70
    70
  9
$TILEMODE
 70
     1
  9
$MAXACTVP
 70
    64
  9
$PLIMCHECK
 70
     0
  9
$PEXTMIN
 10
1.0000000000000000E+20
 20
1.0000000000000000E+20
 30
1.0000000000000000E+20
  9
$PEXTMAX
 10
-1.0000000000000000E+20
 20
-1.0000000000000000E+20
 30
-1.0000000000000000E+20
  9
$PLIMMIN
 10
0.0
 20
0.0
  9
$PLIMMAX
 10
12.0
 20
9.0
  9
$UNITMODE
 70
     0
  9
$VISRETAIN
 70
     1
  9
$PLINEGEN
 70
     0
  9
$PSLTSCALE
 70
     1
  0
ENDSEC
  0
SECTION
  2
TABLES
  0
TABLE
  2
VPORT
 70
     1
  0
VPORT
  2
*ACTIVE
 70
     0
 10
0.0
 20
0.0
 11
1.0
 21
1.0
 12
-0.8220878580003727
 22
12.6964951275716906
 13
0.0
 23
0.0
 14
1.0
 24
1.0
 15
0.0
 25
0.0
 16
0.0
 26
0.0
 36
14.6338572656650907
 17
429.6292891080536833
 27
69.7025415122186871
 37
0.0
 40
30.9192690607230816
 41
1.67063492063492
 42
50.0
 43
0.0
 44
0.0
 50
0.0
 51
0.0
 71
     0
 72
   100
 73
     1
 74
     1
 75
     0
 76
     0
 77
     0
 78
     0
  0
ENDTAB
  0
TABLE
  2
LTYPE
 70
     2
  0
LTYPE
  2
CONTINUOUS
 70
     0
  3
Solid line
 72
    65
 73
     0
 40
0.0
  0
LTYPE
  2
PHANTOM2
 70
     0
  3
___ _ _ ___ _ _ ___ _ _ ___ _ _
 72
    65
 73
     6
 40
1.25
 49
0.625
 49
-0.125
 49
0.125
 49
-0.125
 49
0.125
 49
-0.125
  0
ENDTAB
  0
TABLE
  2
LAYER
 70
     2
  0
LAYER
  2
0
 70
     0
 62
   255
  6
CONTINUOUS
  0
LAYER
  2
DEFPOINTS
 70
     0
 62
     7
  6
CONTINUOUS
  0
ENDTAB
  0
TABLE
  2
STYLE
 70
     1
  0
STYLE
  2
STANDARD
 70
     0
 40
0.0
 41
0.8
 50
0.0
 71
     0
 42
0.2
  3
txt
  4

  0
ENDTAB
  0
TABLE
  2
VIEW
 70
     0
  0
ENDTAB
  0
TABLE
  2
UCS
 70
     0
  0
ENDTAB
  0
TABLE
  2
APPID
 70
    10
  0
APPID
  2
ACAD
 70
     0
  0
APPID
  2
ACAD_MLEADERVER
 70
     0
  0
APPID
  2
ACAD_EXEMPT_FROM_CAD_STANDARDS
 70
     0
  0
APPID
  2
ACAD_DSTYLE_DIMJAG
 70
     0
  0
APPID
  2
ACAD_DSTYLE_DIMTALN
 70
     0
  0
APPID
  2
ACAD_NAV_VCDISPLAY
 70
     0
  0
APPID
  2
ACAECLAYERSTANDARD
 70
     0
  0
APPID
  2
ACCMTRANSPARENCY
 70
     0
  0
APPID
  2
DCO15
 70
     0
  0
APPID
  2
ACDBATTR
 70
     0
  0
ENDTAB
  0
TABLE
  2
DIMSTYLE
 70
     1
  0
DIMSTYLE
  2
STANDARD
 70
     0
  3

  4

  5

  6

  7

 40
1.0
 41
0.1875
 42
0.0625
 43
0.38
 44
0.125
 45
0.0
 46
0.0
 47
0.01
 48
0.01
140
0.15625
141
0.09
142
0.0
143
25.3999999999999986
144
1.0
145
0.0
146
1.0
147
0.09
 71
     1
 72
     0
 73
     1
 74
     1
 75
     0
 76
     0
 77
     0
 78
     4
170
     0
171
     2
172
     0
173
     0
174
     0
175
     0
176
     0
177
     0
178
     0
  0
ENDTAB
  0
ENDSEC
  0
SECTION
  2
BLOCKS
  0
BLOCK
  8
0
  2
$MODEL_SPACE
 70
     0
 10
0.0
 20
0.0
 30
0.0
  3
$MODEL_SPACE
  1

  0
ENDBLK
  5
21
  8
0
  0
BLOCK
 67
     1
  8
0
  2
$PAPER_SPACE
 70
     0
 10
0.0
 20
0.0
 30
0.0
  3
$PAPER_SPACE
  1

  0
ENDBLK
  5
1D
 67
     1
  8
0
  0
ENDSEC
  0
SECTION
  2
ENTITIES
  0
ATTDEF
  5
100FA
  8
DEFPOINTS
 10
428.7946273205557191
 20
82.4026287582985333
 30
0.0
 40
0.001
  1
K-72798
  3

  2
MODELNUMBER
 70
     0
1001
ACDBATTR
1070
     0
1070
     1
  0
ATTDEF
  5
100FB
  8
DEFPOINTS
 10
428.7946273205557191
 20
82.4009620916318681
 30
0.0
 40
0.001
  1
ARTIFACTS
  3

  2
TRADENAME
 70
     0
1001
ACDBATTR
1070
     0
1070
     1
  0
ATTDEF
  5
100FC
  8
DEFPOINTS
 10
428.7946273205557191
 20
82.399295424965203
 30
0.0
 40
0.001
  1
SLIDEBAR
  3

  2
PRODUCT
 70
     0
1001
ACDBATTR
1070
     0
1070
     1
  0
LINE
  5
10C18
  8
0
 10
428.5476645987113216
 20
67.0642424490811493
 30
0.0
 11
429.050561466511283
 21
67.0642424490811493
 31
0.0
  0
LINE
  5
10C19
  8
0
 10
428.4081562026868824
 20
67.1677730426811479
 30
0.0
 11
429.1941562026868837
 21
67.1677730426811479
 31
0.0
  0
LINE
  5
10C1A
  8
0
 10
428.3301130326112798
 20
67.2782424490811479
 30
0.0
 11
429.2681130326113248
 21
67.2782424490811479
 31
0.0
  0
LINE
  5
10C1B
  8
0
 10
428.3301129929283206
 20
67.3982424490811525
 30
0.0
 11
429.2681130326113248
 21
67.3982424490811525
 31
0.0
  0
LINE
  5
10C1C
  8
0
 10
428.3327975323588817
 20
87.7832424490811434
 30
0.0
 11
429.2654285329588788
 21
87.7832424490811434
 31
0.0
  0
LINE
  5
10C1D
  8
0
 10
429.334188838138914
 20
88.9032424490811337
 30
0.0
 11
428.2640372271766864
 21
88.9032424490811337
 31
0.0
  0
LINE
  5
10C1E
  8
0
 10
428.1803630324774872
 20
89.1345936895811519
 30
0.0
 11
429.41786303276848
 21
89.1345936895811519
 31
0.0
  0
LINE
  5
10C1F
  8
0
 10
429.3691078181557828
 20
89.2882424490811673
 30
0.0
 11
428.2291182471666957
 21
89.2882424490811246
 31
0.0
  0
LINE
  5
10C20
  8
0
 10
429.2681130326113248
 20
97.3982424490811525
 30
0.0
 11
428.3301130326112798
 21
97.3982424490811525
 31
0.0
  0
LINE
  5
10C21
  8
0
 10
429.2681130326113248
 20
97.518242449081157
 30
0.0
 11
428.3301130326112798
 21
97.518242449081157
 31
0.0
  0
LINE
  5
10C22
  8
0
 10
429.1941562026869974
 20
97.628711855481157
 30
0.0
 11
428.4040698624112906
 21
97.628711855481157
 31
0.0
  0
LINE
  5
10C23
  8
0
 10
429.050561466511283
 20
97.7322424490811557
 30
0.0
 11
428.5476645987113216
 21
97.7322424490811557
 31
0.0
  0
LINE
  5
10C24
  8
0
 10
428.1756272693742744
 20
89.0441015504811446
 30
0.0
 11
429.422598795809904
 21
89.0441015504811446
 31
0.0
  0
LINE
  5
10C25
  8
0
 10
429.2715630326113114
 20
67.3981431794606749
 30
0.0
 11
429.2715630326113114
 21
87.3982424490811525
 31
0.0
  0
LINE
  5
10C26
  8
0
 10
429.2715630326113114
 20
89.2882424490811673
 30
0.0
 11
429.2715630326113114
 21
97.3983417187016443
 31
0.0
  0
LINE
  5
10C27
  8
0
 10
429.2221130326112757
 20
67.2482424490811468
 30
0.0
 11
429.2221130326112757
 21
67.197703386081173
 31
0.0
  0
LINE
  5
10C28
  8
0
 10
429.2221130326112757
 20
97.5482424490811582
 30
0.0
 11
429.2221130326112757
 21
97.5987815120811604
 31
0.0
  0
LINE
  5
10C29
  8
0
 10
429.3691073030589109
 20
87.3982424490811525
 30
0.0
 11
429.0916397529588835
 21
87.3982424490811525
 31
0.0
  0
ARC
  5
10C2A
  8
0
 10
429.2681130722943976
 20
67.3382424490811502
 30
0.0
 40
0.0600000000000154
 50
269.9999621054860768
 51
90.0000378945138664
  0
ARC
  5
10C2B
  8
0
 10
429.2521130326113052
 20
67.2482424490811468
 30
0.0
 40
0.03
 50
90.0
 51
180.0
  0
ARC
  5
10C2C
  8
0
 10
429.1921130326111893
 20
67.197703386081173
 30
0.0
 40
0.03
 50
273.9051906323011849
 51
0.0
  0
ARC
  5
10C2D
  8
0
 10
429.050561466511283
 20
67.0942424490811504
 30
0.0
 40
0.03
 50
270.0
 51
346.6507122848998961
  0
ARC
  5
10C2E
  8
0
 10
429.2654285329588788
 20
87.8032424490811536
 30
0.0
 40
0.02
 50
270.0
 51
338.9500058978999277
  0
ARC
  5
10C2F
  8
0
 10
429.2681130722943976
 20
97.4582424490811547
 30
0.0
 40
0.0600000000000119
 50
269.9999621054828935
 51
90.0000378945171349
  0
ARC
  5
10C30
  8
0
 10
429.2521130326113052
 20
97.5482424490811582
 30
0.0
 40
0.03
 50
180.0
 51
270.0
  0
ARC
  5
10C31
  8
0
 10
429.1921130326111893
 20
97.5987815120811604
 30
0.0
 40
0.03
 50
0.0
 51
86.0948093676987014
  0
ARC
  5
10C32
  8
0
 10
429.050561466511283
 20
97.7022424490811545
 30
0.0
 40
0.03
 50
13.3492877151000897
 51
90.0
  0
ARC
  5
10C33
  8
0
 10
427.325945622428776
 20
88.5496870031683585
 30
0.0
 40
2.0981658818331059
 50
338.9498916532015755
 51
0.0003388898335692
  0
ARC
  5
10C34
  8
0
 10
427.3262110571133121
 20
88.5497320733257567
 30
0.0
 40
2.0979004473661789
 50
359.9991080212034831
 51
8.0365452923968839
  0
ARC
  5
10C35
  8
0
 10
429.1862230876649846
 20
97.7443220619472584
 30
0.0
 40
0.1133221475855182
 50
207.0984669615446023
 51
259.7723793806247841
  0
LINE
  5
10C36
  8
0
 10
429.194156202811314
 20
97.628711855481157
 30
0.0
 11
429.1661017010112005
 21
97.632800588981155
 31
0.0
  0
LINE
  5
10C37
  8
0
 10
429.0797508850113218
 20
97.7091690534811619
 30
0.0
 11
429.0853408796111808
 21
97.692701433981199
 31
0.0
  0
ARC
  5
10C38
  8
0
 10
429.2018827504140859
 20
67.0197798223453276
 30
0.0
 40
0.1481947799561819
 50
92.9886300692382832
 51
128.7420032131371102
  0
ARC
  5
10C39
  8
0
 10
429.1747714950284944
 20
67.0622127704439492
 30
0.0
 40
0.0982806220330646
 50
131.8970277706038985
 51
165.2013830791179885
  0
LINE
  5
10C3A
  8
0
 10
429.42259879582042
 20
87.6433833476756092
 30
0.0
 11
429.0534648197303795
 21
87.6433833476772577
 31
0.0
  0
LINE
  5
10C3B
  8
0
 10
429.0648497602119278
 20
87.5528912085287061
 30
0.0
 11
429.4178630326589996
 21
87.5528912085077451
 31
0.0
  0
ARC
  5
10C3C
  8
0
 10
430.6077024780523743
 20
87.7929618779550367
 30
0.0
 40
1.5614187251555269
 50
180.3566537541356922
 51
191.7584963730072047
  0
ARC
  5
10C3D
  8
0
 10
428.809534469312382
 20
87.3497892192685157
 30
0.0
 40
0.2862361027902327
 50
267.9134835611928906
 51
9.7457933155832368
  0
ARC
  5
10C3E
  8
0
 10
428.3495536630368861
 20
87.3154463983217681
 30
0.0
 40
0.7466906660754161
 50
6.366277019017768
 51
12.3197091326217905
  0
LINE
  5
10C3F
  8
0
 10
429.1537700366308741
 20
88.8835914938381109
 30
0.0
 11
429.1351053287564241
 21
87.8035914940157909
 31
0.0
  0
ARC
  5
10C40
  8
0
 10
429.1737669905251096
 20
88.8832424455559362
 30
0.0
 40
0.0199999999936707
 50
89.9999994525008447
 51
178.9999995601154126
  0
ARC
  5
10C41
  8
0
 10
429.1554316094317869
 20
87.8034898648761839
 30
0.0
 40
0.020326534741018
 50
179.713529870660409
 51
264.9430672911153124
  0
CIRCLE
  5
10C42
  8
0
 10
428.7991130326589087
 20
88.3432424490811457
 30
0.0
 40
0.1803490102000029
  0
CIRCLE
  5
10C43
  8
0
 10
428.7991130327089877
 20
88.3432424491311394
 30
0.0
 40
0.1314999999500017
  0
LINE
  5
10C44
  8
0
 10
429.3991130326588745
 20
89.2582424490811661
 30
0.0
 11
429.3991130326588745
 21
89.1624044339811377
 31
0.0
  0
LINE
  5
10C45
  8
0
 10
429.3991130326588745
 20
87.5250804641811442
 30
0.0
 11
429.3991130326588745
 21
87.4282424490811536
 31
0.0
  0
ARC
  5
10C46
  8
0
 10
429.3991130326588745
 20
87.5992424490811459
 30
0.0
 40
0.05
 50
292.0243128370983072
 51
61.9841847559014312
  0
ARC
  5
10C47
  8
0
 10
429.3991130326588745
 20
89.0882424490811644
 30
0.0
 40
0.05
 50
298.0158152443013932
 51
67.9756871627997867
  0
ARC
  5
10C48
  8
0
 10
429.4366902537589112
 20
87.6698678868811356
 30
0.0
 40
0.03
 50
163.5473660231000963
 51
241.9841847557983954
  0
ARC
  5
10C49
  8
0
 10
429.4291130326589041
 20
87.5250804641811442
 30
0.0
 40
0.03
 50
112.0243128369999965
 51
180.0
  0
ARC
  5
10C4A
  8
0
 10
429.3691130317251918
 20
87.4282424494679162
 30
0.0
 40
0.0300000009337209
 50
269.9890590536020909
 51
359.9999992613443283
  0
ARC
  5
10C4B
  8
0
 10
429.436690253639199
 20
89.0176170113903567
 30
0.0
 40
0.0299999998473827
 50
118.0158151400559063
 51
196.4520439753189009
  0
ARC
  5
10C4C
  8
0
 10
429.4291130326589041
 20
89.1624044339811377
 30
0.0
 40
0.03
 50
180.0
 51
247.9756871632000923
  0
ARC
  5
10C4D
  8
0
 10
429.3691130318854903
 20
89.2582424487607966
 30
0.0
 40
0.0300000007733984
 50
0.0000006118267652
 51
90.0099574841229639
  0
ARC
  5
10C4E
  8
0
 10
427.1556966296030851
 20
88.3437424492641696
 30
0.0
 40
2.3484530350810542
 50
343.5411864632648076
 51
16.4588210684481986
  0
ARC
  5
10C4F
  8
0
 10
429.3341956409453246
 20
88.8332424487878143
 30
0.0
 40
0.070000000623899
 50
8.0362476442565143
 51
90.0055681563337089
  0
LINE
  5
10C50
  8
0
 10
428.3266630326112931
 20
67.3981431794606749
 30
0.0
 11
428.3266630326112931
 21
87.3982424490811525
 31
0.0
  0
LINE
  5
10C51
  8
0
 10
428.3266630326112931
 20
89.288242449081153
 30
0.0
 11
428.3266630326112931
 21
97.3983417187016443
 31
0.0
  0
LINE
  5
10C52
  8
0
 10
428.376113032611272
 20
67.2482424490811468
 30
0.0
 11
428.376113032611272
 21
67.197703386081173
 31
0.0
  0
LINE
  5
10C53
  8
0
 10
428.376113032611272
 20
97.5482424490811582
 30
0.0
 11
428.376113032611272
 21
97.5987815120811604
 31
0.0
  0
LINE
  5
10C54
  8
0
 10
428.2291187622589064
 20
87.3982424490811525
 30
0.0
 11
428.5065863124081034
 21
87.3982424490811667
 31
0.0
  0
ARC
  5
10C55
  8
0
 10
428.3301129929283206
 20
67.3382424490811502
 30
0.0
 40
0.0600000000000076
 50
89.9999999999902229
 51
270.0000378945237003
  0
ARC
  5
10C56
  8
0
 10
428.3461130326112993
 20
67.2482424490811468
 30
0.0
 40
0.03
 50
0.0
 51
90.0
  0
ARC
  5
10C57
  8
0
 10
428.4061130326113016
 20
67.197703386081173
 30
0.0
 40
0.03
 50
180.0
 51
266.0948093676987014
  0
ARC
  5
10C58
  8
0
 10
428.5476645987113216
 20
67.0942424490811504
 30
0.0
 40
0.03
 50
193.3492877150999902
 51
270.0
  0
ARC
  5
10C59
  8
0
 10
428.3327975323588817
 20
87.8032424490811536
 30
0.0
 40
0.02
 50
201.0499941021001007
 51
270.0
  0
ARC
  5
10C5A
  8
0
 10
428.3301129929283206
 20
97.4582424490811547
 30
0.0
 40
0.0600000000000119
 50
89.9999621054828651
 51
270.0000378945171065
  0
ARC
  5
10C5B
  8
0
 10
428.3461130326112993
 20
97.5482424490811582
 30
0.0
 40
0.03
 50
270.0
 51
0.0
  0
ARC
  5
10C5C
  8
0
 10
428.4061130326113016
 20
97.5987815120811604
 30
0.0
 40
0.03
 50
93.9051906323012844
 51
180.0
  0
ARC
  5
10C5D
  8
0
 10
428.5476645987113216
 20
97.7022424490811545
 30
0.0
 40
0.03
 50
90.0
 51
166.6507122848998961
  0
ARC
  5
10C5E
  8
0
 10
430.272280104179913
 20
88.5496869074031849
 30
0.0
 40
2.098165531329844
 50
179.9996584949969076
 51
201.0501092284117135
  0
ARC
  5
10C5F
  8
0
 10
430.2720126215185132
 20
88.5497323253215853
 30
0.0
 40
2.0978980488893759
 50
171.9634524094076085
 51
180.0008988620834032
  0
ARC
  5
10C60
  8
0
 10
428.4120029775576768
 20
97.7443220619472584
 30
0.0
 40
0.1133221475855182
 50
280.2276206193752159
 51
332.9015330384553977
  0
LINE
  5
10C61
  8
0
 10
428.4040698624112906
 20
97.628711855481157
 30
0.0
 11
428.4321243642112904
 21
97.632800588981155
 31
0.0
  0
LINE
  5
10C62
  8
0
 10
428.5184751802112828
 20
97.7091690534811619
 30
0.0
 11
428.5128851856113101
 21
97.692701433981199
 31
0.0
  0
ARC
  5
10C63
  8
0
 10
428.3963433148085187
 20
67.0197798223453276
 30
0.0
 40
0.1481947799561819
 50
51.2579967868629183
 51
87.0113699307617026
  0
ARC
  5
10C64
  8
0
 10
428.4234545701941101
 20
67.0622127704439492
 30
0.0
 40
0.0982806220330646
 50
14.7986169208820009
 51
48.1029722293961015
  0
LINE
  5
10C65
  8
0
 10
428.175627269497511
 20
87.6433833476756092
 30
0.0
 11
428.5447612455873809
 21
87.6433833476772577
 31
0.0
  0
LINE
  5
10C66
  8
0
 10
428.5333763051058895
 20
87.5528912085287061
 30
0.0
 11
428.1803630326588745
 21
87.5528912085077451
 31
0.0
  0
ARC
  5
10C67
  8
0
 10
426.9905235872654998
 20
87.7929618779550367
 30
0.0
 40
1.5614187251555269
 50
348.2415036269928237
 51
359.6433462458642794
  0
ARC
  5
10C68
  8
0
 10
428.7886915960053784
 20
87.3497892192685157
 30
0.0
 40
0.2862361027902327
 50
170.2542066844166868
 51
272.0865164388071094
  0
ARC
  5
10C69
  8
0
 10
429.2486724022808744
 20
87.3154463983217681
 30
0.0
 40
0.7466906660754161
 50
167.6802908673782042
 51
173.6337229809822134
  0
LINE
  5
10C6A
  8
0
 10
428.4444560286868864
 20
88.8835914938381109
 30
0.0
 11
428.4631207522878071
 21
87.8035914940157909
 31
0.0
  0
ARC
  5
10C6B
  8
0
 10
428.4244590747928214
 20
88.8832424455559362
 30
0.0
 40
0.0199999999936707
 50
1.0000004398846021
 51
90.0000005474991553
  0
ARC
  5
10C6C
  8
0
 10
428.4422472665219175
 20
87.8039882792672159
 30
0.0
 40
0.0208772566818439
 50
276.4323619367127094
 51
358.9109924979979951
  0
CIRCLE
  5
10C6D
  8
0
 10
428.7991130326589087
 20
88.3432424490811457
 30
0.0
 40
0.1803490102000029
  0
CIRCLE
  5
10C6E
  8
0
 10
428.7991130326088864
 20
88.3432424491311394
 30
0.0
 40
0.1314999999500017
  0
LINE
  5
10C6F
  8
0
 10
428.1991130326588859
 20
89.2582424490811661
 30
0.0
 11
428.1991130326588859
 21
89.1624044339811377
 31
0.0
  0
LINE
  5
10C70
  8
0
 10
428.1991130326588859
 20
87.5250804641811442
 30
0.0
 11
428.1991130326588859
 21
87.4282424490811536
 31
0.0
  0
ARC
  5
10C71
  8
0
 10
428.1991130326588859
 20
87.5992424490811459
 30
0.0
 40
0.05
 50
118.0158152440985049
 51
247.9756871629016928
  0
ARC
  5
10C72
  8
0
 10
428.1991130326588859
 20
89.0882424490811644
 30
0.0
 40
0.05
 50
112.0243128372001991
 51
241.9841847556984931
  0
ARC
  5
10C73
  8
0
 10
428.1615358115590197
 20
87.6698678868811356
 30
0.0
 40
0.03
 50
298.0158152441979951
 51
16.4526339768999215
  0
ARC
  5
10C74
  8
0
 10
428.1691130326589132
 20
87.5250804641811442
 30
0.0
 40
0.03
 50
0.0
 51
67.975687162999975
  0
ARC
  5
10C75
  8
0
 10
428.2291130335926255
 20
87.4282424494679162
 30
0.0
 40
0.0300000009337209
 50
180.0000007386555865
 51
270.0109409463977954
  0
ARC
  5
10C76
  8
0
 10
428.1615358116786751
 20
89.0176170113903567
 30
0.0
 40
0.0299999998473827
 50
343.5479560246811275
 51
61.9841848599441079
  0
ARC
  5
10C77
  8
0
 10
428.1691130326589132
 20
89.1624044339811377
 30
0.0
 40
0.03
 50
292.0243128367998793
 51
0.0
  0
ARC
  5
10C78
  8
0
 10
428.229113033432327
 20
89.2582424487607966
 30
0.0
 40
0.0300000007733984
 50
89.9900425158770219
 51
179.9999993881731939
  0
ARC
  5
10C79
  8
0
 10
430.4425294357147891
 20
88.3437424492641696
 30
0.0
 40
2.3484530350810542
 50
163.5411789315517979
 51
196.4588135367343966
  0
ARC
  5
10C7A
  8
0
 10
428.2640304243724927
 20
88.8332424487878143
 30
0.0
 40
0.070000000623899
 50
89.9944318436662769
 51
171.9637523557435088
  0
ARC
  5
10C7B
  8
0
 10
428.7991130326612961
 20
96.3982424490811525
 30
0.0
 40
1.1200000000000001
 50
294.9501996227135123
 51
63.8450716237834968
  0
ARC
  5
10C7C
  8
0
 10
428.7991130326612961
 20
96.3982424490811525
 30
0.0
 40
1.1200000000000001
 50
116.1549283789453
 51
245.0498003716431867
  0
ARC
  5
10C7D
  8
0
 10
428.7991130326612961
 20
96.3982424490811525
 30
0.0
 40
0.75
 50
309.0452041568007076
 51
50.9547958431992782
  0
ARC
  5
10C7E
  8
0
 10
428.7991130326612961
 20
96.3982424490811525
 30
0.0
 40
0.75
 50
129.0452041666355001
 51
230.9547958333644999
  0
ARC
  5
10C7F
  8
0
 10
428.7991130326612961
 20
96.3982424490811525
 30
0.0
 40
0.5249999999999995
 50
334.1455514244963183
 51
25.854448575503671
  0
ARC
  5
10C80
  8
0
 10
428.7991130326612961
 20
96.3982424490811525
 30
0.0
 40
0.5249999999999995
 50
154.1455514495220882
 51
205.8544485504779118
  0
ARC
  5
10C81
  8
0
 10
428.7991130326612961
 20
96.3982424490811525
 30
0.0
 40
1.0219404903
 50
297.5360591558177816
 51
62.4639408441822113
  0
ARC
  5
10C82
  8
0
 10
428.7991130326612961
 20
96.3982424490811525
 30
0.0
 40
1.0219404903
 50
117.5360591621421946
 51
242.4639408378577912
  0
ARC
  5
10C83
  8
0
 10
428.7991130326612961
 20
68.3982424490811525
 30
0.0
 40
1.1200000000000001
 50
296.1549283762165032
 51
65.0498003772865445
  0
ARC
  5
10C84
  8
0
 10
428.7991130326612961
 20
68.3982424490811525
 30
0.0
 40
1.1200000000000001
 50
114.9501996283567991
 51
243.8450716210545863
  0
ARC
  5
10C85
  8
0
 10
428.7991130326612961
 20
68.3982424490811525
 30
0.0
 40
0.75
 50
309.0452041568007076
 51
50.9547958431992782
  0
ARC
  5
10C86
  8
0
 10
428.7991130326612961
 20
68.3982424490811525
 30
0.0
 40
0.75
 50
129.0452041666355001
 51
230.9547958333644999
  0
ARC
  5
10C87
  8
0
 10
428.7991130326612961
 20
68.3982424490811525
 30
0.0
 40
0.5249999999999995
 50
334.1455514244963183
 51
25.854448575503671
  0
ARC
  5
10C88
  8
0
 10
428.7991130326612961
 20
68.3982424490811525
 30
0.0
 40
0.5249999999999995
 50
154.1455514495220882
 51
205.8544485504772013
  0
ARC
  5
10C89
  8
0
 10
428.7991130326612961
 20
68.3982424490811525
 30
0.0
 40
1.0219404903
 50
297.5360591558177816
 51
62.4639408441822113
  0
ARC
  5
10C8A
  8
0
 10
428.7991130326612961
 20
68.3982424490811525
 30
0.0
 40
1.0219404903
 50
117.5360591621421946
 51
242.4639408378577912
  0
ENDSEC
  0
EOF
