  0
SECTION
  2
HEADER
  9
$ACADVER
  1
AC1009
  9
$INSBASE
 10
457.4085869185000206
 20
82.4974620842536552
 30
0.0
  9
$EXTMIN
 10
453.1331877781150865
 20
81.195633420700517
 30
-0.0000000349181948
  9
$EXTMAX
 10
457.4498596341588268
 20
83.6753576507124279
 30
0.0000000814935746
  9
$LIMMIN
 10
0.0
 20
0.0
  9
$LIMMAX
 10
11.6929133858000007
 20
8.2677165353999982
  9
$ORTHOMODE
 70
     0
  9
$REGENMODE
 70
     1
  9
$FILLMODE
 70
     1
  9
$QTEXTMODE
 70
     0
  9
$MIRRTEXT
 70
     0
  9
$DRAGMODE
 70
     2
  9
$LTSCALE
 40
0.6431102362
  9
$OSMODE
 70
  4095
  9
$ATTMODE
 70
     1
  9
$TEXTSIZE
 40
0.2
  9
$TRACEWID
 40
0.05
  9
$TEXTSTYLE
  7
STANDARD
  9
$CLAYER
  8
0
  9
$CELTYPE
  6
BYLAYER
  9
$CECOLOR
 62
   256
  9
$DIMSCALE
 40
1.0
  9
$DIMASZ
 40
0.1875
  9
$DIMEXO
 40
0.0625
  9
$DIMDLI
 40
0.4443307087
  9
$DIMRND
 40
0.0
  9
$DIMDLE
 40
0.0
  9
$DIMEXE
 40
0.125
  9
$DIMTP
 40
0.01
  9
$DIMTM
 40
0.01
  9
$DIMTXT
 40
1.0
  9
$DIMCEN
 40
0.1052362205
  9
$DIMTSZ
 40
0.0
  9
$DIMTOL
 70
     1
  9
$DIMLIM
 70
     0
  9
$DIMTIH
 70
     0
  9
$DIMTOH
 70
     1
  9
$DIMSE1
 70
     0
  9
$DIMSE2
 70
     0
  9
$DIMTAD
 70
     0
  9
$DIMZIN
 70
     0
  9
$DIMBLK
  1

  9
$DIMASO
 70
     1
  9
$DIMSHO
 70
     1
  9
$DIMPOST
  1
\X
  9
$DIMAPOST
  1

  9
$DIMALT
 70
     1
  9
$DIMALTD
 70
     2
  9
$DIMALTF
 40
25.3999999999999986
  9
$DIMLFAC
 40
1.0
  9
$DIMTOFL
 70
     0
  9
$DIMTVP
 40
0.0
  9
$DIMTIX
 70
     0
  9
$DIMSOXD
 70
     0
  9
$DIMSAH
 70
     0
  9
$DIMBLK1
  1

  9
$DIMBLK2
  1

  9
$DIMSTYLE
  2
STANDARD
  9
$DIMCLRD
 70
     0
  9
$DIMCLRE
 70
     0
  9
$DIMCLRT
 70
     0
  9
$DIMTFAC
 40
1.0
  9
$DIMGAP
 40
0.09
  9
$LUNITS
 70
     2
  9
$LUPREC
 70
     4
  9
$SKETCHINC
 40
0.1
  9
$FILLETRAD
 40
0.0
  9
$AUNITS
 70
     0
  9
$AUPREC
 70
     0
  9
$MENU
  1
.
  9
$ELEVATION
 40
0.0
  9
$PELEVATION
 40
0.0
  9
$THICKNESS
 40
0.0
  9
$LIMCHECK
 70
     0
  9
$BLIPMODE
 70
     0
  9
$CHAMFERA
 40
0.0
  9
$CHAMFERB
 40
0.0
  9
$SKPOLY
 70
     0
  9
$TDCREATE
 40
2458172.5207638889551163
  9
$TDUPDATE
 40
2459595.8961342591792345
  9
$TDINDWG
 40
0.2930990509
  9
$TDUSRTIMER
 40
0.2930990509
  9
$USRTIMER
 70
     1
  9
$ANGBASE
 50
0.0
  9
$ANGDIR
 70
     0
  9
$PDMODE
 70
     0
  9
$PDSIZE
 40
0.3125
  9
$PLINEWID
 40
0.0
  9
$COORDS
 70
     1
  9
$SPLFRAME
 70
     0
  9
$SPLINETYPE
 70
     6
  9
$SPLINESEGS
 70
     8
  9
$ATTDIA
 70
     1
  9
$ATTREQ
 70
     1
  9
$HANDLING
 70
     1
  9
$HANDSEED
  5
110AE
  9
$SURFTAB1
 70
     6
  9
$SURFTAB2
 70
     6
  9
$SURFTYPE
 70
     6
  9
$SURFU
 70
     6
  9
$SURFV
 70
     6
  9
$UCSNAME
  2

  9
$UCSORG
 10
0.0
 20
0.0
 30
0.0
  9
$UCSXDIR
 10
1.0
 20
0.0
 30
0.0
  9
$UCSYDIR
 10
0.0
 20
1.0
 30
0.0
  9
$PUCSNAME
  2

  9
$PUCSORG
 10
0.0
 20
0.0
 30
0.0
  9
$PUCSXDIR
 10
1.0
 20
0.0
 30
0.0
  9
$PUCSYDIR
 10
0.0
 20
1.0
 30
0.0
  9
$USERI1
 70
     0
  9
$USERI2
 70
     0
  9
$USERI3
 70
     0
  9
$USERI4
 70
     0
  9
$USERI5
 70
     0
  9
$USERR1
 40
0.0
  9
$USERR2
 40
0.0
  9
$USERR3
 40
0.0
  9
$USERR4
 40
0.0
  9
$USERR5
 40
0.0
  9
$WORLDVIEW
 70
     1
  9
$SHADEDGE
 70
     3
  9
$SHADEDIF
 70
    70
  9
$TILEMODE
 70
     1
  9
$MAXACTVP
 70
    64
  9
$PLIMCHECK
 70
     0
  9
$PEXTMIN
 10
1.0000000000000000E+20
 20
1.0000000000000000E+20
 30
1.0000000000000000E+20
  9
$PEXTMAX
 10
-1.0000000000000000E+20
 20
-1.0000000000000000E+20
 30
-1.0000000000000000E+20
  9
$PLIMMIN
 10
0.0
 20
0.0
  9
$PLIMMAX
 10
12.0
 20
9.0
  9
$UNITMODE
 70
     0
  9
$VISRETAIN
 70
     1
  9
$PLINEGEN
 70
     0
  9
$PSLTSCALE
 70
     1
  0
ENDSEC
  0
SECTION
  2
TABLES
  0
TABLE
  2
VPORT
 70
     1
  0
VPORT
  2
*ACTIVE
 70
     0
 10
0.0
 20
0.0
 11
1.0
 21
1.0
 12
25.6622345980832698
 22
12.7329540234877907
 13
0.0
 23
0.0
 14
1.0
 24
1.0
 15
0.0
 25
0.0
 16
0.0
 26
0.0
 36
14.6338572656650907
 17
429.6292891080536833
 27
69.7025415122186871
 37
0.0
 40
2.5961096991506571
 41
1.67063492063492
 42
50.0
 43
0.0
 44
0.0
 50
0.0
 51
0.0
 71
     0
 72
   100
 73
     1
 74
     1
 75
     0
 76
     0
 77
     0
 78
     0
  0
ENDTAB
  0
TABLE
  2
LTYPE
 70
     2
  0
LTYPE
  2
CONTINUOUS
 70
     0
  3
Solid line
 72
    65
 73
     0
 40
0.0
  0
LTYPE
  2
PHANTOM2
 70
     0
  3
___ _ _ ___ _ _ ___ _ _ ___ _ _
 72
    65
 73
     6
 40
1.25
 49
0.625
 49
-0.125
 49
0.125
 49
-0.125
 49
0.125
 49
-0.125
  0
ENDTAB
  0
TABLE
  2
LAYER
 70
     2
  0
LAYER
  2
0
 70
     0
 62
   255
  6
CONTINUOUS
  0
LAYER
  2
DEFPOINTS
 70
     0
 62
     7
  6
CONTINUOUS
  0
ENDTAB
  0
TABLE
  2
STYLE
 70
     1
  0
STYLE
  2
STANDARD
 70
     0
 40
0.0
 41
0.8
 50
0.0
 71
     0
 42
0.2
  3
txt
  4

  0
ENDTAB
  0
TABLE
  2
VIEW
 70
     0
  0
ENDTAB
  0
TABLE
  2
UCS
 70
     0
  0
ENDTAB
  0
TABLE
  2
APPID
 70
    10
  0
APPID
  2
ACAD
 70
     0
  0
APPID
  2
ACAD_MLEADERVER
 70
     0
  0
APPID
  2
ACAD_EXEMPT_FROM_CAD_STANDARDS
 70
     0
  0
APPID
  2
ACAD_DSTYLE_DIMJAG
 70
     0
  0
APPID
  2
ACAD_DSTYLE_DIMTALN
 70
     0
  0
APPID
  2
ACAD_NAV_VCDISPLAY
 70
     0
  0
APPID
  2
ACAECLAYERSTANDARD
 70
     0
  0
APPID
  2
ACCMTRANSPARENCY
 70
     0
  0
APPID
  2
DCO15
 70
     0
  0
APPID
  2
ACDBATTR
 70
     0
  0
ENDTAB
  0
TABLE
  2
DIMSTYLE
 70
     1
  0
DIMSTYLE
  2
STANDARD
 70
     0
  3

  4

  5

  6

  7

 40
1.0
 41
0.1875
 42
0.0625
 43
0.38
 44
0.125
 45
0.0
 46
0.0
 47
0.01
 48
0.01
140
0.15625
141
0.09
142
0.0
143
25.3999999999999986
144
1.0
145
0.0
146
1.0
147
0.09
 71
     1
 72
     0
 73
     1
 74
     1
 75
     0
 76
     0
 77
     0
 78
     4
170
     0
171
     2
172
     0
173
     0
174
     0
175
     0
176
     0
177
     0
178
     0
  0
ENDTAB
  0
ENDSEC
  0
SECTION
  2
BLOCKS
  0
BLOCK
  8
0
  2
$MODEL_SPACE
 70
     0
 10
0.0
 20
0.0
 30
0.0
  3
$MODEL_SPACE
  1

  0
ENDBLK
  5
21
  8
0
  0
BLOCK
 67
     1
  8
0
  2
$PAPER_SPACE
 70
     0
 10
0.0
 20
0.0
 30
0.0
  3
$PAPER_SPACE
  1

  0
ENDBLK
  5
1D
 67
     1
  8
0
  0
ENDSEC
  0
SECTION
  2
ENTITIES
  0
ATTDEF
  5
100F7
  8
DEFPOINTS
 10
457.4094293431268738
 20
82.4972900880275688
 30
0.0
 40
0.001
  1
K-72797
  3

  2
MODELNUMBER
 70
     0
1001
ACDBATTR
1070
     0
1070
     1
  0
ATTDEF
  5
100F8
  8
DEFPOINTS
 10
457.4094293431268738
 20
82.4956234213609179
 30
0.0
 40
0.001
  1
ARTIFACTS
  3

  2
TRADENAME
 70
     0
1001
ACDBATTR
1070
     0
1070
     1
  0
ATTDEF
  5
100F9
  8
DEFPOINTS
 10
457.4094293431268738
 20
82.4939567546942527
 30
0.0
 40
0.001
  1
SUPPLY ELBOW
  3

  2
PRODUCT
 70
     0
1001
ACDBATTR
1070
     0
1070
     1
  0
LINE
  5
10F86
  8
0
 10
457.4085869185000206
 20
81.3224381780951546
 30
0.0
 11
457.2471310657642221
 21
81.3224381780951546
 31
0.0
  0
ARC
  5
10F87
  8
0
 10
457.247129958078574
 20
81.3524370704120088
 30
0.0
 40
0.0299988923372936
 50
179.9977572015567944
 51
270.0021156019429895
  0
ARC
  5
10F88
  8
0
 10
457.1871310657642198
 20
81.3864349224951553
 30
0.0
 40
0.0300000000000011
 50
0.0000000000016284
 51
85.644733773044635
  0
ARC
  5
10F89
  8
0
 10
457.1979251548535217
 20
81.6337002552376134
 30
0.0
 40
0.217518724747206
 50
215.585661037874786
 51
267.7562930279087254
  0
ARC
  5
10F8A
  8
0
 10
457.3070308908465904
 20
81.7164190385887537
 30
0.0
 40
0.3544044027968849
 50
192.0661891772375043
 51
216.1967773824704011
  0
ARC
  5
10F8B
  8
0
 10
456.9313824677641946
 20
81.634937529195156
 30
0.0
 40
0.029999999999999
 50
14.2730030994133692
 51
90.0
  0
LINE
  5
10F8C
  8
0
 10
456.9313824677641946
 20
81.6649375291951571
 30
0.0
 11
456.881335495964322
 21
81.6649375291951571
 31
0.0
  0
ARC
  5
10F8D
  8
0
 10
456.881335495964322
 20
81.6949375291951441
 30
0.0
 40
0.0299999999999856
 50
226.4384551973693931
 51
270.0000000000097771
  0
ARC
  5
10F8E
  8
0
 10
456.5181935383582754
 20
81.3260720804977382
 30
0.0
 40
0.4876279809096549
 50
45.3870474598036679
 51
91.2999405221988667
  0
ARC
  5
10F8F
  8
0
 10
455.1968344101945263
 20
81.6255365989750743
 30
0.0
 40
0.2757982917541037
 50
66.4269579890020765
 51
112.2667035504909023
  0
ARC
  5
10F90
  8
0
 10
455.0785899965641761
 20
81.9074375291951355
 30
0.0
 40
0.0299999999999925
 50
269.9999999999968168
 51
297.256756983474304
  0
LINE
  5
10F91
  8
0
 10
455.0785899965641761
 20
81.8774375291951628
 30
0.0
 11
455.0371762512643272
 21
81.8774375291951628
 31
0.0
  0
ARC
  5
10F92
  8
0
 10
455.0371762512643272
 20
81.8474375291951617
 30
0.0
 40
0.029999999999997
 50
90.0000073938946059
 51
160.6238198483032988
  0
LINE
  5
10F93
  8
0
 10
455.0088754312432116
 20
81.8573905983769237
 30
0.0
 11
455.0000524986642745
 21
81.8324085601951623
 31
0.0
  0
ARC
  5
10F94
  8
0
 10
454.9700963775974856
 20
81.8448187153165065
 30
0.0
 40
0.0324250079337641
 50
272.9791452391236817
 51
337.4968598533114914
  0
LINE
  5
10F95
  8
0
 10
454.9717415305643158
 20
81.8124375291951651
 30
0.0
 11
454.8437911070641917
 21
81.8124375291951651
 31
0.0
  0
LINE
  5
10F96
  8
0
 10
454.8437911065643107
 20
81.8124375291951651
 30
0.0
 11
454.8245206008642185
 21
81.8124375291951651
 31
0.0
  0
ARC
  5
10F97
  8
0
 10
454.8244805471020982
 20
81.84243752765056
 30
0.0
 40
0.0299999984553985
 50
199.5318888433280904
 51
269.9999983998714015
  0
LINE
  5
10F98
  8
0
 10
454.7962083935643136
 20
81.8324081204951739
 30
0.0
 11
454.7643415323641989
 21
81.9240631629951537
 31
0.0
  0
ARC
  5
10F99
  8
0
 10
454.7359322230150838
 20
81.9144183858957859
 30
0.0
 40
0.0300018429933559
 50
18.7520182550636108
 51
79.7969225475861634
  0
ARC
  5
10F9A
  8
0
 10
454.7872981674693165
 20
82.1998349423554515
 30
0.0
 40
0.2600000039806636
 50
215.2092272738960901
 51
259.7989405700315046
  0
ARC
  5
10F9B
  8
0
 10
454.624107003838219
 20
82.0846310283999969
 30
0.0
 40
0.0602419212457675
 50
178.4280669707318907
 51
215.173585156402595
  0
LINE
  5
10F9C
  8
0
 10
454.5638877532642823
 20
82.0862835826951596
 30
0.0
 11
454.5638877532642823
 21
82.9103528998951447
 31
0.0
  0
LINE
  5
10F9D
  8
0
 10
457.4085869185000206
 20
83.6724859904121416
 30
0.0
 11
457.2478590233076261
 21
83.6724859904121416
 31
0.0
  0
ARC
  5
10F9E
  8
0
 10
457.2482622289226128
 20
83.6413380527491483
 30
0.0
 40
0.0311505472732885
 50
90.7416442783028145
 51
177.9786091211547898
  0
ARC
  5
10F9F
  8
0
 10
457.1884067397999729
 20
83.6073574734107154
 30
0.0
 40
0.0287447223009181
 50
273.3352835692062968
 51
2.1585411918127808
  0
ARC
  5
10FA0
  8
0
 10
457.198460290782009
 20
83.3613042431184539
 30
0.0
 40
0.2175187247472184
 50
92.2082115351760336
 51
144.3788402185572011
  0
ARC
  5
10FA1
  8
0
 10
457.3167645670504839
 20
83.2731344487819598
 30
0.0
 40
0.3650492175055441
 50
143.944261411172107
 51
167.4363782394860038
  0
ARC
  5
10FA2
  8
0
 10
456.9313897443669816
 20
83.3599281697189127
 30
0.0
 40
0.0299906414065026
 50
269.986098375560573
 51
345.7408984755128927
  0
LINE
  5
10FA3
  8
0
 10
456.9313824677641946
 20
83.3299375291951634
 30
0.0
 11
456.881335495964322
 21
83.3299375291951634
 31
0.0
  0
ARC
  5
10FA4
  8
0
 10
456.8813277604255063
 20
83.2999568882655836
 30
0.0
 40
0.0299806419275344
 50
89.9852166697763636
 51
133.5763177431726945
  0
ARC
  5
10FA5
  8
0
 10
456.5256576549193142
 20
83.6475451599751381
 30
0.0
 40
0.4673520238438072
 50
256.9040179796454026
 51
315.7919503706655178
  0
ARC
  5
10FA6
  8
0
 10
455.920094302081111
 20
81.5594496541238669
 30
0.0
 40
1.7076377686995741
 50
72.9858121445876122
 51
97.1922403521160732
  0
ARC
  5
10FA7
  8
0
 10
455.9619428789713993
 20
81.9274297631561268
 30
0.0
 40
1.350635581208746
 50
100.9105330782856953
 51
116.4198837048476065
  0
ARC
  5
10FA8
  8
0
 10
455.0785899965641761
 20
83.0874375291951281
 30
0.0
 40
0.0300000000000376
 50
62.7432507477936383
 51
89.9999999999934914
  0
LINE
  5
10FA9
  8
0
 10
455.0785899965641761
 20
83.1174375291951577
 30
0.0
 11
455.0371762512643272
 21
83.1174375291951577
 31
0.0
  0
ARC
  5
10FAA
  8
0
 10
455.0371762512643272
 20
83.1474375291951588
 30
0.0
 40
0.0299999999999923
 50
199.3761801516886862
 51
270.0000000000064801
  0
LINE
  5
10FAB
  8
0
 10
455.0088754312432116
 20
83.1374844600133969
 30
0.0
 11
455.0000524986642745
 21
83.1624664981951582
 31
0.0
  0
ARC
  5
10FAC
  8
0
 10
454.9701023295211257
 20
83.1500614407788134
 30
0.0
 40
0.0324175582239426
 50
22.4988425433707313
 51
87.1015901379292501
  0
LINE
  5
10FAD
  8
0
 10
454.9717415305643158
 20
83.1824375291951554
 30
0.0
 11
454.843791017565195
 21
83.1824378772194564
 31
0.0
  0
LINE
  5
10FAE
  8
0
 10
454.843791017565195
 20
83.1824378772194564
 30
0.0
 11
454.8245206019641955
 21
83.1824375291951554
 31
0.0
  0
ARC
  5
10FAF
  8
0
 10
454.8261215464216889
 20
83.1501109476520952
 30
0.0
 40
0.0323661999223899
 50
92.8352048121841875
 51
157.5564794360961969
  0
LINE
  5
10FB0
  8
0
 10
454.7962068817643058
 20
83.162467473695159
 30
0.0
 11
454.7643385190668255
 21
83.0708046106549034
 31
0.0
  0
ARC
  5
10FB1
  8
0
 10
454.7359330444244279
 20
83.0804549477545464
 30
0.0
 40
0.0299999999299659
 50
280.2021170116224198
 51
341.235572199290516
  0
ARC
  5
10FB2
  8
0
 10
454.7872980165400918
 20
82.7950403520802638
 30
0.0
 40
0.259999744506279
 50
100.2020939403658986
 51
144.7907960458107084
  0
ARC
  5
10FB3
  8
0
 10
454.6238877532642277
 20
82.9103528998951731
 30
0.0
 40
0.0599999999999792
 50
144.7907729681610931
 51
180.0000000000057128
  0
LINE
  5
10FB4
  8
0
 10
457.2171310657643062
 20
81.3524382446951648
 30
0.0
 11
457.2171310657643062
 21
83.6424368137951859
 31
0.0
  0
LINE
  5
10FB5
  8
0
 10
456.9604564278159273
 20
81.6423338016967364
 30
0.0
 11
456.9604564278159273
 21
83.3525412566935842
 31
0.0
  0
ARC
  5
10FB6
  8
0
 10
455.1890925058195876
 20
83.3248983741194991
 30
0.0
 40
0.2319404082447334
 50
245.3427115553533895
 51
283.5742530026985264
  0
ARC
  5
10FB7
  8
0
 10
455.1092386728008137
 20
83.7217261725119641
 30
0.0
 40
0.6366146349336179
 50
282.1778116502222815
 51
293.2935577022748248
  0
LINE
  5
10FB8
  8
0
 10
456.881335495964322
 20
81.6649375291951571
 30
0.0
 11
456.8813276185823042
 21
83.3299375301927938
 31
0.0
  0
LINE
  5
10FB9
  8
0
 10
455.0088709796643229
 20
81.8573801331951643
 30
0.0
 11
455.0088709796643229
 21
83.1374949251951563
 31
0.0
  0
LINE
  5
10FBA
  8
0
 10
455.0785899965641761
 20
81.8774375291951628
 30
0.0
 11
455.0785899965641761
 21
83.1174375291951577
 31
0.0
  0
LINE
  5
10FBB
  8
0
 10
454.7802749629643131
 20
81.8782356417451638
 30
0.0
 11
454.780272700415594
 21
83.1166360421750312
 31
0.0
  0
ARC
  5
10FBC
  8
0
 10
454.9516631289948805
 20
81.843177514428433
 30
0.0
 40
0.0307506021433013
 50
271.5056442942736794
 51
340.747399443450206
  0
ARC
  5
10FBD
  8
0
 10
453.9707117147315785
 20
82.0276373059615764
 30
0.0
 40
1.028558116611092
 50
349.094144215023789
 51
10.8233486354319908
  0
ARC
  5
10FBE
  8
0
 10
454.8451849968450915
 20
81.8439809643079457
 30
0.0
 40
0.0315742177865064
 50
200.2784494266427942
 51
267.4697712284631734
  0
ARC
  5
10FBF
  8
0
 10
455.8254614063017129
 20
82.0276320839016648
 30
0.0
 40
1.028470740812147
 50
169.1754172928783078
 51
190.9065279978015042
  0
ARC
  5
10FC0
  8
0
 10
454.9491894133010987
 20
82.2409706407572543
 30
0.0
 40
0.0376532845020437
 50
275.4244721658753861
 51
327.5758181197708154
  0
ARC
  5
10FC1
  8
0
 10
452.9847897974159991
 20
82.4974375295451665
 30
0.0
 40
2.0152628493021481
 50
352.1094990837092951
 51
7.8905009162906561
  0
ARC
  5
10FC2
  8
0
 10
453.970694574698598
 20
82.9672393544136355
 30
0.0
 40
1.0285752524299141
 50
349.1767430413211173
 51
10.9056046165748501
  0
ARC
  5
10FC3
  8
0
 10
454.9511210387037181
 20
83.1509548720195113
 30
0.0
 40
0.0315115892747988
 50
20.2024769029040101
 51
87.5445805977976192
  0
ARC
  5
10FC4
  8
0
 10
456.8110780740755104
 20
82.4974375285344479
 30
0.0
 40
2.0148713433208219
 50
172.1079598111589064
 51
187.8920401681305918
  0
ARC
  5
10FC5
  8
0
 10
455.7842516606621075
 20
82.9672724403484807
 30
0.0
 40
0.9880303224906821
 50
168.6429866878715984
 51
191.2750671335022901
  0
ARC
  5
10FC6
  8
0
 10
454.8451666700099736
 20
83.1509197409639995
 30
0.0
 40
0.0315481430937755
 50
92.4991669994441708
 51
159.7537060432632927
  0
LINE
  5
10FC7
  8
0
 10
454.95274879956429
 20
82.2034859563951557
 30
0.0
 11
454.8435132233643117
 21
82.2034859671951637
 31
0.0
  0
ARC
  5
10FC8
  8
0
 10
454.8457294517007199
 20
82.2387767741648332
 30
0.0
 40
0.0353603269867446
 50
210.5909440490007114
 51
266.406599628838876
  0
LINE
  5
10FC9
  8
0
 10
454.9809726148642994
 20
82.2207815859951552
 30
0.0
 11
454.9527489065256987
 21
82.2245420824951623
 31
0.0
  0
LINE
  5
10FCA
  8
0
 10
454.9527489065256987
 20
82.2245420824951623
 30
0.0
 11
454.8435132246643207
 21
82.2245420824951623
 31
0.0
  0
LINE
  5
10FCB
  8
0
 10
454.8435132246643207
 20
82.2245420824951623
 30
0.0
 11
454.815290487564198
 21
82.2207817140951676
 31
0.0
  0
LINE
  5
10FCC
  8
0
 10
454.9809726148642994
 20
82.7740934730951636
 30
0.0
 11
454.9527489067643273
 21
82.77033297599516
 31
0.0
  0
LINE
  5
10FCD
  8
0
 10
454.9527489067643273
 20
82.77033297599516
 30
0.0
 11
454.8435133323642958
 21
82.7703330039951624
 31
0.0
  0
LINE
  5
10FCE
  8
0
 10
454.8435133323642958
 20
82.7703330039951624
 30
0.0
 11
454.8152904876641855
 21
82.7740933436951565
 31
0.0
  0
ARC
  5
10FCF
  8
0
 10
454.8470712906150197
 20
82.7539086822289676
 30
0.0
 40
0.0376489042953117
 50
95.4229156415131854
 51
147.5795044727830998
  0
LINE
  5
10FD0
  8
0
 10
454.8435133323642958
 20
82.7913890911951569
 30
0.0
 11
454.9527487991613839
 21
82.791389649405275
 31
0.0
  0
ARC
  5
10FD1
  8
0
 10
454.9491765955445999
 20
82.7538847148581738
 30
0.0
 40
0.0376746699263905
 50
32.4390235141547265
 51
84.5592060791371551
  0
ARC
  5
10FD2
  8
0
 10
454.5490042431642905
 20
82.2774375291951259
 30
0.0
 40
0.0600000000000159
 50
75.6373459930309195
 51
89.9999999999967457
  0
ARC
  5
10FD3
  8
0
 10
454.5490039207512041
 20
82.7174605481293668
 30
0.0
 40
0.0600223700350733
 50
270.0003078625193211
 51
284.3575038602119776
  0
ARC
  5
10FD4
  8
0
 10
455.854499105563491
 20
80.8704568343563608
 30
0.0
 40
1.146908681483459
 50
55.316991947627109
 51
118.506282467862107
  0
LINE
  5
10FD5
  8
0
 10
453.2450082419643991
 20
83.059938178095166
 30
0.0
 11
454.2896538895643062
 21
83.059938178095166
 31
0.0
  0
ARC
  5
10FD6
  8
0
 10
454.2896538895643062
 20
82.9800666986951683
 30
0.0
 40
0.0798714793999972
 50
8.4602493842081383
 51
89.999994336704944
  0
ARC
  5
10FD7
  8
0
 10
452.3706351151867011
 20
82.6946448754413552
 30
0.0
 40
2.019999999267486
 50
1.697310463920086
 51
8.4597679101131256
  0
ARC
  5
10FD8
  8
0
 10
454.4772412424983941
 20
82.7445996182446066
 30
0.0
 40
0.0880480615560937
 50
173.5596178987225073
 51
278.1378924867987052
  0
LINE
  5
10FD9
  8
0
 10
454.4897049696642171
 20
82.6574381780951626
 30
0.0
 11
454.5490042432642781
 21
82.6574381780951626
 31
0.0
  0
LINE
  5
10FDA
  8
0
 10
454.5490042431642905
 20
82.3374375291951566
 30
0.0
 11
454.4407467161643126
 21
82.3374366853951472
 31
0.0
  0
ARC
  5
10FDB
  8
0
 10
454.4300588088971153
 20
82.250742379612575
 30
0.0
 40
0.0873506383312465
 50
82.9718848640237354
 51
174.573290990627811
  0
ARC
  5
10FDC
  8
0
 10
452.3706351197960771
 20
82.6946448736118072
 30
0.0
 40
2.019999994409059
 50
338.5081808839668156
 51
347.5455069296100987
  0
ARC
  5
10FDD
  8
0
 10
454.2213397233526848
 20
81.9659381781329586
 30
0.0
 40
0.0310000000377999
 50
270.0000000215280238
 51
338.50818075657088
  0
LINE
  5
10FDE
  8
0
 10
454.221327682564322
 20
81.934938178095166
 30
0.0
 11
453.3133224081643107
 21
81.934938178095166
 31
0.0
  0
ARC
  5
10FDF
  8
0
 10
453.3133224081614117
 20
81.9659381780857359
 30
0.0
 40
0.0309999999905686
 50
201.4940449996684038
 51
270.0000000047127173
  0
ARC
  5
10FE0
  8
0
 10
456.9357611390660736
 20
82.5976960917806764
 30
0.0
 40
3.7903016088692389
 50
174.0315057099979867
 51
179.8580322189000071
  0
ARC
  5
10FE1
  8
0
 10
455.180044108364882
 20
82.6994624113713854
 30
0.0
 40
2.036668884487828
 50
182.5995864175002055
 51
201.4528736056919058
  0
ARC
  5
10FE2
  8
0
 10
453.2450082419479145
 20
82.9800666987391082
 30
0.0
 40
0.0798714793560413
 50
89.999999988281715
 51
171.5397510781257893
  0
ARC
  5
10FE3
  8
0
 10
455.5173558310713133
 20
82.3983784339141749
 30
0.0
 40
1.182498597005913
 50
162.4739207251350877
 51
186.7688966543967126
  0
ARC
  5
10FE4
  8
0
 10
455.2544847536154862
 20
81.7222543972166449
 30
0.0
 40
0.1647059300030627
 50
4.4262600430436558
 51
71.3589519364737868
  0
ARC
  5
10FE5
  8
0
 10
455.3284208449575772
 20
81.7037167426775284
 30
0.0
 40
0.09553389796019
 50
309.5157289199004254
 51
19.0927628346330884
  0
ARC
  5
10FE6
  8
0
 10
455.4333871399446139
 20
81.6005365561902067
 30
0.0
 40
0.0531120552136157
 50
146.2849066570273067
 51
268.6994892135762143
  0
LINE
  5
10FE7
  8
0
 10
455.4321816956643261
 20
81.5474381822688485
 30
0.0
 11
455.549631065764288
 21
81.5474381746835206
 31
0.0
  0
LINE
  5
10FE8
  8
0
 10
456.2646310657643198
 20
81.5474381285060872
 30
0.0
 11
456.3871310657643221
 21
81.5474381213951602
 31
0.0
  0
ARC
  5
10FE9
  8
0
 10
456.3859712082376063
 20
81.5980197020404034
 30
0.0
 40
0.0505948769150675
 50
271.313586813524978
 51
33.7315466514789932
  0
ARC
  5
10FEA
  8
0
 10
456.4963897156046073
 20
81.6959955830590019
 30
0.0
 40
0.0977436149856295
 50
146.9611176670950101
 51
225.6379499661250065
  0
ARC
  5
10FEB
  8
0
 10
456.500095398005783
 20
81.7247682359929541
 30
0.0
 40
0.089084589906552
 50
85.4702119026205196
 51
164.0248131884823977
  0
ARC
  5
10FEC
  8
0
 10
455.7610010520099877
 20
92.5585911102664056
 30
0.0
 40
10.8290382737831106
 50
268.1886042524963045
 51
273.4594662247188239
  0
LINE
  5
10FED
  8
0
 10
457.4085869185000206
 20
83.6724859904121416
 30
0.0
 11
457.4085869185000206
 21
81.3224381780951546
 31
0.0
  0
LINE
  5
10FEF
  8
0
 10
455.5397676588821128
 20
81.3881033106814584
 30
0.0
 11
455.4977148777322213
 21
81.363803980637627
 31
0.0
  0
LINE
  5
10FF0
  8
0
 10
455.4977148777322213
 20
81.363803980637627
 30
0.0
 11
455.4972623600320958
 21
81.3632770286376115
 31
0.0
  0
LINE
  5
10FF1
  8
0
 10
455.4972623600320958
 20
81.3632770286376115
 30
0.0
 11
455.4972623601320834
 21
81.3518118030267772
 31
0.0
  0
LINE
  5
10FF2
  8
0
 10
455.4977763187321784
 20
81.3512606335376063
 30
0.0
 11
455.5397676588821128
 21
81.3269934588352754
 31
0.0
  0
LINE
  5
10FF3
  8
0
 10
455.5397676588821128
 20
81.3166937036925503
 30
0.0
 11
455.4972623600320958
 21
81.2918487474376263
 31
0.0
  0
LINE
  5
10FF4
  8
0
 10
455.4972623600320958
 20
81.2918487474376263
 30
0.0
 11
455.4972623600320958
 21
81.2803750917132817
 31
0.0
  0
LINE
  5
10FF5
  8
0
 10
455.4972623600320958
 20
81.2803750917132817
 30
0.0
 11
455.5397651512320749
 21
81.2558080676132874
 31
0.0
  0
LINE
  5
10FF6
  8
0
 10
455.5397651512320749
 20
81.24524815619192
 30
0.0
 11
455.5182072854320836
 21
81.2320888976256725
 31
0.0
  0
LINE
  5
10FF7
  8
0
 10
455.5182072854320836
 20
81.2320888976256725
 30
0.0
 11
455.5528589921320872
 21
81.1974371910256707
 31
0.0
  0
LINE
  5
10FF8
  8
0
 10
455.5528589921320872
 20
81.1974371910256707
 30
0.0
 11
456.2628589921321236
 21
81.1974371910256707
 31
0.0
  0
LINE
  5
10FF9
  8
0
 10
456.2628589921321236
 20
81.1974371910256707
 30
0.0
 11
456.3177371367320916
 21
81.2523574739920349
 31
0.0
  0
LINE
  5
10FFA
  8
0
 10
455.5408218980321067
 20
81.4697917407376053
 30
0.0
 11
455.5408246528821792
 21
81.459860480299227
 31
0.0
  0
LINE
  5
10FFB
  8
0
 10
455.5397644589320976
 20
81.3990557652376054
 30
0.0
 11
455.5397676588821128
 21
81.3881033106814584
 31
0.0
  0
LINE
  5
10FFC
  8
0
 10
455.5397676588821128
 20
81.3269934588352754
 30
0.0
 11
455.5397676588821128
 21
81.3166937036925503
 31
0.0
  0
LINE
  5
10FFD
  8
0
 10
455.5503589921320895
 20
81.4974371910256536
 30
0.0
 11
455.5503589921320895
 21
81.5474372859177237
 31
0.0
  0
LINE
  5
10FFE
  8
0
 10
456.2653589921321213
 20
81.547437205416756
 30
0.0
 11
456.2653589921321213
 21
81.4974371910256536
 31
0.0
  0
LINE
  5
10FFF
  8
0
 10
455.5503589921320895
 20
81.4974371910256536
 30
0.0
 11
456.2653589921321213
 21
81.4974371910256536
 31
0.0
  0
LINE
  5
11000
  8
0
 10
455.5503589921320895
 20
81.4974371910256536
 30
0.0
 11
455.5293482475962037
 21
81.4764263793216941
 31
0.0
  0
LINE
  5
11001
  8
0
 10
455.5293482475962037
 20
81.4764263793216941
 30
0.0
 11
455.5408218980321067
 21
81.4697917407376053
 31
0.0
  0
LINE
  5
11002
  8
0
 10
455.5408246528821792
 20
81.459860480299227
 30
0.0
 11
455.4972623600320958
 21
81.434705945537587
 31
0.0
  0
LINE
  5
11003
  8
0
 10
455.4972623600320958
 20
81.434705945537587
 30
0.0
 11
455.4972623600320958
 21
81.4236482108376123
 31
0.0
  0
LINE
  5
11004
  8
0
 10
455.4972623600320958
 20
81.4236482108376123
 30
0.0
 11
455.5397644589320976
 21
81.3990557652376054
 31
0.0
  0
LINE
  5
11005
  8
0
 10
455.4977763187321784
 20
81.3512606335376063
 30
0.0
 11
455.4972623601320834
 21
81.3518118030267772
 31
0.0
  0
LINE
  5
11006
  8
0
 10
455.5397651512320749
 20
81.2558080676132874
 30
0.0
 11
455.5397651512320749
 21
81.24524815619192
 31
0.0
  0
LINE
  5
11007
  8
0
 10
456.2653589921321213
 20
81.4974371910256536
 30
0.0
 11
456.3089124873378069
 21
81.4538836958198971
 31
0.0
  0
LINE
  5
11008
  8
0
 10
456.3089124873378069
 20
81.4538836958198971
 30
0.0
 11
456.274653627732107
 21
81.4337902275716772
 31
0.0
  0
LINE
  5
11009
  8
0
 10
456.274653627732107
 20
81.4337902275716772
 30
0.0
 11
456.274653627732107
 21
81.423845297247837
 31
0.0
  0
LINE
  5
1100A
  8
0
 10
456.274653627732107
 20
81.423845297247837
 30
0.0
 11
456.3177371367320916
 21
81.3988402020716677
 31
0.0
  0
LINE
  5
1100B
  8
0
 10
456.3177371367320916
 20
81.3988402020716677
 30
0.0
 11
456.3177371367320916
 21
81.3875336755246366
 31
0.0
  0
LINE
  5
1100C
  8
0
 10
456.2746954600320919
 20
81.362442419771682
 30
0.0
 11
456.3177371367320916
 21
81.3875336755246366
 31
0.0
  0
LINE
  5
1100D
  8
0
 10
456.2746954600320919
 20
81.3524995617050877
 30
0.0
 11
456.3177371367320916
 21
81.3274120332716848
 31
0.0
  0
LINE
  5
1100E
  8
0
 10
456.3177371367320916
 20
81.3274120332716848
 30
0.0
 11
456.3177371367320916
 21
81.3160020746716867
 31
0.0
  0
LINE
  5
1100F
  8
0
 10
456.2750132775320822
 20
81.2911653398796545
 30
0.0
 11
456.3177371367320916
 21
81.3160020746716867
 31
0.0
  0
LINE
  5
11010
  8
0
 10
456.2750132775320822
 20
81.2911653398796545
 30
0.0
 11
456.2750132775320822
 21
81.2810055804716853
 31
0.0
  0
LINE
  5
11011
  8
0
 10
456.2750132775320822
 20
81.2810055804716853
 30
0.0
 11
456.3177371367320916
 21
81.2561122304655186
 31
0.0
  0
LINE
  5
11012
  8
0
 10
456.2746954600320919
 20
81.362442419771682
 30
0.0
 11
456.2746954600320919
 21
81.3524995617050877
 31
0.0
  0
LINE
  5
11013
  8
0
 10
456.3871310657643221
 20
81.5474381213951602
 30
0.0
 11
455.4321816956643261
 21
81.5474381822688485
 31
0.0
  0
LINE
  5
11014
  8
0
 10
456.3177371367320916
 20
81.2561122304655186
 30
0.0
 11
456.3177371367320916
 21
81.2523574739920349
 31
0.0
  0
LINE
  5
11015
  8
0
 10
455.6590445606321964
 20
81.4452371910256687
 30
0.0
 11
456.0905405785462108
 21
81.4456021227855445
 31
0.0
  0
LINE
  5
11016
  8
0
 10
456.2016389480320981
 20
81.4876624998256602
 30
0.0
 11
455.5408560706314915
 21
81.4702013245492651
 31
0.0
  0
LINE
  5
11017
  8
0
 10
455.5408246528821792
 20
81.459860480299227
 30
0.0
 11
456.2016389480320981
 21
81.4876624998256602
 31
0.0
  0
LINE
  5
11018
  8
0
 10
455.6590445606321964
 20
81.4452371910256687
 30
0.0
 11
456.2016389480320981
 21
81.4876624998256602
 31
0.0
  0
LINE
  5
11019
  8
0
 10
455.6590445606321964
 20
81.4452371910256687
 30
0.0
 11
455.4972623600320958
 21
81.434705945537587
 31
0.0
  0
LINE
  5
1101A
  8
0
 10
455.4972623600320958
 20
81.4236482108376123
 30
0.0
 11
456.3078194507831995
 21
81.453642399809695
 31
0.0
  0
LINE
  5
1101B
  8
0
 10
455.5397644589320976
 20
81.3990557652376054
 30
0.0
 11
456.274653627732107
 21
81.4337902275716772
 31
0.0
  0
LINE
  5
1101C
  8
0
 10
456.274653627732107
 20
81.423845297247837
 30
0.0
 11
455.5397676588821128
 21
81.3881033106814584
 31
0.0
  0
LINE
  5
1101D
  8
0
 10
455.4977148777322213
 20
81.363803980637627
 30
0.0
 11
456.3177371367320916
 21
81.3988402020716677
 31
0.0
  0
LINE
  5
1101E
  8
0
 10
456.3177371367320916
 20
81.3875336755246366
 30
0.0
 11
455.4977763187321784
 21
81.3512606335376063
 31
0.0
  0
LINE
  5
1101F
  8
0
 10
455.5397676588821128
 20
81.3269934588352754
 30
0.0
 11
456.2746954600320919
 21
81.362442419771682
 31
0.0
  0
LINE
  5
11020
  8
0
 10
456.2746954600320919
 20
81.3524995617050877
 30
0.0
 11
455.5397676588821128
 21
81.3166937036925503
 31
0.0
  0
LINE
  5
11021
  8
0
 10
455.4972623600320958
 20
81.2918487474376263
 30
0.0
 11
456.3177371367320916
 21
81.3274120332716848
 31
0.0
  0
LINE
  5
11022
  8
0
 10
455.4972623600320958
 20
81.2803750917132817
 30
0.0
 11
456.3177371367320916
 21
81.3160020746716867
 31
0.0
  0
LINE
  5
11023
  8
0
 10
456.2750132775320822
 20
81.2911653398796545
 30
0.0
 11
455.5397651512320749
 21
81.2558080676132874
 31
0.0
  0
LINE
  5
11024
  8
0
 10
455.5397651512320749
 20
81.24524815619192
 30
0.0
 11
456.2750132775320822
 21
81.2810055804716853
 31
0.0
  0
LINE
  5
11025
  8
0
 10
456.3177371367320916
 20
81.2561122304655186
 30
0.0
 11
455.5182072854320836
 21
81.2320888976256725
 31
0.0
  0
LINE
  5
11026
  8
0
 10
456.1269515089321089
 20
81.2097051377256633
 30
0.0
 11
456.2751175260759737
 21
81.2097051377256633
 31
0.0
  0
LINE
  5
11027
  8
0
 10
456.1269515089321089
 20
81.2097051377256633
 30
0.0
 11
456.3000999089322249
 21
81.2346781079256743
 31
0.0
  0
LINE
  5
11028
  8
0
 10
456.3177371367320916
 20
81.2523574739920349
 30
0.0
 11
456.1927736312545107
 21
81.2523574739920349
 31
0.0
  0
LINE
  5
11029
  8
0
 10
454.7643385190668255
 20
83.0708046106549176
 30
0.0
 11
454.7643385190668255
 21
81.9240720343052544
 31
0.0
  0
ENDSEC
  0
EOF
