  0
SECTION
  2
HEADER
  9
$ACADVER
  1
AC1009
  9
$INSBASE
 10
426.3671702194885142
 20
109.3024835543658071
 30
0.0
  9
$EXTMIN
 10
425.171724218645295
 20
105.0330806089611997
 30
-0.0000000000000058
  9
$EXTMAX
 10
427.5645798102328854
 20
109.3151804296764027
 30
0.0000000000000104
  9
$LIMMIN
 10
0.0
 20
0.0
  9
$LIMMAX
 10
11.6929133858000007
 20
8.2677165353999982
  9
$ORTHOMODE
 70
     0
  9
$REGENMODE
 70
     1
  9
$FILLMODE
 70
     1
  9
$QTEXTMODE
 70
     0
  9
$MIRRTEXT
 70
     0
  9
$DRAGMODE
 70
     2
  9
$LTSCALE
 40
0.6431102362
  9
$OSMODE
 70
  4095
  9
$ATTMODE
 70
     1
  9
$TEXTSIZE
 40
0.2
  9
$TRACEWID
 40
0.05
  9
$TEXTSTYLE
  7
STANDARD
  9
$CLAYER
  8
0
  9
$CELTYPE
  6
BYLAYER
  9
$CECOLOR
 62
   256
  9
$DIMSCALE
 40
1.0
  9
$DIMASZ
 40
0.1875
  9
$DIMEXO
 40
0.0625
  9
$DIMDLI
 40
0.4443307087
  9
$DIMRND
 40
0.0
  9
$DIMDLE
 40
0.0
  9
$DIMEXE
 40
0.125
  9
$DIMTP
 40
0.01
  9
$DIMTM
 40
0.01
  9
$DIMTXT
 40
1.0
  9
$DIMCEN
 40
0.1052362205
  9
$DIMTSZ
 40
0.0
  9
$DIMTOL
 70
     1
  9
$DIMLIM
 70
     0
  9
$DIMTIH
 70
     0
  9
$DIMTOH
 70
     1
  9
$DIMSE1
 70
     0
  9
$DIMSE2
 70
     0
  9
$DIMTAD
 70
     0
  9
$DIMZIN
 70
     0
  9
$DIMBLK
  1

  9
$DIMASO
 70
     1
  9
$DIMSHO
 70
     1
  9
$DIMPOST
  1
\X
  9
$DIMAPOST
  1

  9
$DIMALT
 70
     1
  9
$DIMALTD
 70
     2
  9
$DIMALTF
 40
25.3999999999999986
  9
$DIMLFAC
 40
1.0
  9
$DIMTOFL
 70
     0
  9
$DIMTVP
 40
0.0
  9
$DIMTIX
 70
     0
  9
$DIMSOXD
 70
     0
  9
$DIMSAH
 70
     0
  9
$DIMBLK1
  1

  9
$DIMBLK2
  1

  9
$DIMSTYLE
  2
STANDARD
  9
$DIMCLRD
 70
     0
  9
$DIMCLRE
 70
     0
  9
$DIMCLRT
 70
     0
  9
$DIMTFAC
 40
1.0
  9
$DIMGAP
 40
0.09
  9
$LUNITS
 70
     2
  9
$LUPREC
 70
     4
  9
$SKETCHINC
 40
0.1
  9
$FILLETRAD
 40
0.0
  9
$AUNITS
 70
     0
  9
$AUPREC
 70
     0
  9
$MENU
  1
.
  9
$ELEVATION
 40
0.0
  9
$PELEVATION
 40
0.0
  9
$THICKNESS
 40
0.0
  9
$LIMCHECK
 70
     0
  9
$BLIPMODE
 70
     0
  9
$CHAMFERA
 40
0.0
  9
$CHAMFERB
 40
0.0
  9
$SKPOLY
 70
     0
  9
$TDCREATE
 40
2458172.5207638889551163
  9
$TDUPDATE
 40
2459595.8960648151114583
  9
$TDINDWG
 40
0.2936661806
  9
$TDUSRTIMER
 40
0.2936661806
  9
$USRTIMER
 70
     1
  9
$ANGBASE
 50
0.0
  9
$ANGDIR
 70
     0
  9
$PDMODE
 70
     0
  9
$PDSIZE
 40
0.3125
  9
$PLINEWID
 40
0.0
  9
$COORDS
 70
     1
  9
$SPLFRAME
 70
     0
  9
$SPLINETYPE
 70
     6
  9
$SPLINESEGS
 70
     8
  9
$ATTDIA
 70
     1
  9
$ATTREQ
 70
     1
  9
$HANDLING
 70
     1
  9
$HANDSEED
  5
10E17
  9
$SURFTAB1
 70
     6
  9
$SURFTAB2
 70
     6
  9
$SURFTYPE
 70
     6
  9
$SURFU
 70
     6
  9
$SURFV
 70
     6
  9
$UCSNAME
  2

  9
$UCSORG
 10
0.0
 20
0.0
 30
0.0
  9
$UCSXDIR
 10
1.0
 20
0.0
 30
0.0
  9
$UCSYDIR
 10
0.0
 20
1.0
 30
0.0
  9
$PUCSNAME
  2

  9
$PUCSORG
 10
0.0
 20
0.0
 30
0.0
  9
$PUCSXDIR
 10
1.0
 20
0.0
 30
0.0
  9
$PUCSYDIR
 10
0.0
 20
1.0
 30
0.0
  9
$USERI1
 70
     0
  9
$USERI2
 70
     0
  9
$USERI3
 70
     0
  9
$USERI4
 70
     0
  9
$USERI5
 70
     0
  9
$USERR1
 40
0.0
  9
$USERR2
 40
0.0
  9
$USERR3
 40
0.0
  9
$USERR4
 40
0.0
  9
$USERR5
 40
0.0
  9
$WORLDVIEW
 70
     1
  9
$SHADEDGE
 70
     3
  9
$SHADEDIF
 70
    70
  9
$TILEMODE
 70
     1
  9
$MAXACTVP
 70
    64
  9
$PLIMCHECK
 70
     0
  9
$PEXTMIN
 10
1.0000000000000000E+20
 20
1.0000000000000000E+20
 30
1.0000000000000000E+20
  9
$PEXTMAX
 10
-1.0000000000000000E+20
 20
-1.0000000000000000E+20
 30
-1.0000000000000000E+20
  9
$PLIMMIN
 10
0.0
 20
0.0
  9
$PLIMMAX
 10
12.0
 20
9.0
  9
$UNITMODE
 70
     0
  9
$VISRETAIN
 70
     1
  9
$PLINEGEN
 70
     0
  9
$PSLTSCALE
 70
     1
  0
ENDSEC
  0
SECTION
  2
TABLES
  0
TABLE
  2
VPORT
 70
     1
  0
VPORT
  2
*ACTIVE
 70
     0
 10
0.0
 20
0.0
 11
1.0
 21
1.0
 12
-3.2611370936145931
 22
37.4715890071001425
 13
0.0
 23
0.0
 14
1.0
 24
1.0
 15
0.0
 25
0.0
 16
0.0
 26
0.0
 36
14.6338572656650907
 17
429.6292891080536833
 27
69.7025415122186871
 37
0.0
 40
4.3160398457143136
 41
1.67063492063492
 42
50.0
 43
0.0
 44
0.0
 50
0.0
 51
0.0
 71
     0
 72
   100
 73
     1
 74
     1
 75
     0
 76
     0
 77
     0
 78
     0
  0
ENDTAB
  0
TABLE
  2
LTYPE
 70
     2
  0
LTYPE
  2
CONTINUOUS
 70
     0
  3
Solid line
 72
    65
 73
     0
 40
0.0
  0
LTYPE
  2
PHANTOM2
 70
     0
  3
___ _ _ ___ _ _ ___ _ _ ___ _ _
 72
    65
 73
     6
 40
1.25
 49
0.625
 49
-0.125
 49
0.125
 49
-0.125
 49
0.125
 49
-0.125
  0
ENDTAB
  0
TABLE
  2
LAYER
 70
     2
  0
LAYER
  2
0
 70
     0
 62
   255
  6
CONTINUOUS
  0
LAYER
  2
DEFPOINTS
 70
     0
 62
     7
  6
CONTINUOUS
  0
ENDTAB
  0
TABLE
  2
STYLE
 70
     1
  0
STYLE
  2
STANDARD
 70
     0
 40
0.0
 41
0.8
 50
0.0
 71
     0
 42
0.2
  3
txt
  4

  0
ENDTAB
  0
TABLE
  2
VIEW
 70
     0
  0
ENDTAB
  0
TABLE
  2
UCS
 70
     0
  0
ENDTAB
  0
TABLE
  2
APPID
 70
    10
  0
APPID
  2
ACAD
 70
     0
  0
APPID
  2
ACAD_MLEADERVER
 70
     0
  0
APPID
  2
ACAD_EXEMPT_FROM_CAD_STANDARDS
 70
     0
  0
APPID
  2
ACAD_DSTYLE_DIMJAG
 70
     0
  0
APPID
  2
ACAD_DSTYLE_DIMTALN
 70
     0
  0
APPID
  2
ACAD_NAV_VCDISPLAY
 70
     0
  0
APPID
  2
ACAECLAYERSTANDARD
 70
     0
  0
APPID
  2
ACCMTRANSPARENCY
 70
     0
  0
APPID
  2
DCO15
 70
     0
  0
APPID
  2
ACDBATTR
 70
     0
  0
ENDTAB
  0
TABLE
  2
DIMSTYLE
 70
     1
  0
DIMSTYLE
  2
STANDARD
 70
     0
  3

  4

  5

  6

  7

 40
1.0
 41
0.1875
 42
0.0625
 43
0.38
 44
0.125
 45
0.0
 46
0.0
 47
0.01
 48
0.01
140
0.15625
141
0.09
142
0.0
143
25.3999999999999986
144
1.0
145
0.0
146
1.0
147
0.09
 71
     1
 72
     0
 73
     1
 74
     1
 75
     0
 76
     0
 77
     0
 78
     4
170
     0
171
     2
172
     0
173
     0
174
     0
175
     0
176
     0
177
     0
178
     0
  0
ENDTAB
  0
ENDSEC
  0
SECTION
  2
BLOCKS
  0
BLOCK
  8
0
  2
$MODEL_SPACE
 70
     0
 10
0.0
 20
0.0
 30
0.0
  3
$MODEL_SPACE
  1

  0
ENDBLK
  5
21
  8
0
  0
BLOCK
 67
     1
  8
0
  2
$PAPER_SPACE
 70
     0
 10
0.0
 20
0.0
 30
0.0
  3
$PAPER_SPACE
  1

  0
ENDBLK
  5
1D
 67
     1
  8
0
  0
ENDSEC
  0
SECTION
  2
ENTITIES
  0
ATTDEF
  5
FFEB
  8
DEFPOINTS
 10
426.3638535879792926
 20
109.3074040916013985
 30
0.0
 40
0.001
  1
K-72797
  3

  2
MODELNUMBER
 70
     0
1001
ACDBATTR
1070
     0
1070
     1
  0
ATTDEF
  5
FFEC
  8
DEFPOINTS
 10
426.3638535879792926
 20
109.3057374249348044
 30
0.0
 40
0.001
  1
ARTIFACTS
  3

  2
TRADENAME
 70
     0
1001
ACDBATTR
1070
     0
1070
     1
  0
ATTDEF
  5
FFED
  8
DEFPOINTS
 10
426.3638535879792926
 20
109.3040707582680966
 30
0.0
 40
0.001
  1
SUPPLY ELBOW
  3

  2
PRODUCT
 70
     0
1001
ACDBATTR
1070
     0
1070
     1
  0
LINE
  5
10D2C
  8
0
 10
425.1921213073621857
 20
109.3024835543658071
 30
0.0
 11
425.1921213073621857
 21
109.1424835543656968
 31
0.0
  0
ARC
  5
10D2D
  8
0
 10
425.222204871249005
 20
109.1425672154400957
 30
0.0
 40
0.0300836802154739
 50
180.1593366440420141
 51
269.9353666917929786
  0
ARC
  5
10D2E
  8
0
 10
425.2561655436293222
 20
109.0824782776531947
 30
0.0
 40
0.0300052767839193
 50
4.3646066910256929
 51
89.9960489874660254
  0
ARC
  5
10D2F
  8
0
 10
425.5034222887996975
 20
109.0932682576844996
 30
0.0
 40
0.2175048904960971
 50
182.2413750709895908
 51
234.4151798587373889
  0
ARC
  5
10D30
  8
0
 10
425.5861517288320783
 20
109.2023833794479941
 30
0.0
 40
0.3544044027968849
 50
233.8032226175301105
 51
257.9338108227616999
  0
ARC
  5
10D31
  8
0
 10
425.504670051610276
 20
108.826734699943799
 30
0.0
 40
0.0300002898836061
 50
0.0004897250442126
 51
75.7268070074352835
  0
LINE
  5
10D32
  8
0
 10
425.5346703414928129
 20
108.8267349563656978
 30
0.0
 11
425.5346703414928129
 21
108.7766879845651999
 31
0.0
  0
ARC
  5
10D33
  8
0
 10
425.5646694866650819
 20
108.7766875146544976
 30
0.0
 40
0.0299991451759751
 50
179.9991025110595899
 51
223.5618504636491934
  0
ARC
  5
10D34
  8
0
 10
425.2035561331347253
 20
108.4170482976723946
 30
0.0
 40
0.4796594219415668
 50
347.7305444446681122
 51
44.9654232971662182
  0
ARC
  5
10D35
  8
0
 10
427.4692697361953151
 20
107.7889114593036055
 30
0.0
 40
1.872468043286867
 50
163.6787914657535907
 51
179.9803531242220913
  0
ARC
  5
10D36
  8
0
 10
427.7279902283942761
 20
108.0873223541816941
 30
0.0
 40
2.171105875160233
 50
192.9389441558832061
 51
204.5591688885122039
  0
ARC
  5
10D37
  8
0
 10
425.5063054479301172
 20
107.0897937437708975
 30
0.0
 40
0.2646855977479364
 50
337.307478330132426
 51
21.0675146335472405
  0
ARC
  5
10D38
  8
0
 10
425.7771702194385739
 20
106.973942485165793
 30
0.0
 40
0.0299999999999925
 50
152.7432430165245876
 51
180.0000000000015916
  0
LINE
  5
10D39
  8
0
 10
425.7471702194384875
 20
106.973942485165793
 30
0.0
 11
425.7471702194384875
 21
106.932528739865802
 31
0.0
  0
ARC
  5
10D3A
  8
0
 10
425.7171702194385148
 20
106.932528739865802
 30
0.0
 40
0.029999999999997
 50
289.3761801516948822
 51
359.9999926061062183
  0
LINE
  5
10D3B
  8
0
 10
425.7271232886203052
 20
106.9042279198447005
 30
0.0
 11
425.7021412504385012
 21
106.8954049872657066
 31
0.0
  0
ARC
  5
10D3C
  8
0
 10
425.7145468330265885
 20
106.8654545872397961
 30
0.0
 40
0.0324179725008473
 50
112.4995439369232031
 51
177.101218622054688
  0
LINE
  5
10D3D
  8
0
 10
425.6821703414930198
 20
106.8670940191658048
 30
0.0
 11
425.6821703414930198
 21
106.7391435956656949
 31
0.0
  0
LINE
  5
10D3E
  8
0
 10
425.6821703414930198
 20
106.7391435951657002
 30
0.0
 11
425.6821703414930198
 21
106.7198730894656933
 31
0.0
  0
ARC
  5
10D3F
  8
0
 10
425.7121700532533737
 20
106.7198328185885998
 30
0.0
 40
0.0299997387897716
 50
179.9230875972162949
 51
250.4682688703094868
  0
LINE
  5
10D40
  8
0
 10
425.7021408107386264
 20
106.6915608821658026
 30
0.0
 11
425.793795853238521
 21
106.6596940209658015
 31
0.0
  0
ARC
  5
10D41
  8
0
 10
425.7841510761392101
 20
106.6312847116165017
 30
0.0
 40
0.0300018429933527
 50
10.2122464244825792
 51
71.2479817449376753
  0
ARC
  5
10D42
  8
0
 10
426.0695676325988188
 20
106.6826506560708054
 30
0.0
 40
0.2600000039806636
 50
190.2010594299692912
 51
234.7907727261028015
  0
ARC
  5
10D43
  8
0
 10
425.9543637186309866
 20
106.5194594923477069
 30
0.0
 40
0.0602419211541997
 50
234.8264005315081988
 51
271.571933043356978
  0
LINE
  5
10D44
  8
0
 10
425.9560162729384842
 20
106.4592402418657002
 30
0.0
 11
426.7800855901385262
 21
106.4592402418657002
 31
0.0
  0
LINE
  5
10D45
  8
0
 10
427.5422191316148997
 20
109.3024835543658071
 30
0.0
 11
427.5422191316148997
 21
109.1432115119091009
 31
0.0
  0
ARC
  5
10D46
  8
0
 10
427.5110703872726958
 20
109.1436155225173934
 30
0.0
 40
0.0311513643146525
 50
272.0219925119491791
 51
359.256894449947481
  0
ARC
  5
10D47
  8
0
 10
427.477179459027127
 20
109.0835145197784044
 30
0.0
 40
0.0289860611870208
 50
88.0360598334515032
 51
176.2078784708859018
  0
ARC
  5
10D48
  8
0
 10
427.2315544770935958
 20
109.0933575266978011
 30
0.0
 40
0.2168472826475045
 50
305.5800589729404919
 51
357.9053207852757055
  0
ARC
  5
10D49
  8
0
 10
427.1428671397480912
 20
109.2121170534835954
 30
0.0
 40
0.365049215231944
 50
282.5636217238063068
 51
306.0557367271645717
  0
ARC
  5
10D4A
  8
0
 10
427.2296606922790829
 20
108.8267424892368069
 30
0.0
 40
0.0299903517319851
 50
104.2589116301731025
 51
180.0143913525062089
  0
LINE
  5
10D4B
  8
0
 10
427.1996703414931744
 20
108.8267349563656978
 30
0.0
 11
427.1996703414931744
 21
108.7766879845656973
 31
0.0
  0
ARC
  5
10D4C
  8
0
 10
427.1696888467193958
 20
108.7766807184406019
 30
0.0
 40
0.0299814956542191
 50
316.4239963691533148
 51
0.0138858419211942
  0
ARC
  5
10D4D
  8
0
 10
427.5172778502184769
 20
108.4210101435207037
 30
0.0
 40
0.4673520238438072
 50
134.2080496293345107
 51
193.0959820203536026
  0
ARC
  5
10D4E
  8
0
 10
425.2783472714928052
 20
107.7908361741776986
 30
0.0
 40
1.859186569783849
 50
359.9604720151546076
 51
16.3792645800898384
  0
ARC
  5
10D4F
  8
0
 10
425.9243744817941888
 20
107.8044917149805997
 30
0.0
 40
1.213250883888584
 50
333.1402686243063727
 51
359.2945264776608951
  0
ARC
  5
10D50
  8
0
 10
426.9571702194385239
 20
106.9739424851656935
 30
0.0
 40
0.0300000000000376
 50
0.0000000000065138
 51
27.256749252205271
  0
LINE
  5
10D51
  8
0
 10
426.9871702194384966
 20
106.9739424851656935
 30
0.0
 11
426.9871702194384966
 21
106.932528739865802
 31
0.0
  0
ARC
  5
10D52
  8
0
 10
427.0171702194385261
 20
106.932528739865802
 30
0.0
 40
0.0299999999999923
 50
179.9999999999951115
 51
250.6238198483121096
  0
LINE
  5
10D53
  8
0
 10
427.0072171502567926
 20
106.9042279198447005
 30
0.0
 11
427.0322001639385121
 21
106.8954077382658028
 31
0.0
  0
ARC
  5
10D54
  8
0
 10
427.0197846045012966
 20
106.865451296873502
 30
0.0
 40
0.0324273726507065
 50
2.9037615452604699
 51
67.4882546761679407
  0
LINE
  5
10D55
  8
0
 10
427.0521703414930244
 20
106.8670940191658048
 30
0.0
 11
427.0521703414930244
 21
106.7391435061666982
 31
0.0
  0
LINE
  5
10D56
  8
0
 10
427.0521703414930244
 20
106.7391435061666982
 30
0.0
 11
427.0521703414930244
 21
106.7198730905656987
 31
0.0
  0
ARC
  5
10D57
  8
0
 10
427.0198433828060161
 20
106.7214743542956938
 30
0.0
 40
0.0323665923984135
 50
292.4437221533131037
 51
357.1642637221249856
  0
LINE
  5
10D58
  8
0
 10
427.0322001639385121
 20
106.6915593703656953
 30
0.0
 11
426.9405373008983133
 21
106.6596910076683002
 31
0.0
  0
ARC
  5
10D59
  8
0
 10
426.9501876379978853
 20
106.6312855330259026
 30
0.0
 40
0.0299999999299659
 50
108.7644278007092993
 51
169.7978829883782055
  0
ARC
  5
10D5A
  8
0
 10
426.6647730423237022
 20
106.6826505051414955
 30
0.0
 40
0.259999744506279
 50
305.209203954187501
 51
349.7979060596330214
  0
ARC
  5
10D5B
  8
0
 10
426.7800855901385262
 20
106.5192402418657025
 30
0.0
 40
0.0599999999999792
 50
269.9999999999935199
 51
305.209227031838509
  0
LINE
  5
10D5C
  8
0
 10
425.2221709349385037
 20
109.1124835543657952
 30
0.0
 11
427.5121695040385248
 21
109.1124835543657952
 31
0.0
  0
LINE
  5
10D5D
  8
0
 10
425.5120664919401179
 20
108.8558089164173026
 30
0.0
 11
427.222273946936923
 21
108.8558089164173026
 31
0.0
  0
ARC
  5
10D5E
  8
0
 10
427.1946310643627953
 20
107.084444994421105
 30
0.0
 40
0.2319404082447334
 50
166.4257469972997114
 51
204.6572884446476053
  0
ARC
  5
10D5F
  8
0
 10
427.5914588627554167
 20
107.0045911614023026
 30
0.0
 40
0.6366146349336179
 50
156.7064422977236973
 51
167.8221883497793101
  0
LINE
  5
10D60
  8
0
 10
425.5346703414928129
 20
108.7766879845651999
 30
0.0
 11
427.1996703414931744
 21
108.7766801071830969
 31
0.0
  0
LINE
  5
10D61
  8
0
 10
425.7271128234385742
 20
106.9042234682657977
 30
0.0
 11
427.0072276154385804
 21
106.9042234682657977
 31
0.0
  0
LINE
  5
10D62
  8
0
 10
425.7471702194384875
 20
106.973942485165793
 30
0.0
 11
426.9871702194384966
 21
106.9739424851656935
 31
0.0
  0
LINE
  5
10D63
  8
0
 10
425.7479683319884884
 20
106.6756274515658021
 30
0.0
 11
426.9863687324183843
 21
106.6756251890169978
 31
0.0
  0
ARC
  5
10D64
  8
0
 10
425.7129099896977777
 20
106.8470159074496024
 30
0.0
 40
0.0307502576164771
 50
109.2524004849820045
 51
178.494879091382586
  0
ARC
  5
10D65
  8
0
 10
425.8973699962049864
 20
105.8660642033330959
 30
0.0
 40
1.028558116611092
 50
79.176651364567519
 51
100.9058557849753015
  0
ARC
  5
10D66
  8
0
 10
425.7137134246979144
 20
106.7405371812640027
 30
0.0
 40
0.0315738527943537
 50
182.529705513796614
 51
249.7217505172243932
  0
ARC
  5
10D67
  8
0
 10
425.8973647741449895
 20
107.7208138949032019
 30
0.0
 40
1.028470740812147
 50
259.0934720021994053
 51
280.8245827071216922
  0
ARC
  5
10D68
  8
0
 10
426.1107033310005932
 20
106.8445419019026019
 30
0.0
 40
0.0376532845020437
 50
122.4241818802289004
 51
174.5755278341252108
  0
ARC
  5
10D69
  8
0
 10
426.367170219788477
 20
104.8801422860174029
 30
0.0
 40
2.0152628493021481
 50
82.1094990837086414
 51
97.8905009162913444
  0
ARC
  5
10D6A
  8
0
 10
426.8369720446569886
 20
105.8660470633001012
 30
0.0
 40
1.0285752524299141
 50
79.0943953834238584
 51
100.8232569586792948
  0
ARC
  5
10D6B
  8
0
 10
427.0206873335475848
 20
106.846473224208296
 30
0.0
 40
0.0315119527090911
 50
2.4559426705671288
 51
69.7973231412960189
  0
ARC
  5
10D6C
  8
0
 10
426.367170218777801
 20
108.7064305626769993
 30
0.0
 40
2.0148713433208219
 50
262.1079598318694934
 51
277.8920401888419178
  0
ARC
  5
10D6D
  8
0
 10
426.8370051305918196
 20
107.679604149263497
 30
0.0
 40
0.9880303224906821
 50
258.7249328664971131
 51
281.3570133121277763
  0
ARC
  5
10D6E
  8
0
 10
427.0206528558597938
 20
106.7405185963032039
 30
0.0
 40
0.0315474685754558
 50
290.2459237755156778
 51
357.5018017548391072
  0
LINE
  5
10D6F
  8
0
 10
426.0732186466385087
 20
106.8481012881656937
 30
0.0
 11
426.0732186574385878
 21
106.7388657119658006
 31
0.0
  0
ARC
  5
10D70
  8
0
 10
426.1085094644082005
 20
106.7410819403021947
 30
0.0
 40
0.0353603269867446
 50
183.5934003711610956
 51
239.4090559509996012
  0
LINE
  5
10D71
  8
0
 10
426.0905142762384799
 20
106.8763251034658026
 30
0.0
 11
426.0942747727385154
 21
106.8481013951272018
 31
0.0
  0
LINE
  5
10D72
  8
0
 10
426.0942747727385154
 20
106.8481013951272018
 30
0.0
 11
426.0942747727385154
 21
106.7388657132656959
 31
0.0
  0
LINE
  5
10D73
  8
0
 10
426.0942747727385154
 20
106.7388657132656959
 30
0.0
 11
426.090514404338478
 21
106.7106429761657012
 31
0.0
  0
LINE
  5
10D74
  8
0
 10
426.6438261633385878
 20
106.8763251034658026
 30
0.0
 11
426.6400656662385131
 21
106.8481013953658021
 31
0.0
  0
LINE
  5
10D75
  8
0
 10
426.6400656662385131
 20
106.8481013953658021
 30
0.0
 11
426.6400656942385012
 21
106.7388658209656995
 31
0.0
  0
LINE
  5
10D76
  8
0
 10
426.6400656942385012
 20
106.7388658209656995
 30
0.0
 11
426.6438260339385238
 21
106.7106429762658024
 31
0.0
  0
ARC
  5
10D77
  8
0
 10
426.6236413724723207
 20
106.742423779216395
 30
0.0
 40
0.0376489042953117
 50
302.4204955272192024
 51
354.5770843584867862
  0
LINE
  5
10D78
  8
0
 10
426.66112178143851
 20
106.7388658209656995
 30
0.0
 11
426.6611223396486139
 21
106.8481012877629013
 31
0.0
  0
ARC
  5
10D79
  8
0
 10
426.6236174051015269
 20
106.8445290841460036
 30
0.0
 40
0.0376746699263905
 50
5.4407939208629061
 51
57.5609764858441508
  0
LINE
  5
10D7A
  8
0
 10
426.2071702194385239
 20
106.4443567317590009
 30
0.0
 11
426.2071702401385096
 21
106.3277936116656974
 31
0.0
  0
ARC
  5
10D7B
  8
0
 10
426.1471702194385216
 20
106.4443567317656942
 30
0.0
 40
0.0600000000000159
 50
0.0000000000032569
 51
14.3626540069688708
  0
ARC
  5
10D7C
  8
0
 10
426.1275921889056235
 20
106.3169316109687941
 30
0.0
 40
0.0803159342669535
 50
312.6356512379912829
 51
7.7725512470873603
  0
LINE
  5
10D7D
  8
0
 10
426.5271696242654116
 20
106.4443503349434934
 30
0.0
 11
426.5271649433519201
 21
106.3277872149442942
 31
0.0
  0
ARC
  5
10D7E
  8
0
 10
426.5872714066052254
 20
106.4443415451007979
 30
0.0
 40
0.0601017829825674
 50
165.6472469591845993
 51
179.991620526833799
  0
ARC
  5
10D7F
  8
0
 10
426.606702599473806
 20
106.3169178239661932
 30
0.0
 40
0.0802769107626936
 50
172.2183234303005008
 51
227.3785845289714018
  0
ARC
  5
10D80
  8
0
 10
426.367851540930701
 20
105.6619959355827945
 30
0.0
 40
0.6226280704573375
 50
212.1456246904479883
 51
147.5816879025312005
  0
ARC
  5
10D81
  8
0
 10
426.367170219438492
 20
105.6626835543656995
 30
0.0
 40
0.4059059670999999
 50
228.8631153975194081
 51
131.1996610386889017
  0
ARC
  5
10D82
  8
0
 10
425.8562451861163822
 20
105.9877941629770959
 30
0.0
 40
0.0161105139511615
 50
150.2652620559377112
 51
217.2745069207132929
  0
LINE
  5
10D83
  8
0
 10
425.8688797777884929
 20
105.9677510253157067
 30
0.0
 11
426.0853349647384789
 21
105.9629507516657014
 31
0.0
  0
ARC
  5
10D84
  8
0
 10
426.0850494589528807
 20
105.9866806153094956
 30
0.0
 40
0.0237315811125936
 50
270.6893207450418117
 51
308.4485867874391829
  0
ARC
  5
10D85
  8
0
 10
425.8621122757199942
 20
105.991692297160597
 30
0.0
 40
0.0231444561227871
 50
216.156967061422705
 51
265.8147459926162242
  0
LINE
  5
10D86
  8
0
 10
425.8604231581385875
 20
105.9686095605157021
 30
0.0
 11
425.8688797777884929
 21
105.9677510253157067
 31
0.0
  0
ARC
  5
10D87
  8
0
 10
425.8599556478040995
 20
105.336017794739405
 30
0.0
 40
0.0199989244975633
 50
122.9542685959933976
 51
195.3839306433114018
  0
ARC
  5
10D88
  8
0
 10
425.8647435511903154
 20
105.3271438303088985
 30
0.0
 40
0.030060490290569
 50
91.1487033657794967
 51
121.4109485199096952
  0
LINE
  5
10D89
  8
0
 10
425.8641409191384923
 20
105.357198279415698
 30
0.0
 11
425.9171967077385261
 21
105.3598304558658043
 31
0.0
  0
LINE
  5
10D8A
  8
0
 10
425.9171967077385261
 20
105.3598304558658043
 30
0.0
 11
426.0853349647384789
 21
105.3624163569656957
 31
0.0
  0
ARC
  5
10D8B
  8
0
 10
426.0850316917134819
 20
105.3387120300434958
 30
0.0
 40
0.0237062668796088
 50
50.4056617435206817
 51
89.2669981123097358
  0
LINE
  5
10D8C
  8
0
 10
425.1921213073621857
 20
109.3024835543658071
 30
0.0
 11
427.5422191316148997
 21
109.3024835543658071
 31
0.0
  0
ARC
  5
10D8E
  8
0
 10
427.8292987822529199
 20
107.8750030517456935
 30
0.0
 40
2.2341316842476031
 50
182.1919438495141037
 51
187.0399612507222002
  0
ENDSEC
  0
EOF
