  0
SECTION
  2
HEADER
  9
$ACADVER
  1
AC1009
  9
$INSBASE
 10
432.2291032225265894
 20
83.4737532205140838
 30
0.0
  9
$EXTMIN
 10
431.0506558835094779
 20
82.1677727872392722
 30
-0.0000000349181948
  9
$EXTMAX
 10
433.4149878943994167
 20
84.6509251191565113
 30
0.0000000814935746
  9
$LIMMIN
 10
0.0
 20
0.0
  9
$LIMMAX
 10
11.6929133858000007
 20
8.2677165353999982
  9
$ORTHOMODE
 70
     0
  9
$REGENMODE
 70
     1
  9
$FILLMODE
 70
     1
  9
$QTEXTMODE
 70
     0
  9
$MIRRTEXT
 70
     0
  9
$DRAGMODE
 70
     2
  9
$LTSCALE
 40
0.6431102362
  9
$OSMODE
 70
  4095
  9
$ATTMODE
 70
     1
  9
$TEXTSIZE
 40
0.2
  9
$TRACEWID
 40
0.05
  9
$TEXTSTYLE
  7
STANDARD
  9
$CLAYER
  8
0
  9
$CELTYPE
  6
BYLAYER
  9
$CECOLOR
 62
   256
  9
$DIMSCALE
 40
1.0
  9
$DIMASZ
 40
0.1875
  9
$DIMEXO
 40
0.0625
  9
$DIMDLI
 40
0.4443307087
  9
$DIMRND
 40
0.0
  9
$DIMDLE
 40
0.0
  9
$DIMEXE
 40
0.125
  9
$DIMTP
 40
0.01
  9
$DIMTM
 40
0.01
  9
$DIMTXT
 40
1.0
  9
$DIMCEN
 40
0.1052362205
  9
$DIMTSZ
 40
0.0
  9
$DIMTOL
 70
     1
  9
$DIMLIM
 70
     0
  9
$DIMTIH
 70
     0
  9
$DIMTOH
 70
     1
  9
$DIMSE1
 70
     0
  9
$DIMSE2
 70
     0
  9
$DIMTAD
 70
     0
  9
$DIMZIN
 70
     0
  9
$DIMBLK
  1

  9
$DIMASO
 70
     1
  9
$DIMSHO
 70
     1
  9
$DIMPOST
  1
\X
  9
$DIMAPOST
  1

  9
$DIMALT
 70
     1
  9
$DIMALTD
 70
     2
  9
$DIMALTF
 40
25.3999999999999986
  9
$DIMLFAC
 40
1.0
  9
$DIMTOFL
 70
     0
  9
$DIMTVP
 40
0.0
  9
$DIMTIX
 70
     0
  9
$DIMSOXD
 70
     0
  9
$DIMSAH
 70
     0
  9
$DIMBLK1
  1

  9
$DIMBLK2
  1

  9
$DIMSTYLE
  2
STANDARD
  9
$DIMCLRD
 70
     0
  9
$DIMCLRE
 70
     0
  9
$DIMCLRT
 70
     0
  9
$DIMTFAC
 40
1.0
  9
$DIMGAP
 40
0.09
  9
$LUNITS
 70
     2
  9
$LUPREC
 70
     4
  9
$SKETCHINC
 40
0.1
  9
$FILLETRAD
 40
0.0
  9
$AUNITS
 70
     0
  9
$AUPREC
 70
     0
  9
$MENU
  1
.
  9
$ELEVATION
 40
0.0
  9
$PELEVATION
 40
0.0
  9
$THICKNESS
 40
0.0
  9
$LIMCHECK
 70
     0
  9
$BLIPMODE
 70
     0
  9
$CHAMFERA
 40
0.0
  9
$CHAMFERB
 40
0.0
  9
$SKPOLY
 70
     0
  9
$TDCREATE
 40
2458172.5207638889551163
  9
$TDUPDATE
 40
2459595.8959143520332873
  9
$TDINDWG
 40
0.2941522917
  9
$TDUSRTIMER
 40
0.2941522917
  9
$USRTIMER
 70
     1
  9
$ANGBASE
 50
0.0
  9
$ANGDIR
 70
     0
  9
$PDMODE
 70
     0
  9
$PDSIZE
 40
0.3125
  9
$PLINEWID
 40
0.0
  9
$COORDS
 70
     1
  9
$SPLFRAME
 70
     0
  9
$SPLINETYPE
 70
     6
  9
$SPLINESEGS
 70
     8
  9
$ATTDIA
 70
     1
  9
$ATTREQ
 70
     1
  9
$HANDLING
 70
     1
  9
$HANDSEED
  5
10FCF
  9
$SURFTAB1
 70
     6
  9
$SURFTAB2
 70
     6
  9
$SURFTYPE
 70
     6
  9
$SURFU
 70
     6
  9
$SURFV
 70
     6
  9
$UCSNAME
  2

  9
$UCSORG
 10
0.0
 20
0.0
 30
0.0
  9
$UCSXDIR
 10
1.0
 20
0.0
 30
0.0
  9
$UCSYDIR
 10
0.0
 20
1.0
 30
0.0
  9
$PUCSNAME
  2

  9
$PUCSORG
 10
0.0
 20
0.0
 30
0.0
  9
$PUCSXDIR
 10
1.0
 20
0.0
 30
0.0
  9
$PUCSYDIR
 10
0.0
 20
1.0
 30
0.0
  9
$USERI1
 70
     0
  9
$USERI2
 70
     0
  9
$USERI3
 70
     0
  9
$USERI4
 70
     0
  9
$USERI5
 70
     0
  9
$USERR1
 40
0.0
  9
$USERR2
 40
0.0
  9
$USERR3
 40
0.0
  9
$USERR4
 40
0.0
  9
$USERR5
 40
0.0
  9
$WORLDVIEW
 70
     1
  9
$SHADEDGE
 70
     3
  9
$SHADEDIF
 70
    70
  9
$TILEMODE
 70
     1
  9
$MAXACTVP
 70
    64
  9
$PLIMCHECK
 70
     0
  9
$PEXTMIN
 10
1.0000000000000000E+20
 20
1.0000000000000000E+20
 30
1.0000000000000000E+20
  9
$PEXTMAX
 10
-1.0000000000000000E+20
 20
-1.0000000000000000E+20
 30
-1.0000000000000000E+20
  9
$PLIMMIN
 10
0.0
 20
0.0
  9
$PLIMMAX
 10
12.0
 20
9.0
  9
$UNITMODE
 70
     0
  9
$VISRETAIN
 70
     1
  9
$PLINEGEN
 70
     0
  9
$PSLTSCALE
 70
     1
  0
ENDSEC
  0
SECTION
  2
TABLES
  0
TABLE
  2
VPORT
 70
     1
  0
VPORT
  2
*ACTIVE
 70
     0
 10
0.0
 20
0.0
 11
1.0
 21
1.0
 12
2.603532780900764
 22
13.7068074409791993
 13
0.0
 23
0.0
 14
1.0
 24
1.0
 15
0.0
 25
0.0
 16
0.0
 26
0.0
 36
14.6338572656650907
 17
429.6292891080536833
 27
69.7025415122186871
 37
0.0
 40
2.5028338563445871
 41
1.67063492063492
 42
50.0
 43
0.0
 44
0.0
 50
0.0
 51
0.0
 71
     0
 72
   100
 73
     1
 74
     1
 75
     0
 76
     0
 77
     0
 78
     0
  0
ENDTAB
  0
TABLE
  2
LTYPE
 70
     2
  0
LTYPE
  2
CONTINUOUS
 70
     0
  3
Solid line
 72
    65
 73
     0
 40
0.0
  0
LTYPE
  2
PHANTOM2
 70
     0
  3
___ _ _ ___ _ _ ___ _ _ ___ _ _
 72
    65
 73
     6
 40
1.25
 49
0.625
 49
-0.125
 49
0.125
 49
-0.125
 49
0.125
 49
-0.125
  0
ENDTAB
  0
TABLE
  2
LAYER
 70
     2
  0
LAYER
  2
0
 70
     0
 62
   255
  6
CONTINUOUS
  0
LAYER
  2
DEFPOINTS
 70
     0
 62
     7
  6
CONTINUOUS
  0
ENDTAB
  0
TABLE
  2
STYLE
 70
     1
  0
STYLE
  2
STANDARD
 70
     0
 40
0.0
 41
0.8
 50
0.0
 71
     0
 42
0.2
  3
txt
  4

  0
ENDTAB
  0
TABLE
  2
VIEW
 70
     0
  0
ENDTAB
  0
TABLE
  2
UCS
 70
     0
  0
ENDTAB
  0
TABLE
  2
APPID
 70
    10
  0
APPID
  2
ACAD
 70
     0
  0
APPID
  2
ACAD_MLEADERVER
 70
     0
  0
APPID
  2
ACAD_EXEMPT_FROM_CAD_STANDARDS
 70
     0
  0
APPID
  2
ACAD_DSTYLE_DIMJAG
 70
     0
  0
APPID
  2
ACAD_DSTYLE_DIMTALN
 70
     0
  0
APPID
  2
ACAD_NAV_VCDISPLAY
 70
     0
  0
APPID
  2
ACAECLAYERSTANDARD
 70
     0
  0
APPID
  2
ACCMTRANSPARENCY
 70
     0
  0
APPID
  2
DCO15
 70
     0
  0
APPID
  2
ACDBATTR
 70
     0
  0
ENDTAB
  0
TABLE
  2
DIMSTYLE
 70
     1
  0
DIMSTYLE
  2
STANDARD
 70
     0
  3

  4

  5

  6

  7

 40
1.0
 41
0.1875
 42
0.0625
 43
0.38
 44
0.125
 45
0.0
 46
0.0
 47
0.01
 48
0.01
140
0.15625
141
0.09
142
0.0
143
25.3999999999999986
144
1.0
145
0.0
146
1.0
147
0.09
 71
     1
 72
     0
 73
     1
 74
     1
 75
     0
 76
     0
 77
     0
 78
     4
170
     0
171
     2
172
     0
173
     0
174
     0
175
     0
176
     0
177
     0
178
     0
  0
ENDTAB
  0
ENDSEC
  0
SECTION
  2
BLOCKS
  0
BLOCK
  8
0
  2
$MODEL_SPACE
 70
     0
 10
0.0
 20
0.0
 30
0.0
  3
$MODEL_SPACE
  1

  0
ENDBLK
  5
21
  8
0
  0
BLOCK
 67
     1
  8
0
  2
$PAPER_SPACE
 70
     0
 10
0.0
 20
0.0
 30
0.0
  3
$PAPER_SPACE
  1

  0
ENDBLK
  5
1D
 67
     1
  8
0
  0
ENDSEC
  0
SECTION
  2
ENTITIES
  0
ATTDEF
  5
100FA
  8
DEFPOINTS
 10
432.2249142355921094
 20
83.4775593080799041
 30
0.0
 40
0.001
  1
K-72797
  3

  2
MODELNUMBER
 70
     0
1001
ACDBATTR
1070
     0
1070
     1
  0
ATTDEF
  5
100FB
  8
DEFPOINTS
 10
432.2249142355921094
 20
83.4758926414132389
 30
0.0
 40
0.001
  1
ARTIFACTS
  3

  2
TRADENAME
 70
     0
1001
ACDBATTR
1070
     0
1070
     1
  0
ATTDEF
  5
100FC
  8
DEFPOINTS
 10
432.2249142355921094
 20
83.4742259747465738
 30
0.0
 40
0.001
  1
SUPPLY ELBOW
  3

  2
PRODUCT
 70
     0
1001
ACDBATTR
1070
     0
1070
     1
  0
ARC
  5
10EDF
  8
0
 10
432.2291033352664158
 20
83.4737254460806639
 30
0.0
 40
1.0810865285094851
 50
289.7966506277224994
 51
249.8348778415818003
  0
ARC
  5
10EE0
  8
0
 10
432.2282994752749232
 20
83.4732455775686617
 30
0.0
 40
0.6191261294580214
 50
146.8630275682118906
 51
232.325163842698089
  0
ARC
  5
10EE1
  8
0
 10
432.2291033445310973
 20
83.4737283272860964
 30
0.0
 40
0.8551037279999999
 50
306.0859467823773912
 51
233.9140366344383892
  0
ARC
  5
10EE2
  8
0
 10
432.2291033445310973
 20
83.4737283272860964
 30
0.0
 40
0.7703685385000001
 50
321.1514258288784163
 51
38.4163044505698323
  0
ARC
  5
10EE3
  8
0
 10
432.2291033445310973
 20
83.4737283272860964
 30
0.0
 40
0.6199996243000001
 50
65.1292194443111185
 51
114.8707805556888957
  0
ARC
  5
10EE4
  8
0
 10
432.2291033445310973
 20
83.4737283272860964
 30
0.0
 40
0.6199996243000001
 50
339.2724900821194751
 51
4.6539895981752428
  0
ARC
  5
10EE5
  8
0
 10
432.2291033445310973
 20
83.4737283272860964
 30
0.0
 40
0.7703685385000001
 50
46.8888535333688097
 51
218.8484539817270047
  0
ARC
  5
10EE6
  8
0
 10
432.2291033445310973
 20
83.4737283272860964
 30
0.0
 40
0.6199996243000001
 50
245.1292194443111043
 51
294.8707805556888957
  0
ARC
  5
10EE7
  8
0
 10
431.7533263921541788
 20
82.5757870346301104
 30
0.0
 40
0.0520652892044198
 50
144.5171303067139092
 51
270.9106116596780112
  0
LINE
  5
10EE8
  8
0
 10
431.8615511361310269
 20
82.3466311166299363
 30
0.0
 11
431.8194983549810217
 21
82.3223317865860764
 31
0.0
  0
LINE
  5
10EE9
  8
0
 10
431.8194983549810217
 20
82.3223317865860764
 30
0.0
 11
431.8190458372811236
 21
82.3218048345860893
 31
0.0
  0
LINE
  5
10EEA
  8
0
 10
431.8190458372811236
 20
82.3218048345860893
 30
0.0
 11
431.8190458373811111
 21
82.3103396089752835
 31
0.0
  0
LINE
  5
10EEB
  8
0
 10
431.8195597959809788
 20
82.3097884394860984
 30
0.0
 11
431.8615511361310269
 21
82.2855212647837817
 31
0.0
  0
LINE
  5
10EEC
  8
0
 10
431.8615511361310269
 20
82.2752215096410282
 30
0.0
 11
431.8190458372811236
 21
82.2503765533860758
 31
0.0
  0
LINE
  5
10EED
  8
0
 10
431.8190458372811236
 20
82.2503765533860758
 30
0.0
 11
431.8190458372811236
 21
82.2389028976617737
 31
0.0
  0
LINE
  5
10EEE
  8
0
 10
431.8190458372811236
 20
82.2389028976617737
 30
0.0
 11
431.861548628480989
 21
82.2143358735617653
 31
0.0
  0
LINE
  5
10EEF
  8
0
 10
431.861548628480989
 20
82.2037759621403978
 30
0.0
 11
431.8502986887729094
 21
82.1971754757942392
 31
0.0
  0
LINE
  5
10EF0
  8
0
 10
431.8502986887729094
 20
82.1971754757942392
 30
0.0
 11
431.873745837281092
 21
82.1737283272860992
 31
0.0
  0
LINE
  5
10EF1
  8
0
 10
431.873745837281092
 20
82.1737283272860992
 30
0.0
 11
432.5837458372810147
 21
82.1737283272860992
 31
0.0
  0
LINE
  5
10EF2
  8
0
 10
432.5837458372810147
 20
82.1737283272860992
 30
0.0
 11
432.6297719053313813
 21
82.2197897366062449
 31
0.0
  0
ARC
  5
10EF3
  8
0
 10
432.7086490019111125
 20
82.5731773336128612
 30
0.0
 40
0.0494510652038301
 50
270.5250484444857761
 51
41.6033064370972383
  0
ARC
  5
10EF4
  8
0
 10
432.8079179198323914
 20
82.6774442614416927
 30
0.0
 40
0.0947780715325326
 50
161.4240680570279949
 51
228.9107148575872941
  0
LINE
  5
10EF5
  8
0
 10
431.7541538398979242
 20
82.5237283209486066
 30
0.0
 11
432.7091021564311859
 21
82.5237283447377052
 31
0.0
  0
LINE
  5
10EF6
  8
0
 10
431.8502986887729094
 20
82.1971754757942392
 30
0.0
 11
432.6297719053313813
 21
82.2197897366062449
 31
0.0
  0
LINE
  5
10EF7
  8
0
 10
431.8615511361310269
 20
82.2752215096410282
 30
0.0
 11
432.5954041605809834
 21
82.3111231418195075
 31
0.0
  0
ARC
  5
10EF8
  8
0
 10
431.6520400480612807
 20
82.6779378882810221
 30
0.0
 40
0.0929614926788357
 50
309.3080569081250246
 51
18.6335802744750616
  0
ARC
  5
10EF9
  8
0
 10
431.1070029268781241
 20
82.6231542957842748
 30
0.0
 40
0.6387430486701228
 50
7.6008136089702276
 51
35.1310799212617582
  0
ARC
  5
10EFA
  8
0
 10
433.3462794101674831
 20
82.6243491305386755
 30
0.0
 40
0.6336989853865753
 50
144.7046284946243873
 51
172.4477031473624038
  0
LINE
  5
10EFB
  8
0
 10
431.7109301946309756
 20
82.6060088276859688
 30
0.0
 11
432.7456265193141007
 21
82.6060113260063957
 31
0.0
  0
LINE
  5
10EFC
  8
0
 10
431.7401372479783959
 20
82.7076148572611061
 30
0.0
 11
432.7180775668310844
 21
82.7076368733860932
 31
0.0
  0
ARC
  5
10EFD
  8
0
 10
430.8331085247821761
 20
83.6709466520018879
 30
0.0
 40
2.0193040904035571
 50
338.9326235620944203
 51
8.0124170131094061
  0
ARC
  5
10EFE
  8
0
 10
432.7517829955446018
 20
83.9567495105024335
 30
0.0
 40
0.0794614781183817
 50
8.2175692999196688
 51
87.2572379580784343
  0
LINE
  5
10EFF
  8
0
 10
432.8326999348506092
 20
83.9524128174663247
 30
0.0
 11
432.8304285996479734
 21
83.9681071273289348
 31
0.0
  0
ARC
  5
10F00
  8
0
 10
431.8173424725911218
 20
83.9462198977307565
 30
0.0
 40
0.0901164340717436
 50
86.5221992806115026
 51
165.4689497567663921
  0
ARC
  5
10F01
  8
0
 10
433.4084029961123861
 20
83.6727200620385645
 30
0.0
 40
1.7042140650423601
 50
169.993981219114886
 51
203.8654338837588966
  0
LINE
  5
10F02
  8
0
 10
431.8499022880279199
 20
82.9832121778281078
 30
0.0
 11
431.8754509501309826
 21
82.9287595871860788
 31
0.0
  0
ARC
  5
10F03
  8
0
 10
431.907451741597697
 20
82.9491985647087375
 30
0.0
 40
0.0379710739466481
 50
212.566462570146598
 51
269.7806645877075766
  0
LINE
  5
10F04
  8
0
 10
431.9073063839310862
 20
82.9112277689860946
 30
0.0
 11
432.6831120021311108
 21
82.9112283272860964
 31
0.0
  0
ARC
  5
10F05
  8
0
 10
432.6831120021311108
 20
82.9422283272860881
 30
0.0
 40
0.0309999999999993
 50
269.9999999999968168
 51
338.5081808935995014
  0
LINE
  5
10F06
  8
0
 10
432.7119565686849114
 20
82.9308709076708652
 30
0.0
 11
432.7174390214556752
 21
82.9450764233613143
 31
0.0
  0
LINE
  5
10F07
  8
0
 10
431.5528901391310228
 20
83.7662514120860919
 30
0.0
 11
431.7250230369555766
 21
83.9383843099106883
 31
0.0
  0
LINE
  5
10F08
  8
0
 10
431.544103344531095
 20
83.7450382161860745
 30
0.0
 11
431.544103344531095
 21
83.2024184514860963
 31
0.0
  0
LINE
  5
10F09
  8
0
 10
431.5528901479240744
 20
83.1812052335930758
 30
0.0
 11
431.9351517824625262
 21
82.7989435990835148
 31
0.0
  0
LINE
  5
10F0A
  8
0
 10
431.9562078829623033
 20
82.7901572176247242
 30
0.0
 11
432.5019987913311184
 21
82.7901572175860849
 31
0.0
  0
LINE
  5
10F0B
  8
0
 10
432.5230549050310174
 20
82.798943597486101
 30
0.0
 11
432.6353396003522107
 21
82.9112282929072109
 31
0.0
  0
LINE
  5
10F0C
  8
0
 10
432.744875028880017
 20
83.0207637213350012
 30
0.0
 11
432.9053165499311149
 21
83.181205242386099
 31
0.0
  0
LINE
  5
10F0D
  8
0
 10
432.9141033445310995
 20
83.2024184508860856
 30
0.0
 11
432.9141033445310995
 21
83.7450382039860983
 31
0.0
  0
LINE
  5
10F0E
  8
0
 10
432.9053165409310964
 20
83.766251421186098
 30
0.0
 11
432.8465243099847157
 21
83.8250436520325053
 31
0.0
  0
LINE
  5
10F0F
  8
0
 10
431.8228090983311063
 20
84.0361703712861043
 30
0.0
 11
431.9351517825310225
 21
84.1485130554860916
 31
0.0
  0
ARC
  5
10F10
  8
0
 10
431.9563649820631213
 20
84.1272998486207939
 30
0.0
 40
0.029999999664934
 50
90.3000001087777662
 51
134.9999900966560915
  0
LINE
  5
10F11
  8
0
 10
431.9562079030928885
 20
84.1572994370528704
 30
0.0
 11
432.5019988193691916
 21
84.1572994368779774
 31
0.0
  0
LINE
  5
10F12
  8
0
 10
432.6353396347311104
 20
84.0362283272860964
 30
0.0
 11
432.5230549170311178
 21
84.1485130450860908
 31
0.0
  0
LINE
  5
10F13
  8
0
 10
432.7498801349311179
 20
84.0362283272860964
 30
0.0
 11
431.8240246908309814
 21
84.0362283272860964
 31
0.0
  0
ARC
  5
10F14
  8
0
 10
431.8220852888575223
 20
84.0638452667984524
 30
0.0
 40
0.0276843590903128
 50
271.4981712943935008
 51
274.0163312919714258
  0
ARC
  5
10F15
  8
0
 10
432.7509899552413231
 20
83.9444196478106619
 30
0.0
 40
0.0918153872079463
 50
87.1311059954657878
 51
90.6925807349499138
  0
ARC
  5
10F16
  8
0
 10
432.5018417069035763
 20
84.1272998481506704
 30
0.0
 40
0.0300000001355744
 50
44.9999821844615369
 51
89.6999359234528413
  0
ARC
  5
10F17
  8
0
 10
431.5741033446648771
 20
83.7450382105594713
 30
0.0
 40
0.0300000001338102
 50
135.0000054116098909
 51
179.9999892539493089
  0
ARC
  5
10F18
  8
0
 10
431.5741033446648771
 20
83.2024184439127055
 30
0.0
 40
0.0300000001338078
 50
180.0000106629316008
 51
225.000018337882608
  0
ARC
  5
10F19
  8
0
 10
431.9563649821477043
 20
82.8201568063258691
 30
0.0
 40
0.0300000000398791
 50
225.0000102057142897
 51
269.6999612861840774
  0
ARC
  5
10F1A
  8
0
 10
432.5018417070497776
 20
82.8201568062034141
 30
0.0
 40
0.029999999877993
 50
270.3000102504100255
 51
314.9999855013296042
  0
ARC
  5
10F1B
  8
0
 10
432.8841033443973174
 20
83.2024184439127055
 30
0.0
 40
0.0300000001338017
 50
315.0000054116059118
 51
359.9999893310700259
  0
ARC
  5
10F1C
  8
0
 10
432.8841033443973174
 20
83.7450382105594855
 30
0.0
 40
0.0300000001338022
 50
0.0000107460449401
 51
44.999989456594669
  0
LINE
  5
10F1D
  8
0
 10
431.8626081301309796
 20
82.4283702534005869
 30
0.0
 11
431.8626081301309796
 21
82.4183882862477333
 31
0.0
  0
LINE
  5
10F1E
  8
0
 10
431.8615479361811254
 20
82.3575835711860975
 30
0.0
 11
431.8615511361310269
 21
82.3466311166299363
 31
0.0
  0
LINE
  5
10F1F
  8
0
 10
431.8615511361310269
 20
82.2855212647837817
 30
0.0
 11
431.8615511361310269
 21
82.2752215096410282
 31
0.0
  0
LINE
  5
10F20
  8
0
 10
431.8712458372810943
 20
82.4737283272860964
 30
0.0
 11
431.8712458372810943
 21
82.5237284221781664
 31
0.0
  0
LINE
  5
10F21
  8
0
 10
432.5862458372811261
 20
82.5237283416771845
 30
0.0
 11
432.5862458372811261
 21
82.4737283272860964
 31
0.0
  0
LINE
  5
10F22
  8
0
 10
431.8712458372810943
 20
82.4737283272860964
 30
0.0
 11
432.5862458372811261
 21
82.4737283272860964
 31
0.0
  0
LINE
  5
10F23
  8
0
 10
431.8712458372810943
 20
82.4737283272860964
 30
0.0
 11
431.8393085490142198
 21
82.4417909369206541
 31
0.0
  0
LINE
  5
10F24
  8
0
 10
431.8393085490142198
 20
82.4417909369206541
 30
0.0
 11
431.8626053752810776
 21
82.4283195466860832
 31
0.0
  0
LINE
  5
10F25
  8
0
 10
431.8626107142767978
 20
82.4183897733861812
 30
0.0
 11
431.8190458372811236
 21
82.3932337514860933
 31
0.0
  0
LINE
  5
10F26
  8
0
 10
431.8190458372811236
 20
82.3932337514860933
 30
0.0
 11
431.8190458372811236
 21
82.3821760167860901
 31
0.0
  0
LINE
  5
10F27
  8
0
 10
431.8190458372811236
 20
82.3821760167860901
 30
0.0
 11
431.8615479361811254
 21
82.3575835711860975
 31
0.0
  0
LINE
  5
10F28
  8
0
 10
431.8195597959809788
 20
82.3097884394860984
 30
0.0
 11
431.8190458373811111
 21
82.3103396089752835
 31
0.0
  0
LINE
  5
10F29
  8
0
 10
431.861548628480989
 20
82.2143358735617653
 30
0.0
 11
431.861548628480989
 21
82.2037759621403978
 31
0.0
  0
LINE
  5
10F2A
  8
0
 10
432.5862458372811261
 20
82.4737283272860964
 30
0.0
 11
432.595248875416587
 21
82.464725289150536
 31
0.0
  0
LINE
  5
10F2B
  8
0
 10
432.595248875416587
 20
82.464725289150536
 30
0.0
 11
432.595248875416587
 21
82.4540357302764164
 31
0.0
  0
LINE
  5
10F2C
  8
0
 10
432.595248875416587
 20
82.4540357302764164
 30
0.0
 11
432.6244071522615968
 21
82.4355670123055688
 31
0.0
  0
LINE
  5
10F2D
  8
0
 10
432.6244071522615968
 20
82.4355670123055688
 30
0.0
 11
432.6384458372809831
 21
82.4215283272860972
 31
0.0
  0
LINE
  5
10F2E
  8
0
 10
432.6384458372809831
 20
82.4215283272860972
 30
0.0
 11
432.6384458372809831
 21
82.4176830994860836
 31
0.0
  0
LINE
  5
10F2F
  8
0
 10
432.6384458372809831
 20
82.4176830994860836
 30
0.0
 11
432.5953623282811122
 21
82.392413807686097
 31
0.0
  0
LINE
  5
10F30
  8
0
 10
432.5953623282811122
 20
82.392413807686097
 30
0.0
 11
432.5953623282811122
 21
82.3824688773622711
 31
0.0
  0
LINE
  5
10F31
  8
0
 10
432.5953623282811122
 20
82.3824688773622711
 30
0.0
 11
432.6384458372809831
 21
82.3574637821861018
 31
0.0
  0
LINE
  5
10F32
  8
0
 10
432.6384458372809831
 20
82.3574637821861018
 30
0.0
 11
432.6384458372809831
 21
82.346157255639028
 31
0.0
  0
LINE
  5
10F33
  8
0
 10
432.5954041605809834
 20
82.3210659998860876
 30
0.0
 11
432.6384458372809831
 21
82.346157255639028
 31
0.0
  0
LINE
  5
10F34
  8
0
 10
432.5954041605809834
 20
82.3111231418195075
 30
0.0
 11
432.6384458372809831
 21
82.2860356133860904
 31
0.0
  0
LINE
  5
10F35
  8
0
 10
432.6384458372809831
 20
82.2860356133860904
 30
0.0
 11
432.6384458372809831
 21
82.2746256547860781
 31
0.0
  0
LINE
  5
10F36
  8
0
 10
432.5957219780810874
 20
82.2497889199940602
 30
0.0
 11
432.6384458372809831
 21
82.2746256547860781
 31
0.0
  0
LINE
  5
10F37
  8
0
 10
432.5957219780810874
 20
82.2497889199940602
 30
0.0
 11
432.5957219780810874
 21
82.2396291605860768
 31
0.0
  0
LINE
  5
10F38
  8
0
 10
432.5957219780810874
 20
82.2396291605860768
 30
0.0
 11
432.6297719053313813
 21
82.2197897366062449
 31
0.0
  0
LINE
  5
10F39
  8
0
 10
432.5954041605809834
 20
82.3210659998860876
 30
0.0
 11
432.5954041605809834
 21
82.3111231418195075
 31
0.0
  0
LINE
  5
10F3A
  8
0
 10
431.861548628480989
 20
82.2143358735617653
 30
0.0
 11
432.5957219780810874
 21
82.2497889199940602
 31
0.0
  0
LINE
  5
10F3B
  8
0
 10
432.5957219780810874
 20
82.2396291605860768
 30
0.0
 11
431.861548628480989
 21
82.2037759621403978
 31
0.0
  0
LINE
  5
10F3C
  8
0
 10
432.6384458372809831
 20
82.2860356133860904
 30
0.0
 11
431.8190458372811236
 21
82.2503765533860758
 31
0.0
  0
LINE
  5
10F3D
  8
0
 10
431.8190458372811236
 20
82.2389028976617737
 30
0.0
 11
432.6384458372809831
 21
82.2746256547860781
 31
0.0
  0
LINE
  5
10F3E
  8
0
 10
431.8615511361310269
 20
82.2855212647837817
 30
0.0
 11
432.5954041605809834
 21
82.3210659998860876
 31
0.0
  0
LINE
  5
10F3F
  8
0
 10
432.6384458372809831
 20
82.346157255639028
 30
0.0
 11
431.8190458373811111
 21
82.3103396089752835
 31
0.0
  0
LINE
  5
10F40
  8
0
 10
431.8190458372811236
 20
82.3218048345860893
 30
0.0
 11
432.6384458372809831
 21
82.3574637821861018
 31
0.0
  0
LINE
  5
10F41
  8
0
 10
431.8615511361310269
 20
82.3466311166299363
 30
0.0
 11
432.5953623282811122
 21
82.3824688773622711
 31
0.0
  0
LINE
  5
10F42
  8
0
 10
432.5953623282811122
 20
82.392413807686097
 30
0.0
 11
431.8615479361811254
 21
82.3575835711860975
 31
0.0
  0
LINE
  5
10F43
  8
0
 10
431.8190458372811236
 20
82.3821760167860901
 30
0.0
 11
432.6384458372809831
 21
82.4176830994860836
 31
0.0
  0
LINE
  5
10F44
  8
0
 10
432.6384458372809831
 20
82.4215283272860972
 30
0.0
 11
431.8190458372811236
 21
82.3932337514860933
 31
0.0
  0
LINE
  5
10F45
  8
0
 10
431.8626107142767978
 20
82.4183897733861812
 30
0.0
 11
432.595248875416587
 21
82.4540357302764164
 31
0.0
  0
LINE
  5
10F46
  8
0
 10
431.8626081301309796
 20
82.4283702534005869
 30
0.0
 11
432.595248875416587
 21
82.464725289150536
 31
0.0
  0
LINE
  5
10F47
  8
0
 10
431.8393085490142198
 20
82.4417909369206541
 30
0.0
 11
432.2289285027737833
 21
82.4465477712755472
 31
0.0
  0
ARC
  5
10F48
  8
0
 10
432.2291032225265894
 20
83.4737532205140838
 30
0.0
 40
1.175048912126331
 50
289.5711960732621719
 51
251.7542567603935026
  0
ARC
  5
10F4A
  8
0
 10
432.2291033445310973
 20
83.4737283272860964
 30
0.0
 40
0.8325000000001276
 50
308.1354721478246006
 51
231.8633718864313096
  0
ENDSEC
  0
EOF
