  0
SECTION
  2
HEADER
  9
$ACADVER
  1
AC1009
  9
$INSBASE
 10
419.3291890373301953
 20
71.039223990278316
 30
0.0
  9
$EXTMIN
 10
418.0946952278035837
 20
69.8186484103406144
 30
-0.0000000349181948
  9
$EXTMAX
 10
420.5769887800807965
 20
72.2631783967332524
 30
0.0000000814935746
  9
$LIMMIN
 10
0.0
 20
0.0
  9
$LIMMAX
 10
11.6929133858000007
 20
8.2677165353999982
  9
$ORTHOMODE
 70
     0
  9
$REGENMODE
 70
     1
  9
$FILLMODE
 70
     1
  9
$QTEXTMODE
 70
     0
  9
$MIRRTEXT
 70
     0
  9
$DRAGMODE
 70
     2
  9
$LTSCALE
 40
0.6431102362
  9
$OSMODE
 70
  4095
  9
$ATTMODE
 70
     1
  9
$TEXTSIZE
 40
0.2
  9
$TRACEWID
 40
0.05
  9
$TEXTSTYLE
  7
STANDARD
  9
$CLAYER
  8
0
  9
$CELTYPE
  6
BYLAYER
  9
$CECOLOR
 62
   256
  9
$DIMSCALE
 40
1.0
  9
$DIMASZ
 40
0.1875
  9
$DIMEXO
 40
0.0625
  9
$DIMDLI
 40
0.4443307087
  9
$DIMRND
 40
0.0
  9
$DIMDLE
 40
0.0
  9
$DIMEXE
 40
0.125
  9
$DIMTP
 40
0.01
  9
$DIMTM
 40
0.01
  9
$DIMTXT
 40
1.0
  9
$DIMCEN
 40
0.1052362205
  9
$DIMTSZ
 40
0.0
  9
$DIMTOL
 70
     1
  9
$DIMLIM
 70
     0
  9
$DIMTIH
 70
     0
  9
$DIMTOH
 70
     1
  9
$DIMSE1
 70
     0
  9
$DIMSE2
 70
     0
  9
$DIMTAD
 70
     0
  9
$DIMZIN
 70
     0
  9
$DIMBLK
  1

  9
$DIMASO
 70
     1
  9
$DIMSHO
 70
     1
  9
$DIMPOST
  1
\X
  9
$DIMAPOST
  1

  9
$DIMALT
 70
     1
  9
$DIMALTD
 70
     2
  9
$DIMALTF
 40
25.3999999999999986
  9
$DIMLFAC
 40
1.0
  9
$DIMTOFL
 70
     0
  9
$DIMTVP
 40
0.0
  9
$DIMTIX
 70
     0
  9
$DIMSOXD
 70
     0
  9
$DIMSAH
 70
     0
  9
$DIMBLK1
  1

  9
$DIMBLK2
  1

  9
$DIMSTYLE
  2
STANDARD
  9
$DIMCLRD
 70
     0
  9
$DIMCLRE
 70
     0
  9
$DIMCLRT
 70
     0
  9
$DIMTFAC
 40
1.0
  9
$DIMGAP
 40
0.09
  9
$LUNITS
 70
     2
  9
$LUPREC
 70
     4
  9
$SKETCHINC
 40
0.1
  9
$FILLETRAD
 40
0.0
  9
$AUNITS
 70
     0
  9
$AUPREC
 70
     0
  9
$MENU
  1
.
  9
$ELEVATION
 40
0.0
  9
$PELEVATION
 40
0.0
  9
$THICKNESS
 40
0.0
  9
$LIMCHECK
 70
     0
  9
$BLIPMODE
 70
     0
  9
$CHAMFERA
 40
0.0
  9
$CHAMFERB
 40
0.0
  9
$SKPOLY
 70
     0
  9
$TDCREATE
 40
2458172.5207638889551163
  9
$TDUPDATE
 40
2459578.6891898149624467
  9
$TDINDWG
 40
0.2956221991
  9
$TDUSRTIMER
 40
0.2956221991
  9
$USRTIMER
 70
     1
  9
$ANGBASE
 50
0.0
  9
$ANGDIR
 70
     0
  9
$PDMODE
 70
     0
  9
$PDSIZE
 40
0.3125
  9
$PLINEWID
 40
0.0
  9
$COORDS
 70
     1
  9
$SPLFRAME
 70
     0
  9
$SPLINETYPE
 70
     6
  9
$SPLINESEGS
 70
     8
  9
$ATTDIA
 70
     1
  9
$ATTREQ
 70
     1
  9
$HANDLING
 70
     1
  9
$HANDSEED
  5
EFD9
  9
$SURFTAB1
 70
     6
  9
$SURFTAB2
 70
     6
  9
$SURFTYPE
 70
     6
  9
$SURFU
 70
     6
  9
$SURFV
 70
     6
  9
$UCSNAME
  2

  9
$UCSORG
 10
0.0
 20
0.0
 30
0.0
  9
$UCSXDIR
 10
1.0
 20
0.0
 30
0.0
  9
$UCSYDIR
 10
0.0
 20
1.0
 30
0.0
  9
$PUCSNAME
  2

  9
$PUCSORG
 10
0.0
 20
0.0
 30
0.0
  9
$PUCSXDIR
 10
1.0
 20
0.0
 30
0.0
  9
$PUCSYDIR
 10
0.0
 20
1.0
 30
0.0
  9
$USERI1
 70
     0
  9
$USERI2
 70
     0
  9
$USERI3
 70
     0
  9
$USERI4
 70
     0
  9
$USERI5
 70
     0
  9
$USERR1
 40
0.0
  9
$USERR2
 40
0.0
  9
$USERR3
 40
0.0
  9
$USERR4
 40
0.0
  9
$USERR5
 40
0.0
  9
$WORLDVIEW
 70
     1
  9
$SHADEDGE
 70
     3
  9
$SHADEDIF
 70
    70
  9
$TILEMODE
 70
     1
  9
$MAXACTVP
 70
    64
  9
$PLIMCHECK
 70
     0
  9
$PEXTMIN
 10
1.0000000000000000E+20
 20
1.0000000000000000E+20
 30
1.0000000000000000E+20
  9
$PEXTMAX
 10
-1.0000000000000000E+20
 20
-1.0000000000000000E+20
 30
-1.0000000000000000E+20
  9
$PLIMMIN
 10
0.0
 20
0.0
  9
$PLIMMAX
 10
12.0
 20
9.0
  9
$UNITMODE
 70
     0
  9
$VISRETAIN
 70
     1
  9
$PLINEGEN
 70
     0
  9
$PSLTSCALE
 70
     1
  0
ENDSEC
  0
SECTION
  2
TABLES
  0
TABLE
  2
VPORT
 70
     1
  0
VPORT
  2
*ACTIVE
 70
     0
 10
0.0
 20
0.0
 11
1.0
 21
1.0
 12
-10.2934471041114595
 22
1.3383718913182461
 13
0.0
 23
0.0
 14
1.0
 24
1.0
 15
0.0
 25
0.0
 16
0.0
 26
0.0
 36
14.6338572656650907
 17
429.6292891080536833
 27
69.7025415122186871
 37
0.0
 40
2.4639053891909941
 41
1.67063492063492
 42
50.0
 43
0.0
 44
0.0
 50
0.0
 51
0.0
 71
     0
 72
   100
 73
     1
 74
     1
 75
     0
 76
     0
 77
     0
 78
     0
  0
ENDTAB
  0
TABLE
  2
LTYPE
 70
     2
  0
LTYPE
  2
CONTINUOUS
 70
     0
  3
Solid line
 72
    65
 73
     0
 40
0.0
  0
LTYPE
  2
PHANTOM2
 70
     0
  3
___ _ _ ___ _ _ ___ _ _ ___ _ _
 72
    65
 73
     6
 40
1.25
 49
0.625
 49
-0.125
 49
0.125
 49
-0.125
 49
0.125
 49
-0.125
  0
ENDTAB
  0
TABLE
  2
LAYER
 70
     2
  0
LAYER
  2
0
 70
     0
 62
   255
  6
CONTINUOUS
  0
LAYER
  2
DEFPOINTS
 70
     0
 62
     7
  6
CONTINUOUS
  0
ENDTAB
  0
TABLE
  2
STYLE
 70
     1
  0
STYLE
  2
STANDARD
 70
     0
 40
0.0
 41
0.8
 50
0.0
 71
     0
 42
0.2
  3
txt
  4

  0
ENDTAB
  0
TABLE
  2
VIEW
 70
     0
  0
ENDTAB
  0
TABLE
  2
UCS
 70
     0
  0
ENDTAB
  0
TABLE
  2
APPID
 70
    10
  0
APPID
  2
ACAD
 70
     0
  0
APPID
  2
ACAD_MLEADERVER
 70
     0
  0
APPID
  2
ACAD_EXEMPT_FROM_CAD_STANDARDS
 70
     0
  0
APPID
  2
ACAD_DSTYLE_DIMJAG
 70
     0
  0
APPID
  2
ACAD_DSTYLE_DIMTALN
 70
     0
  0
APPID
  2
ACAD_NAV_VCDISPLAY
 70
     0
  0
APPID
  2
ACAECLAYERSTANDARD
 70
     0
  0
APPID
  2
ACCMTRANSPARENCY
 70
     0
  0
APPID
  2
DCO15
 70
     0
  0
APPID
  2
ACDBATTR
 70
     0
  0
ENDTAB
  0
TABLE
  2
DIMSTYLE
 70
     1
  0
DIMSTYLE
  2
STANDARD
 70
     0
  3

  4

  5

  6

  7

 40
1.0
 41
0.1875
 42
0.0625
 43
0.38
 44
0.125
 45
0.0
 46
0.0
 47
0.01
 48
0.01
140
0.15625
141
0.09
142
0.0
143
25.3999999999999986
144
1.0
145
0.0
146
1.0
147
0.09
 71
     1
 72
     0
 73
     1
 74
     1
 75
     0
 76
     0
 77
     0
 78
     4
170
     0
171
     2
172
     0
173
     0
174
     0
175
     0
176
     0
177
     0
178
     0
  0
ENDTAB
  0
ENDSEC
  0
SECTION
  2
BLOCKS
  0
BLOCK
  8
0
  2
$MODEL_SPACE
 70
     0
 10
0.0
 20
0.0
 30
0.0
  3
$MODEL_SPACE
  1

  0
ENDBLK
  5
21
  8
0
  0
BLOCK
 67
     1
  8
0
  2
$PAPER_SPACE
 70
     0
 10
0.0
 20
0.0
 30
0.0
  3
$PAPER_SPACE
  1

  0
ENDBLK
  5
1D
 67
     1
  8
0
  0
BLOCK
  8
0
  2
_FILLED
 70
     0
 10
0.0
 20
0.0
 30
0.0
  3
_FILLED
  1

  0
SOLID
  5
EEBF
  8
0
  6
BYBLOCK
 62
     0
 10
0.0
 20
0.0
 30
0.0
 11
-1.0
 21
0.1666666667
 31
0.0
 12
-1.0
 22
-0.1666666667
 32
0.0
 13
-1.0
 23
-0.1666666667
 33
0.0
  0
ENDBLK
  5
EEC0
  8
0
  6
BYBLOCK
 62
     0
  0
ENDSEC
  0
SECTION
  2
ENTITIES
  0
ATTDEF
  5
D6D4
  8
DEFPOINTS
 10
419.3244879789111792
 20
71.0441590006977464
 30
0.0
 40
0.001
  1
K-72796
  3

  2
MODELNUMBER
 70
     0
1001
ACDBATTR
1070
     0
1070
     1
  0
ATTDEF
  5
D6D5
  8
DEFPOINTS
 10
419.3244879789111792
 20
71.0424923340310812
 30
0.0
 40
0.001
  1
ARTIFACTS
  3

  2
TRADENAME
 70
     0
1001
ACDBATTR
1070
     0
1070
     1
  0
ATTDEF
  5
D6D6
  8
DEFPOINTS
 10
419.3244879789111792
 20
71.0408256673644161
 30
0.0
 40
0.001
  1
SUPPLY ELBOW
  3

  2
PRODUCT
 70
     0
1001
ACDBATTR
1070
     0
1070
     1
  0
LINE
  5
EF0E
  8
0
 10
419.829230086767609
 20
70.2092625091681839
 30
0.0
 11
418.829230086767609
 21
70.2092625091681839
 31
0.0
  0
LINE
  5
EF0F
  8
0
 10
418.829230086767609
 20
71.0392239899330349
 30
0.0
 11
418.829230086767609
 21
70.3914911456330543
 31
0.0
  0
LINE
  5
EF10
  8
0
 10
419.829230086767609
 20
71.0392239899330349
 30
0.0
 11
419.829230086767609
 21
70.3914903688330469
 31
0.0
  0
ARC
  5
EF11
  8
0
 10
418.8291915848320173
 20
70.259229790723964
 30
0.0
 40
0.0499672963894936
 50
138.55194416162729
 51
270.0441488491516111
  0
ARC
  5
EF12
  8
0
 10
419.8292685907907753
 20
70.2592297888304387
 30
0.0
 40
0.049967294497559
 50
269.9558487553608757
 51
41.4437723818056867
  0
ARC
  5
EF13
  8
0
 10
419.329230086767609
 20
71.0392239899330349
 30
0.0
 40
1.2199999999999991
 50
270.0694368490995885
 51
285.4033741284612233
  0
ARC
  5
EF14
  8
0
 10
419.329230086767609
 20
71.0392239899330349
 30
0.0
 40
1.2199999999999991
 50
287.9187104569970757
 51
90.0
  0
ARC
  5
EF15
  8
0
 10
419.329230086767609
 20
71.0392239899330065
 30
0.0
 40
1.2200000000000411
 50
90.0
 51
252.1330944839041024
  0
ARC
  5
EF16
  8
0
 10
419.329230086767609
 20
71.0392239899330065
 30
0.0
 40
1.2200000000000411
 50
254.5966258715251058
 51
270.0
  0
ARC
  5
EF17
  8
0
 10
419.3292294981579857
 20
71.0391775091796376
 30
0.0
 40
1.1255013838384611
 50
289.8431791401537225
 51
248.7732175410264119
  0
ARC
  5
EF18
  8
0
 10
419.329252170298389
 20
71.0392563591923363
 30
0.0
 40
0.8469676027024812
 50
306.2612950451406846
 51
233.7588289426358017
  0
ARC
  5
EF19
  8
0
 10
419.3292711368130199
 20
71.0392625091681822
 30
0.0
 40
0.6249614751082462
 50
323.1285392371967191
 51
216.8589146444838036
  0
ARC
  5
EF1A
  8
0
 10
419.329230086767609
 20
71.0392239899330349
 30
0.0
 40
0.5
 50
0.0
 51
180.0
  0
ARC
  5
EF1B
  8
0
 10
418.7386627466016193
 20
70.3655636966260261
 30
0.0
 40
0.0903665679357865
 50
318.515880326848503
 51
2.465399892705094
  0
LINE
  5
EF1C
  8
0
 10
418.829247772889687
 20
70.3914793952835822
 30
0.0
 11
418.8289456694840283
 21
70.3694509110952424
 31
0.0
  0
LINE
  5
EF1D
  8
0
 10
418.7917382909224102
 20
70.2923051816333668
 30
0.0
 11
418.806359898244807
 21
70.3057037579365272
 31
0.0
  0
ARC
  5
EF1E
  8
0
 10
419.9197987311648035
 20
70.3655246443920248
 30
0.0
 40
0.0903665679357865
 50
177.5308113340857972
 51
221.4803308999426861
  0
LINE
  5
EF1F
  8
0
 10
419.8292154187910796
 20
70.3914463330697515
 30
0.0
 11
419.8295160655280824
 21
70.369417828952507
 31
0.0
  0
LINE
  5
EF20
  8
0
 10
419.8667243559448252
 20
70.2923023783288272
 30
0.0
 11
419.8520976213375775
 21
70.3056691824136522
 31
0.0
  0
LINE
  5
EF21
  8
0
 10
418.7917370530639118
 20
70.2923037798772725
 30
0.0
 11
419.8667231180862132
 21
70.2923037798772725
 31
0.0
  0
LINE
  5
EF22
  8
0
 10
418.9692300867674817
 20
70.2092625091681839
 30
0.0
 11
418.9692300867674817
 21
70.1330466777855861
 31
0.0
  0
LINE
  5
EF23
  8
0
 10
418.9692300867674817
 20
70.1330466777855861
 30
0.0
 11
418.9505929062675023
 21
70.1144094972855925
 31
0.0
  0
LINE
  5
EF24
  8
0
 10
418.9505929062675023
 20
70.1144094972855925
 30
0.0
 11
418.9507392272676043
 21
70.1140249308855914
 31
0.0
  0
LINE
  5
EF25
  8
0
 10
418.9507392272676043
 20
70.1140249308855914
 30
0.0
 11
418.9628529844674745
 21
70.1070133055435463
 31
0.0
  0
LINE
  5
EF26
  8
0
 10
418.9628529844674745
 20
70.1070133055435463
 30
0.0
 11
418.9628529844674745
 21
70.0967049137034053
 31
0.0
  0
LINE
  5
EF27
  8
0
 10
418.9628529844674745
 20
70.0967049137034053
 30
0.0
 11
418.923375986147505
 21
70.0738605269825854
 31
0.0
  0
LINE
  5
EF28
  8
0
 10
418.923375986147505
 20
70.0738605269825854
 30
0.0
 11
418.9221627282676081
 21
70.0734149832855877
 31
0.0
  0
LINE
  5
EF29
  8
0
 10
418.9221627282676081
 20
70.0734149832855877
 30
0.0
 11
418.9217300867675249
 21
70.0728909091855883
 31
0.0
  0
LINE
  5
EF2A
  8
0
 10
418.9217300867675249
 20
70.0728909091855883
 30
0.0
 11
418.9217300867675249
 21
70.0595680311855915
 31
0.0
  0
LINE
  5
EF2B
  8
0
 10
418.9217300867675249
 20
70.0595680311855915
 30
0.0
 11
418.92214687896751
 21
70.0590492482855893
 31
0.0
  0
LINE
  5
EF2C
  8
0
 10
418.92214687896751
 20
70.0590492482855893
 30
0.0
 11
418.9628723719675918
 21
70.0355245617359117
 31
0.0
  0
LINE
  5
EF2D
  8
0
 10
418.9628723719675918
 20
70.0355245617359117
 30
0.0
 11
418.9628723719675918
 21
70.0252813587252092
 31
0.0
  0
LINE
  5
EF2E
  8
0
 10
418.9628723719675918
 20
70.0252813587252092
 30
0.0
 11
418.9221725317676146
 21
70.001819225685594
 31
0.0
  0
LINE
  5
EF2F
  8
0
 10
418.9221725317676146
 20
70.001819225685594
 30
0.0
 11
418.9217300867675249
 21
70.0012894761855904
 31
0.0
  0
LINE
  5
EF30
  8
0
 10
418.9217300867675249
 20
70.0012894761855904
 30
0.0
 11
418.9217300867675249
 21
69.9880468391855857
 31
0.0
  0
LINE
  5
EF31
  8
0
 10
418.9217300867675249
 20
69.9880468391855857
 30
0.0
 11
418.9628238091676167
 21
69.9641952911799621
 31
0.0
  0
LINE
  5
EF32
  8
0
 10
418.9628238091676167
 20
69.9641952911799621
 30
0.0
 11
418.9628295314369097
 21
69.9540012947229997
 31
0.0
  0
LINE
  5
EF33
  8
0
 10
418.9628295314369097
 20
69.9540012947229997
 30
0.0
 11
418.9222269180016269
 21
69.9305249798741499
 31
0.0
  0
LINE
  5
EF34
  8
0
 10
418.9222269180016269
 20
69.9305249798741499
 30
0.0
 11
418.9217300867675249
 21
69.9300070971855945
 31
0.0
  0
LINE
  5
EF35
  8
0
 10
418.9217300867675249
 20
69.9300070971855945
 30
0.0
 11
418.9217300867675249
 21
69.9166337799855881
 31
0.0
  0
LINE
  5
EF36
  8
0
 10
418.9217300867675249
 20
69.9166337799855881
 30
0.0
 11
418.9222111931675272
 21
69.916065846585596
 31
0.0
  0
LINE
  5
EF37
  8
0
 10
418.9222111931675272
 20
69.916065846585596
 30
0.0
 11
418.962519809467608
 21
69.89274454803423
 31
0.0
  0
LINE
  5
EF38
  8
0
 10
418.962519809467608
 20
69.89274454803423
 30
0.0
 11
418.962519809467608
 21
69.8824596292604951
 31
0.0
  0
LINE
  5
EF39
  8
0
 10
418.962519809467608
 20
69.8824596292604951
 30
0.0
 11
418.954808320167615
 21
69.8779944875855961
 31
0.0
  0
LINE
  5
EF3A
  8
0
 10
418.954808320167615
 20
69.8779944875855961
 30
0.0
 11
418.9546700232675107
 21
69.8776067412855753
 31
0.0
  0
LINE
  5
EF3B
  8
0
 10
418.9546700232675107
 20
69.8776067412855753
 30
0.0
 11
418.9692305639675851
 21
69.8630466777855901
 31
0.0
  0
LINE
  5
EF3C
  8
0
 10
418.9692305639675851
 20
69.8630466777855901
 30
0.0
 11
419.329230086767609
 21
69.8630466777855901
 31
0.0
  0
LINE
  5
EF3D
  8
0
 10
419.689230086767509
 20
69.8630466777855901
 30
0.0
 11
419.329230086767609
 21
69.8630466777855901
 31
0.0
  0
LINE
  5
EF3E
  8
0
 10
419.6892296069448776
 20
70.2092625091681839
 30
0.0
 11
419.6892296069448776
 21
70.1330466798903842
 31
0.0
  0
LINE
  5
EF3F
  8
0
 10
419.6892296069448776
 20
70.1330466798903842
 30
0.0
 11
419.7305929114448872
 21
70.0916833753903745
 31
0.0
  0
LINE
  5
EF40
  8
0
 10
419.7305929114448872
 20
70.0916833753903745
 30
0.0
 11
419.7304560157448918
 21
70.0913007331903799
 31
0.0
  0
LINE
  5
EF41
  8
0
 10
419.7304560157448918
 20
70.0913007331903799
 30
0.0
 11
419.6955969792448968
 21
70.0711456063010019
 31
0.0
  0
LINE
  5
EF42
  8
0
 10
419.6955969792448968
 20
70.0711456063010019
 30
0.0
 11
419.6955969792448968
 21
70.0609776332979663
 31
0.0
  0
LINE
  5
EF43
  8
0
 10
419.6955969792448968
 20
70.0609776332979663
 30
0.0
 11
419.7364160901128116
 21
70.037369777621322
 31
0.0
  0
LINE
  5
EF44
  8
0
 10
419.7364160901128116
 20
70.037369777621322
 30
0.0
 11
419.7367296069448912
 21
70.0370039416903865
 31
0.0
  0
LINE
  5
EF45
  8
0
 10
419.7367296069448912
 20
70.0370039416903865
 30
0.0
 11
419.7367296069448912
 21
70.0237610724903732
 31
0.0
  0
LINE
  5
EF46
  8
0
 10
419.7367296069448912
 20
70.0237610724903732
 30
0.0
 11
419.6956008485361735
 21
69.9998260906717888
 31
0.0
  0
LINE
  5
EF47
  8
0
 10
419.6956008485361735
 20
69.9998260906717888
 30
0.0
 11
419.6956126656448873
 21
69.989583274749279
 31
0.0
  0
LINE
  5
EF48
  8
0
 10
419.6956126656448873
 20
69.989583274749279
 30
0.0
 11
419.7367296069448912
 21
69.9657480856903788
 31
0.0
  0
LINE
  5
EF49
  8
0
 10
419.7367296069448912
 20
69.9657480856903788
 30
0.0
 11
419.7367296069448912
 21
69.9523325133903739
 31
0.0
  0
LINE
  5
EF4A
  8
0
 10
419.7367296069448912
 20
69.9523325133903739
 30
0.0
 11
419.6956611882047241
 21
69.9284144851864511
 31
0.0
  0
LINE
  5
EF4B
  8
0
 10
419.6956611882047241
 20
69.9284144851864511
 30
0.0
 11
419.6957261980448948
 21
69.91821463439409
 31
0.0
  0
LINE
  5
EF4C
  8
0
 10
419.6957261980448948
 20
69.91821463439409
 30
0.0
 11
419.7265887869298808
 21
69.900342941590381
 31
0.0
  0
LINE
  5
EF4D
  8
0
 10
419.7265887869298808
 20
69.900342941590381
 30
0.0
 11
419.726352482444895
 21
69.900169555390363
 31
0.0
  0
LINE
  5
EF4E
  8
0
 10
419.726352482444895
 20
69.900169555390363
 30
0.0
 11
419.6892296069448776
 21
69.863046679890374
 31
0.0
  0
LINE
  5
EF4F
  8
0
 10
419.6892296069448776
 20
70.1330466777855861
 30
0.0
 11
418.9692300867674817
 21
70.1330466777855861
 31
0.0
  0
LINE
  5
EF50
  8
0
 10
418.9628529844674745
 20
70.0967049137034053
 30
0.0
 11
419.6892296069448776
 21
70.1330466798903842
 31
0.0
  0
LINE
  5
EF51
  8
0
 10
419.6976438256530741
 20
70.060121783510624
 30
0.0
 11
418.9628723719675918
 21
70.0252813587252092
 31
0.0
  0
LINE
  5
EF52
  8
0
 10
419.6956131454675187
 20
69.9995327548855926
 30
0.0
 11
418.9628238091676167
 21
69.9645184357855925
 31
0.0
  0
LINE
  5
EF53
  8
0
 10
419.6973975590465784
 20
69.9294186530591446
 30
0.0
 11
418.962519809467608
 21
69.89274454803423
 31
0.0
  0
ENDSEC
  0
EOF
