  0
SECTION
  2
HEADER
  9
$ACADVER
  1
AC1009
  9
$INSBASE
 10
15.0846485431000001
 20
4.5542667656999987
 30
0.0
  9
$EXTMIN
 10
6.648643677936203
 20
3.0589432395145262
 30
0.0
  9
$EXTMAX
 10
15.1060742033109392
 20
6.0542667664587908
 30
0.0
  9
$LIMMIN
 10
0.0
 20
0.0
  9
$LIMMAX
 10
11.6929133858000007
 20
8.2677165353999982
  9
$ORTHOMODE
 70
     1
  9
$REGENMODE
 70
     1
  9
$FILLMODE
 70
     1
  9
$QTEXTMODE
 70
     0
  9
$MIRRTEXT
 70
     0
  9
$DRAGMODE
 70
     2
  9
$LTSCALE
 40
0.6431102362
  9
$OSMODE
 70
  4095
  9
$ATTMODE
 70
     1
  9
$TEXTSIZE
 40
0.2
  9
$TRACEWID
 40
0.05
  9
$TEXTSTYLE
  7
STANDARD
  9
$CLAYER
  8
0
  9
$CELTYPE
  6
BYLAYER
  9
$CECOLOR
 62
     1
  9
$DIMSCALE
 40
1.0
  9
$DIMASZ
 40
0.1875
  9
$DIMEXO
 40
0.0625
  9
$DIMDLI
 40
0.4443307087
  9
$DIMRND
 40
0.0
  9
$DIMDLE
 40
0.0
  9
$DIMEXE
 40
0.125
  9
$DIMTP
 40
0.0
  9
$DIMTM
 40
0.0
  9
$DIMTXT
 40
0.15625
  9
$DIMCEN
 40
0.1052362205
  9
$DIMTSZ
 40
0.0
  9
$DIMTOL
 70
     0
  9
$DIMLIM
 70
     0
  9
$DIMTIH
 70
     1
  9
$DIMTOH
 70
     1
  9
$DIMSE1
 70
     0
  9
$DIMSE2
 70
     0
  9
$DIMTAD
 70
     0
  9
$DIMZIN
 70
     0
  9
$DIMBLK
  1

  9
$DIMASO
 70
     1
  9
$DIMSHO
 70
     1
  9
$DIMPOST
  1

  9
$DIMAPOST
  1

  9
$DIMALT
 70
     0
  9
$DIMALTD
 70
     2
  9
$DIMALTF
 40
25.3999999999999986
  9
$DIMLFAC
 40
1.0
  9
$DIMTOFL
 70
     0
  9
$DIMTVP
 40
0.0
  9
$DIMTIX
 70
     0
  9
$DIMSOXD
 70
     0
  9
$DIMSAH
 70
     0
  9
$DIMBLK1
  1

  9
$DIMBLK2
  1

  9
$DIMSTYLE
  2
STANDARD
  9
$DIMCLRD
 70
     0
  9
$DIMCLRE
 70
     0
  9
$DIMCLRT
 70
     0
  9
$DIMTFAC
 40
1.0
  9
$DIMGAP
 40
0.09
  9
$LUNITS
 70
     2
  9
$LUPREC
 70
     4
  9
$SKETCHINC
 40
0.1
  9
$FILLETRAD
 40
0.0
  9
$AUNITS
 70
     0
  9
$AUPREC
 70
     0
  9
$MENU
  1
.
  9
$ELEVATION
 40
0.0
  9
$PELEVATION
 40
0.0
  9
$THICKNESS
 40
0.0
  9
$LIMCHECK
 70
     0
  9
$BLIPMODE
 70
     0
  9
$CHAMFERA
 40
0.0
  9
$CHAMFERB
 40
0.0
  9
$SKPOLY
 70
     0
  9
$TDCREATE
 40
2457933.6676620370708406
  9
$TDUPDATE
 40
2459255.6236689807847142
  9
$TDINDWG
 40
0.1149527199
  9
$TDUSRTIMER
 40
0.1149527199
  9
$USRTIMER
 70
     1
  9
$ANGBASE
 50
0.0
  9
$ANGDIR
 70
     0
  9
$PDMODE
 70
     0
  9
$PDSIZE
 40
0.3125
  9
$PLINEWID
 40
0.0
  9
$COORDS
 70
     1
  9
$SPLFRAME
 70
     0
  9
$SPLINETYPE
 70
     6
  9
$SPLINESEGS
 70
     8
  9
$ATTDIA
 70
     1
  9
$ATTREQ
 70
     1
  9
$HANDLING
 70
     1
  9
$HANDSEED
  5
AB1
  9
$SURFTAB1
 70
     6
  9
$SURFTAB2
 70
     6
  9
$SURFTYPE
 70
     6
  9
$SURFU
 70
     6
  9
$SURFV
 70
     6
  9
$UCSNAME
  2

  9
$UCSORG
 10
0.0
 20
0.0
 30
0.0
  9
$UCSXDIR
 10
1.0
 20
0.0
 30
0.0
  9
$UCSYDIR
 10
0.0
 20
1.0
 30
0.0
  9
$PUCSNAME
  2

  9
$PUCSORG
 10
0.0
 20
0.0
 30
0.0
  9
$PUCSXDIR
 10
1.0
 20
0.0
 30
0.0
  9
$PUCSYDIR
 10
0.0
 20
1.0
 30
0.0
  9
$USERI1
 70
     0
  9
$USERI2
 70
     0
  9
$USERI3
 70
     0
  9
$USERI4
 70
     0
  9
$USERI5
 70
     0
  9
$USERR1
 40
0.0
  9
$USERR2
 40
0.0
  9
$USERR3
 40
0.0
  9
$USERR4
 40
0.0
  9
$USERR5
 40
0.0
  9
$WORLDVIEW
 70
     1
  9
$SHADEDGE
 70
     3
  9
$SHADEDIF
 70
    70
  9
$TILEMODE
 70
     1
  9
$MAXACTVP
 70
    48
  9
$PLIMCHECK
 70
     0
  9
$PEXTMIN
 10
1.0000000000000000E+20
 20
1.0000000000000000E+20
 30
1.0000000000000000E+20
  9
$PEXTMAX
 10
-1.0000000000000000E+20
 20
-1.0000000000000000E+20
 30
-1.0000000000000000E+20
  9
$PLIMMIN
 10
0.0
 20
0.0
  9
$PLIMMAX
 10
12.0
 20
9.0
  9
$UNITMODE
 70
     0
  9
$VISRETAIN
 70
     1
  9
$PLINEGEN
 70
     0
  9
$PSLTSCALE
 70
     1
  0
ENDSEC
  0
SECTION
  2
TABLES
  0
TABLE
  2
VPORT
 70
     1
  0
VPORT
  2
*ACTIVE
 70
     0
 10
0.0
 20
0.0
 11
1.0
 21
1.0
 12
14.2514239479434099
 22
-5.6900572319435589
 13
0.0
 23
0.0
 14
1.0
 24
1.0
 15
0.0
 25
0.0
 16
-0.0000000000000053
 26
0.0
 36
22.4308993696072285
 17
10.8774098725016994
 27
4.5566706179999983
 37
0.0
 40
14.5651191210012207
 41
2.005224660397074
 42
50.0
 43
0.0
 44
0.0
 50
0.0
 51
0.0
 71
     0
 72
   100
 73
     1
 74
     1
 75
     0
 76
     0
 77
     0
 78
     0
  0
ENDTAB
  0
TABLE
  2
LTYPE
 70
     2
  0
LTYPE
  2
CONTINUOUS
 70
     0
  3
Solid line
 72
    65
 73
     0
 40
0.0
  0
LTYPE
  2
PHANTOM2
 70
     0
  3
___ _ _ ___ _ _ ___ _ _ ___ _ _
 72
    65
 73
     6
 40
1.25
 49
0.625
 49
-0.125
 49
0.125
 49
-0.125
 49
0.125
 49
-0.125
  0
ENDTAB
  0
TABLE
  2
LAYER
 70
     2
  0
LAYER
  2
0
 70
     0
 62
     7
  6
CONTINUOUS
  0
LAYER
  2
DEFPOINTS
 70
     0
 62
     7
  6
CONTINUOUS
  0
ENDTAB
  0
TABLE
  2
STYLE
 70
     1
  0
STYLE
  2
STANDARD
 70
     0
 40
0.0
 41
0.8
 50
0.0
 71
     0
 42
0.2
  3
txt
  4

  0
ENDTAB
  0
TABLE
  2
VIEW
 70
     0
  0
ENDTAB
  0
TABLE
  2
UCS
 70
     0
  0
ENDTAB
  0
TABLE
  2
APPID
 70
     5
  0
APPID
  2
ACAD
 70
     0
  0
APPID
  2
ACAD_MLEADERVER
 70
     0
  0
APPID
  2
ACAD_NAV_VCDISPLAY
 70
     0
  0
APPID
  2
ACAD_EXEMPT_FROM_CAD_STANDARDS
 70
     0
  0
APPID
  2
ACDBATTR
 70
     0
  0
ENDTAB
  0
TABLE
  2
DIMSTYLE
 70
     1
  0
DIMSTYLE
  2
STANDARD
 70
     0
  3

  4

  5

  6

  7

 40
1.0
 41
0.1875
 42
0.0625
 43
0.38
 44
0.125
 45
0.0
 46
0.0
 47
1.5
 48
1.5
140
0.15625
141
0.09
142
0.0
143
25.3999999999999986
144
1.0
145
0.0
146
1.0
147
0.09
 71
     0
 72
     0
 73
     1
 74
     1
 75
     0
 76
     0
 77
     0
 78
     4
170
     0
171
     2
172
     0
173
     0
174
     0
175
     0
176
     0
177
     0
178
     0
  0
ENDTAB
  0
ENDSEC
  0
SECTION
  2
BLOCKS
  0
BLOCK
  8
0
  2
$MODEL_SPACE
 70
     0
 10
0.0
 20
0.0
 30
0.0
  3
$MODEL_SPACE
  1

  0
ENDBLK
  5
21
  8
0
  0
BLOCK
 67
     1
  8
0
  2
$PAPER_SPACE
 70
     0
 10
0.0
 20
0.0
 30
0.0
  3
$PAPER_SPACE
  1

  0
ENDBLK
  5
1D
 67
     1
  8
0
  0
ENDSEC
  0
SECTION
  2
ENTITIES
  0
LINE
  5
7BD
  8
0
 10
15.0846485431000001
 20
6.0542667657000004
 30
0.0
 11
15.0846485431000001
 21
3.0590744702999988
 31
0.0
  0
ARC
  5
7D1
  8
0
 10
15.0755533765683296
 20
3.3741866310006969
 30
0.0
 40
0.3152433914861715
 50
188.3095560272016087
 51
271.6532843920591063
  0
ARC
  5
7D2
  8
0
 10
14.7043526058601604
 20
3.3192766175828772
 30
0.0
 40
0.0599999998171206
 50
8.9657572676408144
 51
90.000000057446627
  0
LINE
  5
7D3
  8
0
 10
14.7043526058000005
 20
3.3792766174
 30
0.0
 11
14.6244532300000003
 21
3.3792766174
 31
0.0
  0
ARC
  5
7D4
  8
0
 10
14.6244532300000003
 20
3.4092766173999971
 30
0.0
 40
0.0299999999999976
 50
218.4321450938797113
 51
270.0000000000035243
  0
ARC
  5
7D5
  8
0
 10
13.8933396215433405
 20
2.7108299178478421
 30
0.0
 40
0.9812457986452747
 50
43.851515237314409
 51
63.3787104654749385
  0
ARC
  5
7D6
  8
0
 10
15.0846263354922403
 20
5.7292909336556281
 30
0.0
 40
0.3249758328031637
 50
89.9960846251621831
 51
171.0361251750393876
  0
ARC
  5
7D7
  8
0
 10
14.7043526058601604
 20
5.7892766172171237
 30
0.0
 40
0.0599999998171206
 50
269.9999999425531882
 51
351.0342427323591892
  0
LINE
  5
7D8
  8
0
 10
14.7043526058000005
 20
5.7292766174000009
 30
0.0
 11
14.6244532300000003
 21
5.7292766174000009
 31
0.0
  0
ARC
  5
7D9
  8
0
 10
14.6244532300000003
 20
5.6992766174000042
 30
0.0
 40
0.0299999999999976
 50
89.9999999999965326
 51
141.5678549061202887
  0
ARC
  5
7DA
  8
0
 10
13.4155357003602393
 20
7.0643651308414803
 30
0.0
 40
1.793911084122451
 50
286.7044909383446907
 51
311.3609453936966247
  0
LINE
  5
7DB
  8
0
 10
14.7636195050999994
 20
5.7799259678309323
 30
0.0
 11
14.7636195050999994
 21
3.3286272669690691
 31
0.0
  0
ARC
  5
7DC
  8
0
 10
14.3069977364401808
 20
3.5376391154088078
 30
0.0
 40
0.0567358801304569
 50
62.6925806233595111
 51
85.2980208100822352
  0
ARC
  5
7DD
  8
0
 10
14.3059322541515801
 20
3.587260744682911
 30
0.0
 40
0.0089782054235001
 50
50.4549280113230481
 51
85.5402631557728483
  0
ARC
  5
7DE
  8
0
 10
14.1658373338861008
 20
1.8105531364565519
 30
0.0
 40
1.791200554145687
 50
85.4917513275717766
 51
92.5601128086818079
  0
ARC
  5
7DF
  8
0
 10
14.0918759028762093
 20
3.2393115761951581
 30
0.0
 40
0.3607050229618558
 50
90.9605858068340183
 51
99.611766161880837
  0
LINE
  5
7E0
  8
0
 10
14.0316485430999993
 20
3.5949529387000001
 30
0.0
 11
14.0015726042999997
 21
3.5949529387000001
 31
0.0
  0
ARC
  5
7E1
  8
0
 10
14.0015726168324903
 20
3.624952945541319
 30
0.0
 40
0.0300000068413219
 50
181.5415980358017976
 51
269.9999760647182825
  0
ARC
  5
7E2
  8
0
 10
13.7859889501682993
 20
3.6150127953564879
 30
0.0
 40
0.1858191004755893
 50
2.817241059029187
 51
71.4765405190006362
  0
ARC
  5
7E3
  8
0
 10
12.5437284287450606
 20
-0.5648427592078614
 30
0.0
 40
4.546264454299056
 50
73.3673952589670932
 51
85.3333329854312552
  0
ARC
  5
7E4
  8
0
 10
12.2669494652960296
 20
-1.41567476128417
 30
0.0
 40
5.4207342007290116
 50
83.1486837624765229
 51
89.0201466018964567
  0
LINE
  5
7E5
  8
0
 10
12.3596485431000005
 20
4.0042667656999988
 30
0.0
 11
8.2596485430999991
 21
4.0042667656999988
 31
0.0
  0
ARC
  5
7E6
  8
0
 10
8.2596485431101474
 20
3.804266765664607
 30
0.0
 40
0.2000000000353919
 50
90.0000000029072993
 51
153.9999999592529036
  0
LINE
  5
7E7
  8
0
 10
8.0798897338808544
 20
3.8919409951657769
 30
0.0
 11
8.0492037534649707
 21
3.8290254117500249
 31
0.0
  0
LINE
  5
7E8
  8
0
 10
7.0227809526357783
 20
4.3296452613376459
 30
0.0
 11
8.0869461714999993
 21
3.8106172044999989
 31
0.0
  0
ARC
  5
7EA
  8
0
 10
8.0684582031749201
 20
3.77269366128658
 30
0.0
 40
0.042190047435967
 50
339.4403326987830951
 51
64.0104722145720899
  0
ARC
  5
7EB
  8
0
 10
8.2798126674553458
 20
3.697565223599089
 30
0.0
 40
0.182127764619776
 50
160.6612704700916083
 51
200.9951945219360994
  0
ARC
  5
7EC
  8
0
 10
8.5043182674787445
 20
3.7963473216469841
 30
0.0
 40
0.4272837286507141
 50
202.5758116509105946
 51
224.2155505849322026
  0
ARC
  5
7ED
  8
0
 10
8.1761341148999964
 20
3.477917114499999
 30
0.0
 40
0.0300000000000031
 50
334.000000000002899
 51
42.9995392409864579
  0
LINE
  5
7EE
  8
0
 10
8.2030979362889749
 20
3.4647659800963271
 30
0.0
 11
8.1760345590927663
 21
3.4092778338851701
 31
0.0
  0
ARC
  5
7EF
  8
0
 10
8.1490707376959115
 20
3.422428968322655
 30
0.0
 40
0.030000000021906
 50
262.3132065444980867
 51
333.9999999485548869
  0
ARC
  5
7F0
  8
0
 10
8.1020542307028443
 20
3.0461414582473849
 30
0.0
 40
0.3492150341428956
 50
82.9264069993058257
 51
114.7943346709906933
  0
ARC
  5
7F1
  8
0
 10
8.5430202070334786
 20
2.1436720343573712
 30
0.0
 40
1.353594848542387
 50
115.7194917825626987
 51
121.2018560639946969
  0
ARC
  5
7F2
  8
0
 10
7.6244450518112066
 20
3.6962078770387619
 30
0.0
 40
0.4506188984801839
 50
291.7400497546590827
 51
298.8365195905763017
  0
ARC
  5
7F3
  8
0
 10
7.7443264586739664
 20
3.3879857721525659
 30
0.0
 40
0.1199487320439164
 50
244.3261755214523134
 51
293.0822148685666093
  0
LINE
  5
7F4
  8
0
 10
7.6923589844000002
 20
3.2798789733999989
 30
0.0
 11
6.8474930272999996
 21
3.691947633699999
 31
0.0
  0
ARC
  5
7F5
  8
0
 10
7.0042860536351776
 20
4.2917250992343279
 30
0.0
 40
0.0421900460178027
 50
63.9999997813769568
 51
148.5596680446186042
  0
ARC
  5
7F6
  8
0
 10
6.814961236467024
 20
4.41202100392145
 30
0.0
 40
0.182127764619776
 50
287.0048054766724022
 51
327.3387295285166942
  0
ARC
  5
7F7
  8
0
 10
6.7545831430690964
 20
4.6497501632062157
 30
0.0
 40
0.4272837286507141
 50
263.7844494136762137
 51
285.4241883476977932
  0
ARC
  5
7F8
  8
0
 10
6.705707055108145
 20
4.1950923106916731
 30
0.0
 40
0.0300000000000031
 50
85.0004607576219371
 51
153.9999999986054888
  0
LINE
  5
7F9
  8
0
 10
6.6787432337194881
 20
4.2082434450960031
 30
0.0
 11
6.6516798565379576
 21
4.1527552988776852
 31
0.0
  0
ARC
  5
7FA
  8
0
 10
6.6786436779581102
 20
4.1396041644879666
 30
0.0
 40
0.030000000021906
 50
154.0000000500535009
 51
225.6867934541103011
  0
ARC
  5
7FB
  8
0
 10
6.411071325624385
 20
3.8708889277873428
 30
0.0
 40
0.3492150341428956
 50
13.2056653276176696
 51
45.0735929993025977
  0
ARC
  5
7FC
  8
0
 10
5.4284299512365983
 20
3.662759202186014
 30
0.0
 40
1.353594848542387
 50
6.7981439346137069
 51
12.2805082160456198
  0
ARC
  5
7FD
  8
0
 10
7.2173762258966816
 20
3.8947486092326402
 30
0.0
 40
0.4506188984801839
 50
189.1634804080320862
 51
196.2599502439493051
  0
ARC
  5
7FE
  8
0
 10
6.9006875143134634
 20
3.7994559637008578
 30
0.0
 40
0.1199487159922894
 50
194.9177834738387105
 51
243.6740664041479079
  0
LINE
  5
7FF
  8
0
 10
6.7083214870829773
 20
4.2249781726570763
 30
0.0
 11
8.1980748904819158
 21
3.4983768888600459
 31
0.0
  0
LINE
  5
800
  8
0
 10
6.6576862709975453
 20
4.118138212498744
 30
0.0
 11
8.1450580048171268
 21
3.3926985465940982
 31
0.0
  0
LINE
  5
801
  8
0
 10
7.0605303026264208
 20
4.3112336732541721
 30
0.0
 11
7.0912162828705307
 21
4.3741492564426601
 31
0.0
  0
ARC
  5
802
  8
0
 10
8.2596485430999902
 20
3.8042667657000111
 30
0.0
 40
1.2999999999999881
 50
89.9999999999996874
 51
154.0000000040770942
  0
LINE
  5
803
  8
0
 10
8.2596485430999991
 20
5.1042667657000003
 30
0.0
 11
12.3596485431000005
 21
5.1042667656999772
 31
0.0
  0
ARC
  5
804
  8
0
 10
12.2944165980815594
 20
10.7539665857347302
 30
0.0
 40
5.6500763944527002
 50
270.6615128565866826
 51
286.8392109071655227
  0
ATTDEF
  5
9A4
  8
DEFPOINTS
 10
15.0954075366442702
 20
4.5526000990333344
 30
0.0
 40
0.001
  1
BATH SPOUT
  3

  2
PRODUCT
 70
     0
1001
ACDBATTR
1070
     0
1070
     1
  0
ATTDEF
  5
9A5
  8
DEFPOINTS
 10
15.0954075366442702
 20
4.5542667656999987
 30
0.0
 40
0.001
  1
ARTIFACTS
  3

  2
TRADENAME
 70
     0
1001
ACDBATTR
1070
     0
1070
     1
  0
ATTDEF
  5
9A6
  8
DEFPOINTS
 10
15.0954075366442702
 20
4.5559334323666638
 30
0.0
 40
0.001
  1
K-72792
  3

  2
MODELNUMBER
 70
     0
1001
ACDBATTR
1070
     0
1070
     1
  0
ENDSEC
  0
EOF
