  0
SECTION
  2
HEADER
  9
$ACADVER
  1
AC1009
  9
$INSBASE
 10
9.1332498472000001
 20
1.3164650570999989
 30
0.0
  9
$EXTMIN
 10
-5.9578830716764148
 20
1.3078786455445901
 30
0.0
  9
$EXTMAX
 10
10.48333601171063
 20
20.613216113699998
 30
0.0
  9
$LIMMIN
 10
0.0
 20
0.0
  9
$LIMMAX
 10
11.692913385800001
 20
8.2677165353999982
  9
$ORTHOMODE
 70
     0
  9
$REGENMODE
 70
     1
  9
$FILLMODE
 70
     1
  9
$QTEXTMODE
 70
     0
  9
$MIRRTEXT
 70
     0
  9
$DRAGMODE
 70
     2
  9
$LTSCALE
 40
0.6431102362
  9
$OSMODE
 70
  3071
  9
$ATTMODE
 70
     1
  9
$TEXTSIZE
 40
0.2
  9
$TRACEWID
 40
0.05
  9
$TEXTSTYLE
  7
STANDARD
  9
$CLAYER
  8
0
  9
$CELTYPE
  6
BYLAYER
  9
$CECOLOR
 62
   256
  9
$DIMSCALE
 40
1.0
  9
$DIMASZ
 40
0.1875
  9
$DIMEXO
 40
0.0625
  9
$DIMDLI
 40
0.4443307087
  9
$DIMRND
 40
0.0
  9
$DIMDLE
 40
0.0
  9
$DIMEXE
 40
0.125
  9
$DIMTP
 40
0.01
  9
$DIMTM
 40
0.01
  9
$DIMTXT
 40
0.15625
  9
$DIMCEN
 40
0.1052362205
  9
$DIMTSZ
 40
0.0
  9
$DIMTOL
 70
     1
  9
$DIMLIM
 70
     0
  9
$DIMTIH
 70
     1
  9
$DIMTOH
 70
     1
  9
$DIMSE1
 70
     0
  9
$DIMSE2
 70
     0
  9
$DIMTAD
 70
     0
  9
$DIMZIN
 70
     0
  9
$DIMBLK
  1

  9
$DIMASO
 70
     1
  9
$DIMSHO
 70
     1
  9
$DIMPOST
  1

  9
$DIMAPOST
  1

  9
$DIMALT
 70
     0
  9
$DIMALTD
 70
     2
  9
$DIMALTF
 40
25.399999999999999
  9
$DIMLFAC
 40
1.0
  9
$DIMTOFL
 70
     0
  9
$DIMTVP
 40
0.0
  9
$DIMTIX
 70
     0
  9
$DIMSOXD
 70
     0
  9
$DIMSAH
 70
     0
  9
$DIMBLK1
  1

  9
$DIMBLK2
  1

  9
$DIMSTYLE
  2
STANDARD
  9
$DIMCLRD
 70
     0
  9
$DIMCLRE
 70
     0
  9
$DIMCLRT
 70
     0
  9
$DIMTFAC
 40
1.0
  9
$DIMGAP
 40
0.09
  9
$LUNITS
 70
     2
  9
$LUPREC
 70
     4
  9
$SKETCHINC
 40
0.1
  9
$FILLETRAD
 40
0.0
  9
$AUNITS
 70
     0
  9
$AUPREC
 70
     0
  9
$MENU
  1
.
  9
$ELEVATION
 40
0.0
  9
$PELEVATION
 40
0.0
  9
$THICKNESS
 40
0.0
  9
$LIMCHECK
 70
     0
  9
$BLIPMODE
 70
     0
  9
$CHAMFERA
 40
0.0
  9
$CHAMFERB
 40
0.0
  9
$SKPOLY
 70
     0
  9
$TDCREATE
 40
2457626.6935652429
  9
$TDUPDATE
 40
2457626.7542809262
  9
$TDINDWG
 40
0.0569452894
  9
$TDUSRTIMER
 40
0.0569452894
  9
$USRTIMER
 70
     1
  9
$ANGBASE
 50
0.0
  9
$ANGDIR
 70
     0
  9
$PDMODE
 70
     0
  9
$PDSIZE
 40
0.3125
  9
$PLINEWID
 40
0.0
  9
$COORDS
 70
     1
  9
$SPLFRAME
 70
     0
  9
$SPLINETYPE
 70
     6
  9
$SPLINESEGS
 70
     8
  9
$ATTDIA
 70
     1
  9
$ATTREQ
 70
     1
  9
$HANDLING
 70
     1
  9
$HANDSEED
  5
923
  9
$SURFTAB1
 70
     6
  9
$SURFTAB2
 70
     6
  9
$SURFTYPE
 70
     6
  9
$SURFU
 70
     6
  9
$SURFV
 70
     6
  9
$UCSNAME
  2

  9
$UCSORG
 10
0.0
 20
0.0
 30
0.0
  9
$UCSXDIR
 10
1.0
 20
0.0
 30
0.0
  9
$UCSYDIR
 10
0.0
 20
1.0
 30
0.0
  9
$PUCSNAME
  2

  9
$PUCSORG
 10
0.0
 20
0.0
 30
0.0
  9
$PUCSXDIR
 10
1.0
 20
0.0
 30
0.0
  9
$PUCSYDIR
 10
0.0
 20
1.0
 30
0.0
  9
$USERI1
 70
     0
  9
$USERI2
 70
     0
  9
$USERI3
 70
     0
  9
$USERI4
 70
     0
  9
$USERI5
 70
     0
  9
$USERR1
 40
0.0
  9
$USERR2
 40
0.0
  9
$USERR3
 40
0.0
  9
$USERR4
 40
0.0
  9
$USERR5
 40
0.0
  9
$WORLDVIEW
 70
     1
  9
$SHADEDGE
 70
     3
  9
$SHADEDIF
 70
    70
  9
$TILEMODE
 70
     1
  9
$MAXACTVP
 70
    64
  9
$PLIMCHECK
 70
     0
  9
$PEXTMIN
 10
1.0000000000000000E+020
 20
1.0000000000000000E+020
 30
1.0000000000000000E+020
  9
$PEXTMAX
 10
-1.0000000000000000E+020
 20
-1.0000000000000000E+020
 30
-1.0000000000000000E+020
  9
$PLIMMIN
 10
0.0
 20
0.0
  9
$PLIMMAX
 10
12.0
 20
9.0
  9
$UNITMODE
 70
     0
  9
$VISRETAIN
 70
     1
  9
$PLINEGEN
 70
     0
  9
$PSLTSCALE
 70
     1
  0
ENDSEC
  0
SECTION
  2
TABLES
  0
TABLE
  2
VPORT
 70
     1
  0
VPORT
  2
*ACTIVE
 70
     0
 10
0.0
 20
0.0
 11
1.0
 21
1.0
 12
0.9008710750448205
 22
-0.8313952346077542
 13
0.0
 23
0.0
 14
1.0
 24
1.0
 15
0.0
 25
0.0
 16
0.0
 26
0.0
 36
0.0854775607725776
 17
8.2508931159973145
 27
2.1426879167556758
 37
0.0
 40
0.0370691610502263
 41
2.1638418079096038
 42
50.0
 43
0.0
 44
0.0
 50
0.0
 51
0.0
 71
     0
 72
   100
 73
     1
 74
     1
 75
     0
 76
     0
 77
     0
 78
     0
  0
ENDTAB
  0
TABLE
  2
LTYPE
 70
     2
  0
LTYPE
  2
CONTINUOUS
 70
     0
  3
Solid line
 72
    65
 73
     0
 40
0.0
  0
ENDTAB
  0
TABLE
  2
LAYER
 70
     2
  0
LAYER
  2
0
 70
     0
 62
     7
  6
CONTINUOUS
  0
LAYER
  2
DEFPOINTS
 70
     0
 62
     7
  6
CONTINUOUS
  0
ENDTAB
  0
TABLE
  2
STYLE
 70
     1
  0
STYLE
  2
STANDARD
 70
     0
 40
0.0
 41
0.8
 50
0.0
 71
     0
 42
0.2
  3
txt
  4

  0
ENDTAB
  0
TABLE
  2
VIEW
 70
     0
  0
ENDTAB
  0
TABLE
  2
UCS
 70
     0
  0
ENDTAB
  0
TABLE
  2
APPID
 70
     5
  0
APPID
  2
ACAD
 70
     0
  0
APPID
  2
ACAD_MLEADERVER
 70
     0
  0
APPID
  2
ACAD_NAV_VCDISPLAY
 70
     0
  0
APPID
  2
ACAD_EXEMPT_FROM_CAD_STANDARDS
 70
     0
  0
APPID
  2
AcDbAttr
 70
     0
  0
ENDTAB
  0
TABLE
  2
DIMSTYLE
 70
     2
  0
DIMSTYLE
  2
STANDARD
 70
     0
  3

  4

  5

  6

  7

 40
1.0
 41
0.1875
 42
0.0625
 43
0.38
 44
0.125
 45
0.0
 46
0.0
 47
0.01
 48
0.01
140
0.15625
141
0.09
142
0.0
143
25.399999999999999
144
1.0
145
0.0
146
1.0
147
0.09
 71
     1
 72
     0
 73
     1
 74
     1
 75
     0
 76
     0
 77
     0
 78
     4
170
     0
171
     2
172
     0
173
     0
174
     0
175
     0
176
     0
177
     0
178
     0
  0
ENDTAB
  0
ENDSEC
  0
SECTION
  2
BLOCKS
  0
BLOCK
  8
0
  2
$MODEL_SPACE
 70
     0
 10
0.0
 20
0.0
 30
0.0
  3
$MODEL_SPACE
  1

  0
ENDBLK
  5
21
  8
0
  0
BLOCK
 67
     1
  8
0
  2
$PAPER_SPACE
 70
     0
 10
0.0
 20
0.0
 30
0.0
  3
$PAPER_SPACE
  1

  0
ENDBLK
  5
1D
 67
     1
  8
0
  0
ENDSEC
  0
SECTION
  2
ENTITIES
  0
LINE
  5
214
  8
0
 10
7.7832498471999996
 20
1.3164650570999989
 30
0.0
 11
10.4832498472
 21
1.3164650570999989
 31
0.0
  0
LINE
  5
237
  8
0
 10
0.2387408700245293
 20
4.8580481403214293
 30
0.0
 11
0.8212654557
 21
4.7448168312999988
 31
0.0
  0
ARC
  5
6EB
  8
0
 10
8.0908489465938853
 20
1.3242590272694881
 30
0.0
 40
0.3076978256647488
 50
91.773983244263789
 51
181.45145440306791
  0
ARC
  5
6EC
  8
0
 10
8.0757425240864293
 20
1.661293126239108
 30
0.0
 40
0.030007323229695
 50
280.71883577300298
 51
359.99495931816062
  0
ARC
  5
6ED
  8
0
 10
47.782622471752468
 20
1.7293777835369419
 30
0.0
 40
39.676931044941043
 50
179.90167799702331
 51
180.09832203706429
  0
ARC
  5
6EE
  8
0
 10
8.0844863439347758
 20
2.03179531753264
 30
0.0
 40
0.2352930247409682
 50
275.18491101609192
 51
320.92290052281339
  0
ARC
  5
6EF
  8
0
 10
8.0347247282806702
 20
2.052473206814462
 30
0.0
 40
0.287365952689369
 50
323.97805196879972
 51
2.7908353680250011
  0
ARC
  5
6F0
  8
0
 10
8.4092902462270853
 20
2.3873943631272558
 30
0.0
 40
0.3326543866071167
 50
242.27484846025669
 51
254.7425175980058
  0
ARC
  5
6F1
  8
0
 10
8.2695187859466923
 20
2.1145767287467181
 30
0.0
 40
0.0263281731076879
 50
176.1558920055881
 51
235.29610207314849
  0
ARC
  5
6F2
  8
0
 10
-70.752346723242241
 20
2.2059694981499991
 30
0.0
 40
78.995647415793044
 50
359.93499276471113
 51
0.0650072352888669
  0
ARC
  5
6F3
  8
0
 10
8.2702856826853637
 20
2.2974137977933329
 30
0.0
 40
0.0270967991373179
 50
112.5913324405588
 51
183.8441079944098
  0
ARC
  5
6F4
  8
0
 10
8.8437367211009512
 20
0.9191985375023394
 30
0.0
 40
1.5198537777372809
 50
110.8074248961817
 51
112.5913324405586
  0
ARC
  5
6F5
  8
0
 10
8.2934229455251476
 20
2.3673444339907381
 30
0.0
 40
0.0293304556916179
 50
290.8074248961816
 51
0.8919537721838899
  0
ARC
  5
6F6
  8
0
 10
9.7077596350516622
 20
2.3893639418000001
 30
0.0
 40
1.385177631971716
 50
179.10804622781609
 51
180.89195377218391
  0
ARC
  5
6F7
  8
0
 10
8.3535499414159862
 20
2.4104473451686639
 30
0.0
 40
0.0308038267634079
 50
119.02095357024059
 51
179.10804622781649
  0
ARC
  5
6F8
  8
0
 10
8.2601992236770059
 20
2.6101766980347789
 30
0.0
 40
0.1897501561852478
 50
294.40671254900849
 51
353.73218163122141
  0
ARC
  5
6F9
  8
0
 10
8.1872610162068007
 20
2.5962162139013421
 30
0.0
 40
0.2616413512105389
 50
358.5204363787206
 51
41.819221811261279
  0
ARC
  5
6FA
  8
0
 10
9.1325930571834562
 20
3.392241264562835
 30
0.0
 40
0.9743514142366706
 50
136.33971704507141
 51
219.63757415316331
  0
ARC
  5
6FB
  8
0
 10
16.858979891152181
 20
4.1669980756051501
 30
0.0
 40
8.4318953277402873
 50
179.76820008178569
 51
180.69368379166841
  0
ARC
  5
6FC
  8
0
 10
8.457204659298112
 20
4.2010874174842776
 30
0.0
 40
0.0300511006159714
 50
130.7853691738685
 51
179.9556788375734
  0
ARC
  5
6FD
  8
0
 10
8.1298729145536388
 20
4.564267357494221
 30
0.0
 40
0.458879471980959
 50
312.10951414801281
 51
7.166777667991548
  0
ARC
  5
6FE
  8
0
 10
7.8058806880813316
 20
4.5914535520706066
 30
0.0
 40
0.7798662190296389
 50
2.2092131945743358
 51
48.734328801470042
  0
ARC
  5
6FF
  8
0
 10
7.0857509250592834
 20
3.6476191717646951
 30
0.0
 40
1.9659490995373581
 50
51.101938512718903
 51
80.202829858727426
  0
ARC
  5
700
  8
0
 10
4.8827597087602053
 20
-9.9402959467914584
 30
0.0
 40
15.7311993162419
 50
80.717357511886135
 51
100.77851136017721
  0
ARC
  5
701
  8
0
 10
2.5183344714463152
 20
2.8994338513124029
 30
0.0
 40
2.6769677327794952
 50
102.4585703058781
 51
121.7720343183892
  0
ARC
  5
702
  8
0
 10
1.5234982479358219
 20
4.5115204174509254
 30
0.0
 40
0.7826367223848357
 50
121.9967641620684
 51
162.02666043860859
  0
ARC
  5
703
  8
0
 10
0.8132133158575738
 20
4.703392164063728
 30
0.0
 40
0.042200000138362
 50
354.5804353270903
 51
78.999999707972265
  0
ARC
  5
704
  8
0
 10
1.068809916283938
 20
4.6930017962941939
 30
0.0
 40
0.2136812485460927
 50
178.28242089268059
 51
234.16477562074249
  0
ARC
  5
705
  8
0
 10
1.300958826895636
 20
4.940969770244644
 30
0.0
 40
0.5523016716087815
 50
229.69634849494079
 51
238.34881770202779
  0
ARC
  5
706
  8
0
 10
0.9935164433894435
 20
4.4465408095918209
 30
0.0
 40
0.0300000000128205
 50
348.99999994536932
 51
54.022583091344913
  0
ARC
  5
707
  8
0
 10
-2.8748044251413112
 20
5.1670190198386381
 30
0.0
 40
3.9648428155465392
 50
348.55390274331882
 51
349.44609725358691
  0
ARC
  5
708
  8
0
 10
0.9817361164023442
 20
4.3859362809950246
 30
0.0
 40
0.0299999999947679
 50
277.31320593297107
 51
348.99999993466167
  0
LINE
  5
709
  8
0
 10
0.1831151753945543
 20
4.5815890340663641
 30
0.0
 11
1.0182504651312001
 21
4.4159516637937317
 31
0.0
  0
ARC
  5
70B
  8
0
 10
1.033243179566055
 20
4.0055678760812592
 30
0.0
 40
0.3538407290835364
 50
97.745508460282593
 51
136.7865467857267
  0
ARC
  5
70C
  8
0
 10
-0.0453992711264452
 20
5.0189572739511021
 30
0.0
 40
1.1261685979650891
 50
310.61848833274018
 51
316.78654678572673
  0
ARC
  5
70D
  8
0
 10
0.5933104660824048
 20
4.2742483052918541
 30
0.0
 40
0.1450765653774638
 50
263.73576460706579
 51
310.61848833274018
  0
ARC
  5
70E
  8
0
 10
-129.1466767598136
 20
-660.77970343639299
 30
0.0
 40
677.44617586945742
 50
78.960249259941151
 51
79.00048185234705
  0
LINE
  5
70F
  8
0
 10
0.238740870024529
 20
4.8580481403214302
 30
0.0
 11
-0.3433131557609327
 21
4.9711205433051751
 31
0.0
  0
ARC
  5
710
  8
0
 10
-0.3491888072890741
 20
4.9296035596797916
 30
0.0
 40
0.0419306953225261
 50
81.94476474552711
 51
153.8899947992935
  0
ARC
  5
711
  8
0
 10
-0.5876810287579352
 20
5.0134593135360701
 30
0.0
 40
0.2112211314328594
 50
283.4496776339106
 51
341.96254551893082
  0
ARC
  5
712
  8
0
 10
-0.7077462731707339
 20
5.3164361678877361
 30
0.0
 40
0.53581920560061
 50
279.6809630344232
 51
288.4070564077569
  0
ARC
  5
713
  8
0
 10
-0.6145580179429572
 20
4.76164776237135
 30
0.0
 40
0.0267777623600492
 50
96.613225131665246
 51
155.23010518676639
  0
ARC
  5
714
  8
0
 10
-0.0038782905347164
 20
4.6041330788386663
 30
0.0
 40
0.6570299460117587
 50
165.11895350653359
 51
170.30245262885489
  0
ARC
  5
715
  8
0
 10
-0.6210948077141348
 20
4.7004765528114554
 30
0.0
 40
0.0336312924439748
 50
154.77766184045339
 51
238.04663199535801
  0
LINE
  5
716
  8
0
 10
0.1831151753945539
 20
4.5815890340663641
 30
0.0
 11
-0.6510925683213273
 21
4.751836298123103
 31
0.0
  0
ARC
  5
717
  8
0
 10
-0.8129954450373661
 20
4.367223510591554
 30
0.0
 40
0.3509477357104939
 50
22.81919193587861
 51
60.258287218427199
  0
ARC
  5
718
  8
0
 10
6.5769326563262469
 20
7.5817539093835498
 30
0.0
 40
7.7078779210645161
 50
203.53984691861049
 51
204.4344609742397
  0
ARC
  5
719
  8
0
 10
-0.2954292400341379
 20
4.4593882603213144
 30
0.0
 40
0.1594658277545861
 50
204.45451398629021
 51
247.35702635596269
  0
ARC
  5
71A
  8
0
 10
14.996289010919689
 20
81.708466418648982
 30
0.0
 40
78.904359371416305
 50
258.7798843367903
 51
259.12567424836323
  0
LINE
  5
724
  8
0
 10
8.3023182619719194
 20
2.339332146199999
 30
0.0
 11
9.1332498472000001
 21
2.339332146199999
 31
0.0
  0
LINE
  5
725
  8
0
 10
8.3217498472000031
 20
2.0664650570999998
 30
0.0
 11
9.1332435663198837
 21
2.0664650570999998
 31
0.0
  0
ARC
  5
726
  8
0
 10
9.1229961229720793
 20
0.7884297596305318
 30
0.0
 40
1.534465939125701
 50
89.617130941801449
 51
103.2639859388769
  0
ARC
  5
727
  8
0
 10
8.5147334894572246
 20
1.500033217364334
 30
0.0
 40
0.822829681993406
 50
71.858672638464384
 51
108.1413280849046
  0
ARC
  5
728
  8
0
 10
8.2714127108398259
 20
2.2569502542018021
 30
0.0
 40
0.0281312248931551
 50
117.2420621303965
 51
180.8397076536389
  0
ARC
  5
729
  8
0
 10
9.120531445958818
 20
3.6018154765838739
 30
0.0
 40
1.512788617432564
 50
256.63838436826632
 51
270.48170365158057
  0
ARC
  5
72A
  8
0
 10
8.5147342705067821
 20
2.9110046473987992
 30
0.0
 40
0.8219743876724917
 50
251.83916241874931
 51
288.1608390715968
  0
ARC
  5
72B
  8
0
 10
8.2722855139391562
 20
2.1555513426417861
 30
0.0
 40
0.0290360662316406
 50
180.30055471501549
 51
241.73785225947779
  0
LINE
  5
72C
  8
0
 10
8.4277025338999998
 20
4.064915055200002
 30
0.0
 11
9.1332435663198837
 21
4.064915055200002
 31
0.0
  0
LINE
  5
72D
  8
0
 10
8.4375744605999952
 20
4.2238409654999991
 30
0.0
 11
9.1332435663198837
 21
4.2236828364686243
 31
0.0
  0
ARC
  5
72E
  8
0
 10
10.17563818604588
 20
1.3242590272694881
 30
0.0
 40
0.3076978256647488
 50
358.54854559693212
 51
88.226016755736296
  0
ARC
  5
72F
  8
0
 10
10.19074460855334
 20
1.661293126239108
 30
0.0
 40
0.030007323229695
 50
180.00504068183949
 51
259.28116422699702
  0
ARC
  5
730
  8
0
 10
-29.516135339112701
 20
1.7293777835369419
 30
0.0
 40
39.676931044941043
 50
359.90167796293559
 51
0.0983220029766501
  0
ARC
  5
731
  8
0
 10
-944.40963555860606
 20
1.9617186898541139
 30
0.0
 40
954.57038697570829
 50
359.99014107278259
 51
0.0032860183296905
  0
ARC
  5
732
  8
0
 10
10.174165806464069
 20
2.5660396400642331
 30
0.0
 40
0.5497383106563398
 50
245.33315165605649
 51
268.60159979846719
  0
ARC
  5
733
  8
0
 10
9.8571968864126802
 20
2.3873943631272558
 30
0.0
 40
0.3326543866071167
 50
285.25748240199431
 51
297.72515153974331
  0
ARC
  5
734
  8
0
 10
9.9969683466930732
 20
2.1145767287467181
 30
0.0
 40
0.0263281731076879
 50
304.70389792685148
 51
3.844107994411849
  0
ARC
  5
735
  8
0
 10
89.018833855882008
 20
2.2059694981499991
 30
0.0
 40
78.995647415793044
 50
179.9349927647111
 51
180.0650072352889
  0
ARC
  5
736
  8
0
 10
9.9962014499544036
 20
2.2974137977933329
 30
0.0
 40
0.0270967991373179
 50
356.1558920055902
 51
67.408667559441199
  0
ARC
  5
737
  8
0
 10
9.4227504115388143
 20
0.9191985375023394
 30
0.0
 40
1.5198537777372809
 50
67.408667559441412
 51
69.192575103818285
  0
ARC
  5
738
  8
0
 10
9.9730641871146197
 20
2.3673444339907381
 30
0.0
 40
0.0293304556916179
 50
179.10804622781609
 51
249.19257510381831
  0
ARC
  5
739
  8
0
 10
8.5587274975881051
 20
2.3893639418000001
 30
0.0
 40
1.385177631971716
 50
359.10804622781609
 51
0.8919537721839103
  0
ARC
  5
73A
  8
0
 10
9.9129371912237794
 20
2.4104473451686639
 30
0.0
 40
0.0308038267634079
 50
0.8919537721834775
 51
60.979046429759379
  0
ARC
  5
73B
  8
0
 10
10.00628790896276
 20
2.6101766980347789
 30
0.0
 40
0.1897501561852478
 50
186.26781836877859
 51
245.59328745099151
  0
ARC
  5
73C
  8
0
 10
10.07922611643296
 20
2.5962162139013421
 30
0.0
 40
0.2616413512105389
 50
138.18077818873871
 51
181.4795636212794
  0
ARC
  5
73D
  8
0
 10
9.1338940754563094
 20
3.392241264562835
 30
0.0
 40
0.9743514142366706
 50
320.36242584683669
 51
43.660282954928512
  0
ARC
  5
73E
  8
0
 10
1.4075072414875791
 20
4.1669980756051501
 30
0.0
 40
8.4318953277402873
 50
359.30631620833162
 51
0.2317999182142863
  0
ARC
  5
73F
  8
0
 10
9.8092824733416553
 20
4.2010874174842776
 30
0.0
 40
0.0300511006159714
 50
0.0443211624265931
 51
49.21463082613144
  0
ARC
  5
740
  8
0
 10
10.13661421808613
 20
4.564267357494221
 30
0.0
 40
0.458879471980959
 50
172.8332223320084
 51
227.89048585198719
  0
LINE
  5
741
  8
0
 10
9.9641688706678462
 20
2.339332146199999
 30
0.0
 11
9.1332372854397672
 21
2.339332146199999
 31
0.0
  0
LINE
  5
742
  8
0
 10
9.9447372854397642
 20
2.0664650570999998
 30
0.0
 11
9.1332435663198837
 21
2.0664650570999998
 31
0.0
  0
ARC
  5
743
  8
0
 10
9.143491009667688
 20
0.7884297596305318
 30
0.0
 40
1.534465939125701
 50
76.736014061123043
 51
90.382869058198622
  0
ARC
  5
744
  8
0
 10
9.7517536431825427
 20
1.500033217364334
 30
0.0
 40
0.822829681993406
 50
71.858671915095385
 51
108.1413273615355
  0
ARC
  5
745
  8
0
 10
9.9950744217999414
 20
2.2569502542018021
 30
0.0
 40
0.0281312248931551
 50
359.16029234636108
 51
62.757937869603531
  0
ARC
  5
746
  8
0
 10
9.1459556866809493
 20
3.6018154765838739
 30
0.0
 40
1.512788617432564
 50
269.51829634841943
 51
283.36161563173363
  0
ARC
  5
747
  8
0
 10
9.7517528621329852
 20
2.9110046473987992
 30
0.0
 40
0.8219743876724917
 50
251.83916092840309
 51
288.16083758125058
  0
ARC
  5
748
  8
0
 10
9.9942016187006111
 20
2.1555513426417861
 30
0.0
 40
0.0290360662316406
 50
298.26214774052221
 51
359.69944528498451
  0
LINE
  5
749
  8
0
 10
9.8387845987397675
 20
4.064915055200002
 30
0.0
 11
9.1332435663198837
 21
4.064915055200002
 31
0.0
  0
LINE
  5
74A
  8
0
 10
9.8289126720397704
 20
4.2238409654999991
 30
0.0
 11
9.1332435663198837
 21
4.2236828364686243
 31
0.0
  0
ARC
  5
74B
  8
0
 10
8.2254574683667272
 20
4.6034694938690741
 30
0.0
 40
1.455974256162786
 50
0.710196340770608
 51
60.83179352259836
  0
ARC
  5
74C
  8
0
 10
5.2816514209558374
 20
-3.0449913447633352
 30
0.0
 40
9.6390026590125526
 50
67.726769916642652
 51
95.955915867647846
  0
ARC
  5
74E
  8
0
 10
1.000240564820333
 20
4.5756354327724837
 30
0.0
 40
1.3557201438289299
 50
122.88556858666151
 51
163.4156865187594
  0
ARC
  5
74F
  8
0
 10
2.543458164622129
 20
1.979124394356816
 30
0.0
 40
4.3755497912896688
 50
99.405366840806735
 51
121.39416784667679
  0
ARC
  5
750
  8
0
 10
4.9705442616337079
 20
-12.673196484223739
 30
0.0
 40
19.22752791042231
 50
92.053778465835947
 51
99.405366840806835
  0
ATTDEF
  5
86D
  8
DEFPOINTS
 10
9.1336326457802102
 20
1.312878645544586
 30
0.0
 40
0.001
  1
K-72778
  3

  2
MODELNUMBER
 70
     0
1001
AcDbAttr
1070
     0
1070
     1
  0
ATTDEF
  5
86E
  8
DEFPOINTS
 10
9.1336326457802102
 20
1.3112119788779211
 30
0.0
 40
0.001
  1
ARTIFACTS
  3

  2
TRADENAME
 70
     0
1001
AcDbAttr
1070
     0
1070
     1
  0
ATTDEF
  5
86F
  8
DEFPOINTS
 10
9.1336326457802102
 20
1.309545312211255
 30
0.0
 40
0.001
  1
DECK-MOUNTSPOUT
  3

  2
PRODUCT
 70
     0
1001
AcDbAttr
1070
     0
1070
     1
  0
ATTDEF
  5
870
  8
DEFPOINTS
 10
9.1336326457802102
 20
1.3078786455445901
 30
0.0
 40
0.001
  1
BRASS
  3

  2
MATERIAL
 70
     0
1001
AcDbAttr
1070
     0
1070
     1
  0
ENDSEC
  0
EOF
