  0
SECTION
  2
HEADER
  9
$ACADVER
  1
AC1009
  9
$INSBASE
 10
-4.6078647999115923
 20
1.3164650571000009
 30
0.0
  9
$EXTMIN
 10
-5.9578830716764148
 20
1.3092025835989529
 30
0.0
  9
$EXTMAX
 10
10.48333601171063
 20
20.613216113699998
 30
0.0
  9
$LIMMIN
 10
0.0
 20
0.0
  9
$LIMMAX
 10
11.692913385800001
 20
8.2677165353999982
  9
$ORTHOMODE
 70
     0
  9
$REGENMODE
 70
     1
  9
$FILLMODE
 70
     1
  9
$QTEXTMODE
 70
     0
  9
$MIRRTEXT
 70
     0
  9
$DRAGMODE
 70
     2
  9
$LTSCALE
 40
0.6431102362
  9
$OSMODE
 70
  3071
  9
$ATTMODE
 70
     1
  9
$TEXTSIZE
 40
0.2
  9
$TRACEWID
 40
0.05
  9
$TEXTSTYLE
  7
STANDARD
  9
$CLAYER
  8
0
  9
$CELTYPE
  6
BYLAYER
  9
$CECOLOR
 62
   256
  9
$DIMSCALE
 40
1.0
  9
$DIMASZ
 40
0.1875
  9
$DIMEXO
 40
0.0625
  9
$DIMDLI
 40
0.4443307087
  9
$DIMRND
 40
0.0
  9
$DIMDLE
 40
0.0
  9
$DIMEXE
 40
0.125
  9
$DIMTP
 40
0.01
  9
$DIMTM
 40
0.01
  9
$DIMTXT
 40
0.15625
  9
$DIMCEN
 40
0.1052362205
  9
$DIMTSZ
 40
0.0
  9
$DIMTOL
 70
     1
  9
$DIMLIM
 70
     0
  9
$DIMTIH
 70
     1
  9
$DIMTOH
 70
     1
  9
$DIMSE1
 70
     0
  9
$DIMSE2
 70
     0
  9
$DIMTAD
 70
     0
  9
$DIMZIN
 70
     0
  9
$DIMBLK
  1

  9
$DIMASO
 70
     1
  9
$DIMSHO
 70
     1
  9
$DIMPOST
  1

  9
$DIMAPOST
  1

  9
$DIMALT
 70
     0
  9
$DIMALTD
 70
     2
  9
$DIMALTF
 40
25.399999999999999
  9
$DIMLFAC
 40
1.0
  9
$DIMTOFL
 70
     0
  9
$DIMTVP
 40
0.0
  9
$DIMTIX
 70
     0
  9
$DIMSOXD
 70
     0
  9
$DIMSAH
 70
     0
  9
$DIMBLK1
  1

  9
$DIMBLK2
  1

  9
$DIMSTYLE
  2
STANDARD
  9
$DIMCLRD
 70
     0
  9
$DIMCLRE
 70
     0
  9
$DIMCLRT
 70
     0
  9
$DIMTFAC
 40
1.0
  9
$DIMGAP
 40
0.09
  9
$LUNITS
 70
     2
  9
$LUPREC
 70
     4
  9
$SKETCHINC
 40
0.1
  9
$FILLETRAD
 40
0.0
  9
$AUNITS
 70
     0
  9
$AUPREC
 70
     0
  9
$MENU
  1
.
  9
$ELEVATION
 40
0.0
  9
$PELEVATION
 40
0.0
  9
$THICKNESS
 40
0.0
  9
$LIMCHECK
 70
     0
  9
$BLIPMODE
 70
     0
  9
$CHAMFERA
 40
0.0
  9
$CHAMFERB
 40
0.0
  9
$SKPOLY
 70
     0
  9
$TDCREATE
 40
2457626.6935652429
  9
$TDUPDATE
 40
2457626.754547928
  9
$TDINDWG
 40
0.0572073148
  9
$TDUSRTIMER
 40
0.0572073148
  9
$USRTIMER
 70
     1
  9
$ANGBASE
 50
0.0
  9
$ANGDIR
 70
     0
  9
$PDMODE
 70
     0
  9
$PDSIZE
 40
0.3125
  9
$PLINEWID
 40
0.0
  9
$COORDS
 70
     1
  9
$SPLFRAME
 70
     0
  9
$SPLINETYPE
 70
     6
  9
$SPLINESEGS
 70
     8
  9
$ATTDIA
 70
     1
  9
$ATTREQ
 70
     1
  9
$HANDLING
 70
     1
  9
$HANDSEED
  5
923
  9
$SURFTAB1
 70
     6
  9
$SURFTAB2
 70
     6
  9
$SURFTYPE
 70
     6
  9
$SURFU
 70
     6
  9
$SURFV
 70
     6
  9
$UCSNAME
  2

  9
$UCSORG
 10
0.0
 20
0.0
 30
0.0
  9
$UCSXDIR
 10
1.0
 20
0.0
 30
0.0
  9
$UCSYDIR
 10
0.0
 20
1.0
 30
0.0
  9
$PUCSNAME
  2

  9
$PUCSORG
 10
0.0
 20
0.0
 30
0.0
  9
$PUCSXDIR
 10
1.0
 20
0.0
 30
0.0
  9
$PUCSYDIR
 10
0.0
 20
1.0
 30
0.0
  9
$USERI1
 70
     0
  9
$USERI2
 70
     0
  9
$USERI3
 70
     0
  9
$USERI4
 70
     0
  9
$USERI5
 70
     0
  9
$USERR1
 40
0.0
  9
$USERR2
 40
0.0
  9
$USERR3
 40
0.0
  9
$USERR4
 40
0.0
  9
$USERR5
 40
0.0
  9
$WORLDVIEW
 70
     1
  9
$SHADEDGE
 70
     3
  9
$SHADEDIF
 70
    70
  9
$TILEMODE
 70
     1
  9
$MAXACTVP
 70
    64
  9
$PLIMCHECK
 70
     0
  9
$PEXTMIN
 10
1.0000000000000000E+020
 20
1.0000000000000000E+020
 30
1.0000000000000000E+020
  9
$PEXTMAX
 10
-1.0000000000000000E+020
 20
-1.0000000000000000E+020
 30
-1.0000000000000000E+020
  9
$PLIMMIN
 10
0.0
 20
0.0
  9
$PLIMMAX
 10
12.0
 20
9.0
  9
$UNITMODE
 70
     0
  9
$VISRETAIN
 70
     1
  9
$PLINEGEN
 70
     0
  9
$PSLTSCALE
 70
     1
  0
ENDSEC
  0
SECTION
  2
TABLES
  0
TABLE
  2
VPORT
 70
     1
  0
VPORT
  2
*ACTIVE
 70
     0
 10
0.0
 20
0.0
 11
1.0
 21
1.0
 12
-12.86374240285155
 22
-0.8508904432305802
 13
0.0
 23
0.0
 14
1.0
 24
1.0
 15
0.0
 25
0.0
 16
0.0
 26
0.0
 36
0.0854775607725776
 17
8.2508931159973145
 27
2.1426879167556758
 37
0.0
 40
0.0934773683831794
 41
2.1638418079096038
 42
50.0
 43
0.0
 44
0.0
 50
0.0
 51
0.0
 71
     0
 72
   100
 73
     1
 74
     1
 75
     0
 76
     0
 77
     0
 78
     0
  0
ENDTAB
  0
TABLE
  2
LTYPE
 70
     2
  0
LTYPE
  2
CONTINUOUS
 70
     0
  3
Solid line
 72
    65
 73
     0
 40
0.0
  0
ENDTAB
  0
TABLE
  2
LAYER
 70
     2
  0
LAYER
  2
0
 70
     0
 62
     7
  6
CONTINUOUS
  0
LAYER
  2
DEFPOINTS
 70
     0
 62
     7
  6
CONTINUOUS
  0
ENDTAB
  0
TABLE
  2
STYLE
 70
     1
  0
STYLE
  2
STANDARD
 70
     0
 40
0.0
 41
0.8
 50
0.0
 71
     0
 42
0.2
  3
txt
  4

  0
ENDTAB
  0
TABLE
  2
VIEW
 70
     0
  0
ENDTAB
  0
TABLE
  2
UCS
 70
     0
  0
ENDTAB
  0
TABLE
  2
APPID
 70
     5
  0
APPID
  2
ACAD
 70
     0
  0
APPID
  2
ACAD_MLEADERVER
 70
     0
  0
APPID
  2
ACAD_NAV_VCDISPLAY
 70
     0
  0
APPID
  2
ACAD_EXEMPT_FROM_CAD_STANDARDS
 70
     0
  0
APPID
  2
AcDbAttr
 70
     0
  0
ENDTAB
  0
TABLE
  2
DIMSTYLE
 70
     2
  0
DIMSTYLE
  2
STANDARD
 70
     0
  3

  4

  5

  6

  7

 40
1.0
 41
0.1875
 42
0.0625
 43
0.38
 44
0.125
 45
0.0
 46
0.0
 47
0.01
 48
0.01
140
0.15625
141
0.09
142
0.0
143
25.399999999999999
144
1.0
145
0.0
146
1.0
147
0.09
 71
     1
 72
     0
 73
     1
 74
     1
 75
     0
 76
     0
 77
     0
 78
     4
170
     0
171
     2
172
     0
173
     0
174
     0
175
     0
176
     0
177
     0
178
     0
  0
ENDTAB
  0
ENDSEC
  0
SECTION
  2
BLOCKS
  0
BLOCK
  8
0
  2
$MODEL_SPACE
 70
     0
 10
0.0
 20
0.0
 30
0.0
  3
$MODEL_SPACE
  1

  0
ENDBLK
  5
21
  8
0
  0
BLOCK
 67
     1
  8
0
  2
$PAPER_SPACE
 70
     0
 10
0.0
 20
0.0
 30
0.0
  3
$PAPER_SPACE
  1

  0
ENDBLK
  5
1D
 67
     1
  8
0
  0
ENDSEC
  0
SECTION
  2
ENTITIES
  0
ARC
  5
75F
  8
0
 10
-4.6606084912436856
 20
6.0436757031402921
 30
0.0
 40
0.517888017352905
 50
84.154646446988679
 51
163.36907253803909
  0
ARC
  5
760
  8
0
 10
964.92357873429819
 20
4.2141992551788423
 30
0.0
 40
970.08242702867824
 50
179.8831914940192
 51
179.95927067036999
  0
ARC
  5
761
  8
0
 10
-4.665494247983978
 20
3.1657870074802421
 30
0.0
 40
1.806604772138936
 50
88.172004006026086
 51
105.8397585060755
  0
ARC
  5
762
  8
0
 10
-5.1216293551611436
 20
4.7734753277621431
 30
0.0
 40
0.1354611603657402
 50
105.8397585060753
 51
137.708864981669
  0
ARC
  5
763
  8
0
 10
-5.1627348955873611
 20
4.8108668674483539
 30
0.0
 40
0.0798932497172651
 50
137.70886498166851
 51
171.49924394833641
  0
ARC
  5
764
  8
0
 10
-5.3913507440717048
 20
4.8450368190361832
 30
0.0
 40
0.1512620914923456
 50
296.70757235033648
 51
351.4992439483367
  0
ARC
  5
765
  8
0
 10
-4.6702514030469002
 20
2.051236426738523
 30
0.0
 40
2.7377216998249412
 50
88.694243641236284
 51
103.8016879934261
  0
ARC
  5
766
  8
0
 10
-5.2598402644406601
 20
4.4513070471508334
 30
0.0
 40
0.2662941754079453
 50
103.8016879934261
 51
127.4157150549221
  0
ARC
  5
767
  8
0
 10
-5.3675131695691416
 20
4.5920573353005221
 30
0.0
 40
0.0890821608236405
 50
127.4157150549221
 51
172.6284656169648
  0
ARC
  5
768
  8
0
 10
-5.2231883685128588
 20
4.5733857244599214
 30
0.0
 40
0.2346097432653152
 50
172.62846561696469
 51
187.4006249574004
  0
ARC
  5
769
  8
0
 10
-5.360062280359104
 20
4.555607388956072
 30
0.0
 40
0.0965860606692444
 50
187.40062495740071
 51
243.60924058950599
  0
ARC
  5
76A
  8
0
 10
-5.0346502076678359
 20
5.2114113072717707
 30
0.0
 40
0.8286870074869975
 50
243.6092405895059
 51
249.63009138692919
  0
ARC
  5
76B
  8
0
 10
-5.5082039014358379
 20
4.16359685886838
 30
0.0
 40
0.3281421766745001
 50
28.297854453119911
 51
55.660282370435681
  0
ARC
  5
76C
  8
0
 10
-4.9354526682739763
 20
4.4794800711074299
 30
0.0
 40
0.325975756946177
 50
209.4611428666006
 51
238.86866689767561
  0
ARC
  5
76D
  8
0
 10
-4.8312947293819271
 20
4.8121849691256813
 30
0.0
 40
0.6697600373125779
 50
245.97453140806749
 51
264.11159486286169
  0
ARC
  5
76E
  8
0
 10
-4.6173212308938281
 20
6.3308692427425877
 30
0.0
 40
2.203121471772711
 50
262.62799002072148
 51
270.24593027733931
  0
ARC
  5
76F
  8
0
 10
-4.630767400189594
 20
5.5682750942959682
 30
0.0
 40
1.4243489868220109
 50
257.85469355018432
 51
270.92130519718631
  0
ARC
  5
770
  8
0
 10
-4.8896065355166209
 20
4.365539372587449
 30
0.0
 40
0.1940762876814704
 50
243.68166351299499
 51
257.85469355018421
  0
ARC
  5
771
  8
0
 10
-4.9626025463966084
 20
4.23324547596774
 30
0.0
 40
0.0436610084931561
 50
198.0488455835775
 51
252.60982513396911
  0
ARC
  5
772
  8
0
 10
-4.974921142409098
 20
4.2141871858100011
 30
0.0
 40
0.0297132790792378
 50
119.11242512852751
 51
169.27225510397051
  0
ARC
  5
773
  8
0
 10
-4.8930462933477239
 20
4.0801637172188281
 30
0.0
 40
0.1867464371502943
 50
104.9764929777179
 51
121.0535522960032
  0
ARC
  5
774
  8
0
 10
-4.6341975367324428
 20
2.9312232622993761
 30
0.0
 40
1.364356835321487
 50
88.894067277286851
 51
103.0083946790059
  0
ARC
  5
775
  8
0
 10
-4.9421095136988722
 20
4.2549465328340954
 30
0.0
 40
0.0383780456111971
 50
193.84932749171929
 51
253.63401803909721
  0
ARC
  5
776
  8
0
 10
-4.6472196024303276
 20
5.1526824141318013
 30
0.0
 40
0.9832879210415381
 50
251.88655061652941
 51
272.2937997191051
  0
LINE
  5
777
  8
0
 10
-4.6715737617340869
 20
4.2950680452175387
 30
0.0
 11
-4.6699146286999991
 21
4.2545293936000004
 31
0.0
  0
ARC
  5
778
  8
0
 10
-4.6722848691717678
 20
4.255578302148141
 30
0.0
 40
0.0025919585329192
 50
282.0949118280875
 51
336.12905059699102
  0
ARC
  5
779
  8
0
 10
-4.6879749195721034
 20
4.3221946053329878
 30
0.0
 40
0.0710305417726838
 50
261.2135160508019
 51
283.21098811194571
  0
ARC
  5
77A
  8
0
 10
-5.3648983226766873
 20
0.9596879585459165
 30
0.0
 40
3.359011270647859
 50
78.562759144290027
 51
81.148572671270685
  0
ARC
  5
77B
  8
0
 10
-1.1771325246290669
 20
22.729115663416032
 30
0.0
 40
18.800490944082409
 50
258.8483241366223
 51
259.27740720690713
  0
ARC
  5
77C
  8
0
 10
-4.6754860352229093
 20
4.2491788300769793
 30
0.0
 40
0.0077245777009103
 50
43.841633171542902
 51
86.691697891804182
  0
ARC
  5
77D
  8
0
 10
-4.8449334678887332
 20
4.1573633830772518
 30
0.0
 40
0.1200423277276023
 50
99.506395779471404
 51
132.50555642510301
  0
ARC
  5
77E
  8
0
 10
-4.9215892368530962
 20
4.2487216225504101
 30
0.0
 40
0.00529256519891
 50
212.73036476887989
 51
273.69375417015021
  0
ARC
  5
77F
  8
0
 10
-4.7596934647081763
 20
19.706414616485059
 30
0.0
 40
15.463818491601049
 50
269.40140418971743
 51
270.15532295921639
  0
ARC
  5
780
  8
0
 10
-4.7172881549812331
 20
4.1991477408528564
 30
0.0
 40
0.0435079037263816
 50
72.598835924795495
 51
90.638108040970295
  0
ARC
  5
781
  8
0
 10
-4.7047882692761176
 20
4.2386996361248839
 30
0.0
 40
0.0020303481524444
 50
18.701158393574289
 51
75.405621220565834
  0
ARC
  5
782
  8
0
 10
-4.7036412929579257
 20
4.2393727215697652
 30
0.0
 40
0.0007764914511826
 50
322.62410065689693
 51
358.36976027444223
  0
ARC
  5
783
  8
0
 10
-4.7139397163244654
 20
4.260132489706864
 30
0.0
 40
0.0238727579178045
 50
270.4985877724074
 51
297.20887744816338
  0
ARC
  5
784
  8
0
 10
-4.8818318488250041
 20
52.177706969131521
 30
0.0
 40
47.941741041719943
 50
269.96218956401412
 51
270.20089868759311
  0
ARC
  5
785
  8
0
 10
-4.9128291035051719
 20
4.188482284957967
 30
0.0
 40
0.0474983974050978
 50
90.77238902085351
 51
102.98866886869391
  0
ARC
  5
786
  8
0
 10
-4.9231008009780757
 20
4.2311796578765017
 30
0.0
 40
0.0036084389710442
 50
96.427726545585941
 51
147.0053576996776
  0
ARC
  5
787
  8
0
 10
-4.910383990249092
 20
4.2410379630809238
 30
0.0
 40
0.0176112210276152
 50
206.62804604393591
 51
223.76634766106741
  0
ARC
  5
788
  8
0
 10
-4.8295487605313001
 20
4.3586651975630453
 30
0.0
 40
0.1600084158505821
 50
234.2197257362229
 51
260.13141031790758
  0
ARC
  5
789
  8
0
 10
-4.8451561178894238
 20
4.2659222814652287
 30
0.0
 40
0.0659648862105564
 50
259.68087683127243
 51
279.13774386112129
  0
ARC
  5
78A
  8
0
 10
-10.89008728698731
 20
36.302573520321417
 30
0.0
 40
32.667907306505093
 50
280.68227120894522
 51
280.92312366968611
  0
ARC
  5
78B
  8
0
 10
-4.688770728436177
 20
4.1757683058197728
 30
0.0
 40
0.0519466780269714
 50
68.716093389448673
 51
102.2458732071216
  0
ARC
  5
78C
  8
0
 10
-4.672459559058038
 20
4.2254337200518748
 30
0.0
 40
0.0028405880326054
 50
284.46231696916391
 51
333.62642547451719
  0
ARC
  5
78D
  8
0
 10
-5.1049279426344061
 20
6.312851537012353
 30
0.0
 40
2.134583546593845
 50
280.51736950251689
 51
281.70853534738342
  0
ARC
  5
78E
  8
0
 10
67.381868586168991
 20
-373.88998686212801
 30
0.0
 40
384.91651562973652
 50
100.79560556339619
 51
100.8097894128409
  0
ARC
  5
78F
  8
0
 10
-4.8055327630571751
 20
4.1743402113351102
 30
0.0
 40
0.0221861118291052
 50
98.714072837002917
 51
109.2626453944404
  0
ARC
  5
797
  8
0
 10
-4.8123374149555866
 20
4.1931968966664348
 30
0.0
 40
0.0021498430859263
 50
103.8470626513361
 51
157.27459280799181
  0
ARC
  5
798
  8
0
 10
-4.8123111392279982
 20
4.1949833761704394
 30
0.0
 40
0.0022250457791863
 50
205.44454476499621
 51
253.56050649548979
  0
ARC
  5
799
  8
0
 10
-4.8067359761548314
 20
4.2090894398488068
 30
0.0
 40
0.0173851271170703
 50
249.0896934516216
 51
263.42345774629308
  0
ARC
  5
79A
  8
0
 10
-4.6220869065394767
 20
5.4918101946523334
 30
0.0
 40
1.313321140939814
 50
261.82985673787721
 51
269.13211007588728
  0
ARC
  5
79B
  8
0
 10
-4.6384058460417181
 20
4.2077033488974918
 30
0.0
 40
0.0292825396955584
 50
262.9896777677497
 51
296.44519010181631
  0
ARC
  5
79C
  8
0
 10
-9.1262561651517036
 20
4.238126541599998
 30
0.0
 40
4.501247439593973
 50
359.2789971946861
 51
0.7210028053139334
  0
ARC
  5
79D
  8
0
 10
-4.6810432695241877
 20
2.0731692369697421
 30
0.0
 40
2.6316883009719811
 50
88.394087867282977
 51
105.15566379856951
  0
ARC
  5
79E
  8
0
 10
-5.3334395237412853
 20
4.4803341550497171
 30
0.0
 40
0.1376832503939158
 50
105.0015052355502
 51
152.77074956295431
  0
ARC
  5
79F
  8
0
 10
-5.5607716585116584
 20
4.534738714725675
 30
0.0
 40
0.4038579344024245
 50
309.62727810853841
 51
327.73545725598598
  0
ARC
  5
7A0
  8
0
 10
-5.284234266987367
 20
4.2007862774771949
 30
0.0
 40
0.0297284575141787
 50
129.62727810853781
 51
180.22747794961489
  0
ARC
  5
7A1
  8
0
 10
-29.717552232196169
 20
4.1037796510927977
 30
0.0
 40
24.403782077702768
 50
359.90875273958233
 51
0.2274779496149129
  0
ARC
  5
7A2
  8
0
 10
-4.6079577114279937
 20
3.392433363534558
 30
0.0
 40
0.9749084660704824
 50
136.38654617625659
 51
219.62520826354509
  0
ARC
  5
7A3
  8
0
 10
-5.494690282897583
 20
2.618957038788428
 30
0.0
 40
0.2036331169413706
 50
296.91610219778971
 51
48.162968746610382
  0
ARC
  5
7A4
  8
0
 10
-5.3853693951961077
 20
2.409131747833348
 30
0.0
 40
0.0330440370146111
 50
121.2435150088467
 51
176.88587348678979
  0
ARC
  5
7A5
  8
0
 10
479.41966358139189
 20
2.3893639418000001
 30
0.0
 40
484.83802869719187
 50
179.99745179949221
 51
180.00254820050779
  0
ARC
  5
7A6
  8
0
 10
-5.4507778377720388
 20
2.3695421763550129
 30
0.0
 40
0.0324599331644357
 50
291.45787680857751
 51
356.92516588030998
  0
ARC
  5
7A7
  8
0
 10
-5.3105871665156457
 20
1.95600562981319
 30
0.0
 40
0.4042329576203746
 50
108.5076636079212
 51
114.9268498597304
  0
ARC
  5
7A8
  8
0
 10
-5.4678478840930529
 20
2.2955787624364872
 30
0.0
 40
0.0300172372984573
 50
115.8916298084437
 51
179.96502829198769
  0
ARC
  5
7A9
  8
0
 10
41.592037824745852
 20
2.2499496480381471
 30
0.0
 40
47.089925065118209
 50
179.944459333118
 51
180.16652170060331
  0
ARC
  5
7AA
  8
0
 10
-5.4678648777734074
 20
2.1163418316219968
 30
0.0
 40
0.0300002466394002
 50
186.2228214156024
 51
245.32771265823351
  0
ARC
  5
7AB
  8
0
 10
-5.3122409093164853
 20
2.4537241849618039
 30
0.0
 40
0.4015451919546658
 50
245.24432863245539
 51
254.53798191595061
  0
ARC
  5
7AC
  8
0
 10
-5.6606866848272741
 20
2.0391090366314
 30
0.0
 40
0.2429670650746779
 50
275.98212062492172
 51
6.5233241557809762
  0
ARC
  5
7AD
  8
0
 10
-10.47860258459078
 20
1.7293777717000001
 30
0.0
 40
4.8437160382599931
 50
359.19457653058129
 51
0.8054234694186648
  0
ARC
  5
7AE
  8
0
 10
-5.665365116022107
 20
1.661290486667284
 30
0.0
 40
0.0300000004043195
 50
281.5496581769608
 51
359.999999298538
  0
ARC
  5
7AF
  8
0
 10
-5.645491619564158
 20
1.319814415576023
 30
0.0
 40
0.3123914521122572
 50
92.544181904015531
 51
180.6143182866989
  0
LINE
  5
7B0
  8
0
 10
-4.6078651158000001
 20
1.7974650570999999
 30
0.0
 11
-5.6353651157999991
 21
1.7974650570788839
 31
0.0
  0
LINE
  5
7B1
  8
0
 10
-4.6078651158000001
 20
1.6312094838999991
 30
0.0
 11
-5.659358601173869
 21
1.6318979399310269
 31
0.0
  0
LINE
  5
7B2
  8
0
 10
-4.6078648169055718
 20
2.3393321461999999
 30
0.0
 11
-5.4389034392999989
 21
2.339332146199999
 31
0.0
  0
LINE
  5
7B3
  8
0
 10
-4.6078651158000001
 20
2.0664650570999998
 30
0.0
 11
-5.4192926638000003
 21
2.0667119589999969
 31
0.0
  0
ARC
  5
7B4
  8
0
 10
-4.61852194547156
 20
0.7919962738733616
 30
0.0
 40
1.530902133837106
 50
89.601152626890681
 51
103.279926966787
  0
ARC
  5
7B5
  8
0
 10
-5.2263814110597071
 20
1.4999950439453491
 30
0.0
 40
0.8228659385539126
 50
71.859503631691723
 51
108.14051974150171
  0
ARC
  5
7B6
  8
0
 10
-5.4688693265290658
 20
2.2564586663881339
 30
0.0
 40
0.028954147898655
 50
118.26267368461841
 51
179.84303618783159
  0
ARC
  5
7B7
  8
0
 10
-4.6198960468393651
 20
3.607802597533226
 30
0.0
 40
1.5187727124003521
 50
256.66534795878931
 51
270.45388352174848
  0
ARC
  5
7B8
  8
0
 10
-5.2263806191707998
 20
2.9117173667232872
 30
0.0
 40
0.8226516102608824
 50
251.85462335552711
 51
288.14536238190539
  0
ARC
  5
7B9
  8
0
 10
-5.468361930698129
 20
2.1559524322290771
 30
0.0
 40
0.0296115171994587
 50
186.4385328815614
 51
241.3083731500237
  0
LINE
  5
7BA
  8
0
 10
-5.9578651145037993
 20
1.3164649362135969
 30
0.0
 11
-4.6078648169055718
 21
1.3164650571000001
 31
0.0
  0
ARC
  5
7BB
  8
0
 10
-4.555121142567458
 20
6.0436757031402921
 30
0.0
 40
0.517888017352905
 50
16.630927461960841
 51
95.845353553011265
  0
ARC
  5
7BC
  8
0
 10
-974.13930836810937
 20
4.2141992551788423
 30
0.0
 40
970.08242702867824
 50
0.0407293296299255
 51
0.116808505980754
  0
ARC
  5
7BD
  8
0
 10
-4.5502353858271674
 20
3.1657870074802421
 30
0.0
 40
1.806604772138936
 50
74.160241493924417
 51
91.827995993973914
  0
ARC
  5
7BE
  8
0
 10
-4.09410027865
 20
4.7734753277621431
 30
0.0
 40
0.1354611603657402
 50
42.291135018330941
 51
74.16024149392473
  0
ARC
  5
7BF
  8
0
 10
-4.0529947382237843
 20
4.8108668674483539
 30
0.0
 40
0.0798932497172651
 50
8.5007560516636271
 51
42.291135018331502
  0
ARC
  5
7C0
  8
0
 10
-3.8243788897394388
 20
4.8450368190361832
 30
0.0
 40
0.1512620914923456
 50
188.5007560516633
 51
243.29242764966349
  0
ARC
  5
7C1
  8
0
 10
-4.5454782307642452
 20
2.051236426738523
 30
0.0
 40
2.7377216998249412
 50
76.1983120065739
 51
91.305756358763674
  0
ARC
  5
7C2
  8
0
 10
-3.9558893693704849
 20
4.4513070471508334
 30
0.0
 40
0.2662941754079453
 50
52.584284945077862
 51
76.1983120065739
  0
ARC
  5
7C3
  8
0
 10
-3.848216464242002
 20
4.5920573353005221
 30
0.0
 40
0.0890821608236405
 50
7.371534383035188
 51
52.584284945077862
  0
ARC
  5
7C4
  8
0
 10
-3.9925412652982848
 20
4.5733857244599214
 30
0.0
 40
0.2346097432653152
 50
352.5993750425996
 51
7.3715343830352866
  0
ARC
  5
7C5
  8
0
 10
-3.8556673534520409
 20
4.555607388956072
 30
0.0
 40
0.0965860606692444
 50
296.39075941049413
 51
352.59937504259932
  0
ARC
  5
7C6
  8
0
 10
-4.1810794261433077
 20
5.2114113072717707
 30
0.0
 40
0.8286870074869975
 50
290.36990861307072
 51
296.39075941049413
  0
ARC
  5
7C7
  8
0
 10
-3.7075257323753061
 20
4.16359685886838
 30
0.0
 40
0.3281421766745001
 50
124.3397176295643
 51
151.7021455468801
  0
ARC
  5
7C8
  8
0
 10
-4.2802769655371691
 20
4.4794800711074299
 30
0.0
 40
0.325975756946177
 50
301.1313331023245
 51
330.5388571333994
  0
ARC
  5
7C9
  8
0
 10
-4.3844349044292183
 20
4.8121849691256813
 30
0.0
 40
0.6697600373125779
 50
275.88840513713819
 51
294.02546859193251
  0
ARC
  5
7CA
  8
0
 10
-4.5984084029173156
 20
6.3308692427425877
 30
0.0
 40
2.203121471772711
 50
269.7540697226608
 51
277.37200997927852
  0
ARC
  5
7CB
  8
0
 10
-4.5849622336215496
 20
5.5682750942959682
 30
0.0
 40
1.4243489868220109
 50
269.07869480281369
 51
282.14530644981568
  0
ARC
  5
7CC
  8
0
 10
-4.3261230982945227
 20
4.365539372587449
 30
0.0
 40
0.1940762876814704
 50
282.14530644981579
 51
296.31833648700501
  0
ARC
  5
7CD
  8
0
 10
-4.253127087414537
 20
4.23324547596774
 30
0.0
 40
0.0436610084931561
 50
287.3901748660308
 51
341.95115441642241
  0
ARC
  5
7CE
  8
0
 10
-4.2408084914020456
 20
4.2141871858100011
 30
0.0
 40
0.0297132790792378
 50
10.727744896029471
 51
60.887574871472481
  0
ARC
  5
7CF
  8
0
 10
-4.3226833404634197
 20
4.0801637172188281
 30
0.0
 40
0.1867464371502943
 50
58.94644770399676
 51
75.023507022282075
  0
ARC
  5
7D0
  8
0
 10
-4.5815320970787008
 20
2.9312232622993761
 30
0.0
 40
1.364356835321487
 50
76.991605320994125
 51
91.105932722713106
  0
ARC
  5
7D1
  8
0
 10
-4.2736201201122732
 20
4.2549465328340954
 30
0.0
 40
0.0383780456111971
 50
286.36598196090267
 51
346.15067250828071
  0
ARC
  5
7D2
  8
0
 10
-4.568510031380816
 20
5.1526824141318013
 30
0.0
 40
0.9832879210415381
 50
267.70620028089479
 51
288.11344938347071
  0
LINE
  5
7D3
  8
0
 10
-4.5441558720770567
 20
4.2950680452175387
 30
0.0
 11
-4.5458150051111446
 21
4.2545293936000004
 31
0.0
  0
ARC
  5
7D4
  8
0
 10
-4.5434447646393759
 20
4.255578302148141
 30
0.0
 40
0.0025919585329192
 50
203.87094940300901
 51
257.90508817191261
  0
ARC
  5
7D5
  8
0
 10
-4.5277547142390411
 20
4.3221946053329878
 30
0.0
 40
0.0710305417726838
 50
256.78901188805429
 51
278.7864839491981
  0
ARC
  5
7D6
  8
0
 10
-3.8508313111344581
 20
0.9596879585459165
 30
0.0
 40
3.359011270647859
 50
98.851427328729343
 51
101.4372408557099
  0
ARC
  5
7D7
  8
0
 10
-8.0385971091820778
 20
22.729115663416032
 30
0.0
 40
18.800490944082409
 50
280.72259279309299
 51
281.15167586337782
  0
ARC
  5
7D8
  8
0
 10
-4.5402435985882361
 20
4.2491788300769793
 30
0.0
 40
0.0077245777009103
 50
93.308302108195804
 51
136.1583668284571
  0
ARC
  5
7D9
  8
0
 10
-4.3707961659224122
 20
4.1573633830772518
 30
0.0
 40
0.1200423277276023
 50
47.494443574896927
 51
80.493604220528624
  0
ARC
  5
7DA
  8
0
 10
-4.2941403969580492
 20
4.2487216225504101
 30
0.0
 40
0.00529256519891
 50
266.30624582984979
 51
327.26963523111999
  0
ARC
  5
7DB
  8
0
 10
-4.4560361691029691
 20
19.706414616485059
 30
0.0
 40
15.463818491601049
 50
269.84467704078372
 51
270.59859581028257
  0
ARC
  5
7DC
  8
0
 10
-4.4984414788299123
 20
4.1991477408528564
 30
0.0
 40
0.0435079037263816
 50
89.361891959029691
 51
107.40116407520451
  0
ARC
  5
7DD
  8
0
 10
-4.510941364535026
 20
4.2386996361248839
 30
0.0
 40
0.0020303481524444
 50
104.59437877943419
 51
161.2988416064257
  0
ARC
  5
7DE
  8
0
 10
-4.512088340853218
 20
4.2393727215697652
 30
0.0
 40
0.0007764914511826
 50
181.6302397255578
 51
217.3758993431031
  0
ARC
  5
7DF
  8
0
 10
-4.50178991748668
 20
4.260132489706864
 30
0.0
 40
0.0238727579178045
 50
242.79112255183671
 51
269.5014122275926
  0
ARC
  5
7E0
  8
0
 10
-4.3338977849861404
 20
52.177706969131521
 30
0.0
 40
47.941741041719943
 50
269.79910131240689
 51
270.03781043598599
  0
ARC
  5
7E1
  8
0
 10
-4.3029005303059717
 20
4.188482284957967
 30
0.0
 40
0.0474983974050978
 50
77.011331131306051
 51
89.227610979146533
  0
ARC
  5
7E2
  8
0
 10
-4.292628832833068
 20
4.2311796578765017
 30
0.0
 40
0.0036084389710442
 50
32.994642300322383
 51
83.572273454414045
  0
ARC
  5
7E3
  8
0
 10
-4.3053456435620516
 20
4.2410379630809238
 30
0.0
 40
0.0176112210276152
 50
316.23365233893259
 51
333.37195395606409
  0
ARC
  5
7E4
  8
0
 10
-4.3861808732798453
 20
4.3586651975630453
 30
0.0
 40
0.1600084158505821
 50
279.86858968209248
 51
305.78027426377707
  0
ARC
  5
7E5
  8
0
 10
-4.3705735159217198
 20
4.2659222814652287
 30
0.0
 40
0.0659648862105564
 50
260.86225613887871
 51
280.31912316872769
  0
ARC
  5
7E6
  8
0
 10
1.6743576531761639
 20
36.302573520321417
 30
0.0
 40
32.667907306505093
 50
259.07687633031389
 51
259.31772879105478
  0
ARC
  5
7E7
  8
0
 10
-4.5269589053749684
 20
4.1757683058197728
 30
0.0
 40
0.0519466780269714
 50
77.754126792878424
 51
111.2839066105513
  0
ARC
  5
7E8
  8
0
 10
-4.5432700747531056
 20
4.2254337200518748
 30
0.0
 40
0.0028405880326054
 50
206.37357452548281
 51
255.53768303083609
  0
ARC
  5
7E9
  8
0
 10
-4.1108016911767393
 20
6.312851537012353
 30
0.0
 40
2.134583546593845
 50
258.29146465261658
 51
259.48263049748311
  0
ARC
  5
7EA
  8
0
 10
-76.597598219980142
 20
-373.88998686212801
 30
0.0
 40
384.91651562973652
 50
79.190210587159072
 51
79.204394436603749
  0
ARC
  5
7EB
  8
0
 10
-4.4101968707539703
 20
4.1743402113351102
 30
0.0
 40
0.0221861118291052
 50
70.737354605559617
 51
81.285927162997154
  0
ARC
  5
7EC
  8
0
 10
-4.403392218855557
 20
4.1931968966664348
 30
0.0
 40
0.0021498430859263
 50
22.725407192008209
 51
76.152937348663855
  0
ARC
  5
7ED
  8
0
 10
-4.4034184945831472
 20
4.1949833761704394
 30
0.0
 40
0.0022250457791863
 50
286.43949350451021
 51
334.55545523500382
  0
ARC
  5
7EE
  8
0
 10
-4.408993657656314
 20
4.2090894398488068
 30
0.0
 40
0.0173851271170703
 50
276.57654225370692
 51
290.9103065483784
  0
ARC
  5
7EF
  8
0
 10
-4.5936427272716669
 20
5.4918101946523334
 30
0.0
 40
1.313321140939814
 50
270.86788992411272
 51
278.17014326212291
  0
ARC
  5
7F0
  8
0
 10
-4.5773237877694273
 20
4.2077033488974918
 30
0.0
 40
0.0292825396955584
 50
243.55480989818369
 51
277.0103222322503
  0
ARC
  5
7F1
  8
0
 10
-0.0894734686594419
 20
4.238126541599998
 30
0.0
 40
4.501247439593973
 50
179.27899719468601
 51
180.7210028053139
  0
ARC
  5
7F2
  8
0
 10
-4.5346863642869559
 20
2.0731692369697421
 30
0.0
 40
2.6316883009719811
 50
74.844336201430465
 51
91.605912132717037
  0
ARC
  5
7F3
  8
0
 10
-3.8822901100698601
 20
4.4803341550497171
 30
0.0
 40
0.1376832503939158
 50
27.229250437045739
 51
74.998494764449717
  0
ARC
  5
7F4
  8
0
 10
-3.6549579752994861
 20
4.534738714725675
 30
0.0
 40
0.4038579344024245
 50
212.26454274401399
 51
230.37272189146159
  0
ARC
  5
7F5
  8
0
 10
-3.9314953668237771
 20
4.2007862774771949
 30
0.0
 40
0.0297284575141787
 50
359.77252205038508
 51
50.372721891462128
  0
ARC
  5
7F6
  8
0
 10
20.501822598385029
 20
4.1037796510927977
 30
0.0
 40
24.403782077702768
 50
179.77252205038499
 51
180.0912472604177
  0
ARC
  5
7F7
  8
0
 10
-4.6077719223831499
 20
3.392433363534558
 30
0.0
 40
0.9749084660704824
 50
320.37479173645499
 51
43.613453823743413
  0
ARC
  5
7F8
  8
0
 10
-3.7210393509135611
 20
2.618957038788428
 30
0.0
 40
0.2036331169413706
 50
131.8370312533896
 51
243.08389780221029
  0
ARC
  5
7F9
  8
0
 10
-3.8303602386150359
 20
2.409131747833348
 30
0.0
 40
0.0330440370146111
 50
3.1141265132101781
 51
58.7564849911533
  0
ARC
  5
7FA
  8
0
 10
-488.6353932152029
 20
2.3893639418000001
 30
0.0
 40
484.83802869719187
 50
359.99745179949218
 51
0.0025482005077962
  0
ARC
  5
7FB
  8
0
 10
-3.7649517960391048
 20
2.3695421763550129
 30
0.0
 40
0.0324599331644357
 50
183.07483411969
 51
248.54212319142229
  0
ARC
  5
7FC
  8
0
 10
-3.905142467295498
 20
1.95600562981319
 30
0.0
 40
0.4042329576203746
 50
65.073150140269533
 51
71.492336392078741
  0
ARC
  5
7FD
  8
0
 10
-3.7478817497180912
 20
2.2955787624364872
 30
0.0
 40
0.0300172372984573
 50
0.0349717080122522
 51
64.108370191556276
  0
ARC
  5
7FE
  8
0
 10
-50.807767458557002
 20
2.2499496480381471
 30
0.0
 40
47.089925065118209
 50
359.83347829939669
 51
0.055540666882041
  0
ARC
  5
7FF
  8
0
 10
-3.7478647560377381
 20
2.1163418316219968
 30
0.0
 40
0.0300002466394002
 50
294.67228734176649
 51
353.77717858439757
  0
ARC
  5
800
  8
0
 10
-3.9034887244946601
 20
2.4537241849618039
 30
0.0
 40
0.4015451919546658
 50
285.4620180840493
 51
294.75567136754461
  0
ARC
  5
801
  8
0
 10
-3.5550429489838709
 20
2.0391090366314
 30
0.0
 40
0.2429670650746779
 50
173.47667584421899
 51
264.01787937507828
  0
ARC
  5
802
  8
0
 10
1.262872950779637
 20
1.7293777717000001
 30
0.0
 40
4.8437160382599931
 50
179.19457653058129
 51
180.80542346941871
  0
ARC
  5
803
  8
0
 10
-3.5503645177890371
 20
1.661290486667284
 30
0.0
 40
0.0300000004043195
 50
180.000000701462
 51
258.45034182303908
  0
ARC
  5
804
  8
0
 10
-3.5702380142469861
 20
1.319814415576023
 30
0.0
 40
0.3123914521122572
 50
359.38568171330098
 51
87.455818095984498
  0
LINE
  5
805
  8
0
 10
-4.6078645180111453
 20
1.7974650570999999
 30
0.0
 11
-3.580364518011145
 21
1.7974650570788839
 31
0.0
  0
LINE
  5
806
  8
0
 10
-4.6078645180111453
 20
1.6312094838999991
 30
0.0
 11
-3.5563710326372759
 21
1.6318979399310269
 31
0.0
  0
LINE
  5
807
  8
0
 10
-4.6078648169055718
 20
2.3393321461999999
 30
0.0
 11
-3.7768261945111452
 21
2.339332146199999
 31
0.0
  0
LINE
  5
808
  8
0
 10
-4.6078645180111453
 20
2.0664650570999998
 30
0.0
 11
-3.7964369700111451
 21
2.0667119589999969
 31
0.0
  0
ARC
  5
809
  8
0
 10
-4.5972076883395836
 20
0.7919962738733616
 30
0.0
 40
1.530902133837106
 50
76.720073033212884
 51
90.398847373109334
  0
ARC
  5
80A
  8
0
 10
-3.9893482227514379
 20
1.4999950439453491
 30
0.0
 40
0.8228659385539126
 50
71.859480258498266
 51
108.14049636830831
  0
ARC
  5
80B
  8
0
 10
-3.7468603072820779
 20
2.2564586663881339
 30
0.0
 40
0.028954147898655
 50
0.1569638121684018
 51
61.737326315381658
  0
ARC
  5
80C
  8
0
 10
-4.5958335869717786
 20
3.607802597533226
 30
0.0
 40
1.5187727124003521
 50
269.54611647825152
 51
283.3346520412108
  0
ARC
  5
80D
  8
0
 10
-3.9893490146403439
 20
2.9117173667232872
 30
0.0
 40
0.8226516102608824
 50
251.85463761809461
 51
288.145376644473
  0
ARC
  5
80E
  8
0
 10
-3.747367703113015
 20
2.1559524322290771
 30
0.0
 40
0.0296115171994587
 50
298.69162684997627
 51
353.5614671184386
  0
LINE
  5
80F
  8
0
 10
-3.2578645193073461
 20
1.3164649362135969
 30
0.0
 11
-4.6078648169055718
 21
1.3164650571000001
 31
0.0
  0
LINE
  5
810
  8
0
 10
-4.9701836055328981
 20
2.2819611795774879
 30
0.0
 11
-4.9701831517999997
 21
2.1299766618999989
 31
0.0
  0
LINE
  5
811
  8
0
 10
-4.2455460282782456
 20
2.281961179577487
 30
0.0
 11
-4.2455464820111457
 21
2.1299766618999998
 31
0.0
  0
ATTDEF
  5
86D
  8
DEFPOINTS
 10
-4.6209681405634759
 20
1.3142025835989479
 30
0.0
 40
0.001
  1
K-72778
  3

  2
MODELNUMBER
 70
     0
1001
AcDbAttr
1070
     0
1070
     1
  0
ATTDEF
  5
86E
  8
DEFPOINTS
 10
-4.6209681405634759
 20
1.312535916932283
 30
0.0
 40
0.001
  1
ARTIFACTS
  3

  2
TRADENAME
 70
     0
1001
AcDbAttr
1070
     0
1070
     1
  0
ATTDEF
  5
86F
  8
DEFPOINTS
 10
-4.6209681405634759
 20
1.3108692502656181
 30
0.0
 40
0.001
  1
DECK-MOUNTSPOUT
  3

  2
PRODUCT
 70
     0
1001
AcDbAttr
1070
     0
1070
     1
  0
ATTDEF
  5
870
  8
DEFPOINTS
 10
-4.6209681405634759
 20
1.3092025835989529
 30
0.0
 40
0.001
  1
BRASS
  3

  2
MATERIAL
 70
     0
1001
AcDbAttr
1070
     0
1070
     1
  0
ENDSEC
  0
EOF
