  0
SECTION
  2
HEADER
  9
$ACADVER
  1
AC1009
  9
$INSBASE
 10
8.8467853523500004
 20
0.6897358179000001
 30
0.0
  9
$EXTMIN
 10
-0.9006224461445064
 20
0.6809865596252074
 30
-0.0015258207003583
  9
$EXTMAX
 10
10.19736137321634
 20
5.4483969539995023
 30
0.0000000349246037
  9
$LIMMIN
 10
0.0
 20
0.0
  9
$LIMMAX
 10
11.692913385800001
 20
8.2677165353999982
  9
$ORTHOMODE
 70
     0
  9
$REGENMODE
 70
     1
  9
$FILLMODE
 70
     1
  9
$QTEXTMODE
 70
     0
  9
$MIRRTEXT
 70
     0
  9
$DRAGMODE
 70
     2
  9
$LTSCALE
 40
0.6431102362
  9
$OSMODE
 70
   231
  9
$ATTMODE
 70
     1
  9
$TEXTSIZE
 40
0.2
  9
$TRACEWID
 40
0.05
  9
$TEXTSTYLE
  7
STANDARD
  9
$CLAYER
  8
0
  9
$CELTYPE
  6
BYLAYER
  9
$CECOLOR
 62
   256
  9
$DIMSCALE
 40
1.0
  9
$DIMASZ
 40
0.1875
  9
$DIMEXO
 40
0.0625
  9
$DIMDLI
 40
0.4443307087
  9
$DIMRND
 40
0.0
  9
$DIMDLE
 40
0.0
  9
$DIMEXE
 40
0.125
  9
$DIMTP
 40
0.01
  9
$DIMTM
 40
0.01
  9
$DIMTXT
 40
1.0
  9
$DIMCEN
 40
0.1052362205
  9
$DIMTSZ
 40
0.0
  9
$DIMTOL
 70
     1
  9
$DIMLIM
 70
     0
  9
$DIMTIH
 70
     1
  9
$DIMTOH
 70
     1
  9
$DIMSE1
 70
     0
  9
$DIMSE2
 70
     0
  9
$DIMTAD
 70
     0
  9
$DIMZIN
 70
     0
  9
$DIMBLK
  1

  9
$DIMASO
 70
     1
  9
$DIMSHO
 70
     1
  9
$DIMPOST
  1
\X
  9
$DIMAPOST
  1

  9
$DIMALT
 70
     1
  9
$DIMALTD
 70
     2
  9
$DIMALTF
 40
25.399999999999999
  9
$DIMLFAC
 40
1.0
  9
$DIMTOFL
 70
     0
  9
$DIMTVP
 40
0.0
  9
$DIMTIX
 70
     0
  9
$DIMSOXD
 70
     0
  9
$DIMSAH
 70
     0
  9
$DIMBLK1
  1

  9
$DIMBLK2
  1

  9
$DIMSTYLE
  2
STANDARD
  9
$DIMCLRD
 70
     0
  9
$DIMCLRE
 70
     0
  9
$DIMCLRT
 70
     0
  9
$DIMTFAC
 40
1.0
  9
$DIMGAP
 40
0.09
  9
$LUNITS
 70
     2
  9
$LUPREC
 70
     4
  9
$SKETCHINC
 40
0.1
  9
$FILLETRAD
 40
0.0
  9
$AUNITS
 70
     0
  9
$AUPREC
 70
     0
  9
$MENU
  1
.
  9
$ELEVATION
 40
0.0
  9
$PELEVATION
 40
0.0
  9
$THICKNESS
 40
0.0
  9
$LIMCHECK
 70
     0
  9
$BLIPMODE
 70
     0
  9
$CHAMFERA
 40
0.0
  9
$CHAMFERB
 40
0.0
  9
$SKPOLY
 70
     0
  9
$TDCREATE
 40
2457626.6074678241
  9
$TDUPDATE
 40
2457947.6359620951
  9
$TDINDWG
 40
0.111578831
  9
$TDUSRTIMER
 40
0.111578831
  9
$USRTIMER
 70
     1
  9
$ANGBASE
 50
0.0
  9
$ANGDIR
 70
     0
  9
$PDMODE
 70
     3
  9
$PDSIZE
 40
0.3125
  9
$PLINEWID
 40
0.0
  9
$COORDS
 70
     1
  9
$SPLFRAME
 70
     0
  9
$SPLINETYPE
 70
     6
  9
$SPLINESEGS
 70
     8
  9
$ATTDIA
 70
     1
  9
$ATTREQ
 70
     1
  9
$HANDLING
 70
     1
  9
$HANDSEED
  5
161F
  9
$SURFTAB1
 70
     6
  9
$SURFTAB2
 70
     6
  9
$SURFTYPE
 70
     6
  9
$SURFU
 70
     6
  9
$SURFV
 70
     6
  9
$UCSNAME
  2

  9
$UCSORG
 10
0.0
 20
0.0
 30
0.0
  9
$UCSXDIR
 10
1.0
 20
0.0
 30
0.0
  9
$UCSYDIR
 10
0.0
 20
1.0
 30
0.0
  9
$PUCSNAME
  2

  9
$PUCSORG
 10
0.0
 20
0.0
 30
0.0
  9
$PUCSXDIR
 10
1.0
 20
0.0
 30
0.0
  9
$PUCSYDIR
 10
0.0
 20
1.0
 30
0.0
  9
$USERI1
 70
     0
  9
$USERI2
 70
     0
  9
$USERI3
 70
     0
  9
$USERI4
 70
     0
  9
$USERI5
 70
     0
  9
$USERR1
 40
0.0
  9
$USERR2
 40
0.0
  9
$USERR3
 40
0.0
  9
$USERR4
 40
0.0
  9
$USERR5
 40
0.0
  9
$WORLDVIEW
 70
     1
  9
$SHADEDGE
 70
     3
  9
$SHADEDIF
 70
    70
  9
$TILEMODE
 70
     1
  9
$MAXACTVP
 70
    64
  9
$PLIMCHECK
 70
     0
  9
$PEXTMIN
 10
1.0000000000000000E+020
 20
1.0000000000000000E+020
 30
1.0000000000000000E+020
  9
$PEXTMAX
 10
-1.0000000000000000E+020
 20
-1.0000000000000000E+020
 30
-1.0000000000000000E+020
  9
$PLIMMIN
 10
0.0
 20
0.0
  9
$PLIMMAX
 10
12.0
 20
9.0
  9
$UNITMODE
 70
     0
  9
$VISRETAIN
 70
     1
  9
$PLINEGEN
 70
     0
  9
$PSLTSCALE
 70
     1
  0
ENDSEC
  0
SECTION
  2
TABLES
  0
TABLE
  2
VPORT
 70
     1
  0
VPORT
  2
*ACTIVE
 70
     0
 10
0.0
 20
0.0
 11
1.0
 21
1.0
 12
-0.0000979579957594
 22
0.0001467451621515
 13
0.0
 23
0.0
 14
1.0
 24
1.0
 15
0.0
 25
0.0
 16
-0.000000000000008
 26
0.0
 36
34.942503560492923
 17
4.6484674215316772
 27
3.0645450116502029
 37
0.0
 40
6.2361127809912658
 41
1.786624203821656
 42
50.0
 43
0.0
 44
0.0
 50
0.0
 51
0.0
 71
     0
 72
   100
 73
     1
 74
     1
 75
     0
 76
     0
 77
     0
 78
     0
  0
ENDTAB
  0
TABLE
  2
LTYPE
 70
     1
  0
LTYPE
  2
CONTINUOUS
 70
     0
  3
Solid line
 72
    65
 73
     0
 40
0.0
  0
ENDTAB
  0
TABLE
  2
LAYER
 70
     3
  0
LAYER
  2
0
 70
     0
 62
     7
  6
CONTINUOUS
  0
LAYER
  2
DEFPOINTS
 70
     0
 62
     7
  6
CONTINUOUS
  0
ENDTAB
  0
TABLE
  2
STYLE
 70
     1
  0
STYLE
  2
STANDARD
 70
     0
 40
0.0
 41
0.8
 50
0.0
 71
     0
 42
0.2
  3
txt
  4

  0
ENDTAB
  0
TABLE
  2
VIEW
 70
     0
  0
ENDTAB
  0
TABLE
  2
UCS
 70
     0
  0
ENDTAB
  0
TABLE
  2
APPID
 70
     7
  0
APPID
  2
ACAD
 70
     0
  0
APPID
  2
ACAD_MLEADERVER
 70
     0
  0
APPID
  2
ACAD_EXEMPT_FROM_CAD_STANDARDS
 70
     0
  0
APPID
  2
ACAD_NAV_VCDISPLAY
 70
     0
  0
APPID
  2
ACDBATTR
 70
     0
  0
APPID
  2
ACAD_DSTYLE_DIMJAG
 70
     0
  0
APPID
  2
ACAD_DSTYLE_DIMTALN
 70
     0
  0
ENDTAB
  0
TABLE
  2
DIMSTYLE
 70
     1
  0
DIMSTYLE
  2
STANDARD
 70
     0
  3

  4

  5

  6

  7

 40
1.0
 41
0.1875
 42
0.0625
 43
0.38
 44
0.125
 45
0.0
 46
0.0
 47
0.01
 48
0.01
140
0.15625
141
0.09
142
0.0
143
25.399999999999999
144
1.0
145
0.0
146
1.0
147
0.09
 71
     1
 72
     0
 73
     1
 74
     1
 75
     0
 76
     0
 77
     0
 78
     4
170
     0
171
     2
172
     0
173
     0
174
     0
175
     0
176
     0
177
     0
178
     0
  0
ENDTAB
  0
ENDSEC
  0
SECTION
  2
BLOCKS
  0
BLOCK
  8
0
  2
$MODEL_SPACE
 70
     0
 10
0.0
 20
0.0
 30
0.0
  3
$MODEL_SPACE
  1

  0
ENDBLK
  5
21
  8
0
  0
BLOCK
 67
     1
  8
0
  2
$PAPER_SPACE
 70
     0
 10
0.0
 20
0.0
 30
0.0
  3
$PAPER_SPACE
  1

  0
ENDBLK
  5
1D
 67
     1
  8
0
  0
ENDSEC
  0
SECTION
  2
ENTITIES
  0
LINE
  5
210
  8
0
 10
7.4967853913999987
 20
0.6897358179000001
 30
0.0
 11
10.196785313299999
 21
0.6897358179000001
 31
0.0
  0
ARC
  5
B31
  8
0
 10
7.810789573378476
 20
0.69120953695013
 30
0.0
 40
0.3140076402698035
 50
92.694922813641668
 51
180.26890489566421
  0
ARC
  5
B32
  8
0
 10
7.7885825212324686
 20
1.035551768754672
 30
0.0
 40
0.0315717641626456
 50
283.63587012994918
 51
357.71406915154307
  0
ARC
  5
B33
  8
0
 10
18.733995860999489
 20
1.1441167473191249
 30
0.0
 40
10.91441925664823
 50
179.92854063022909
 51
180.57653759137889
  0
ARC
  5
B34
  8
0
 10
7.8621364360519541
 20
1.1518676354126469
 30
0.0
 40
0.0429531719256482
 50
142.16111799513789
 51
172.1566826615007
  0
ARC
  5
B35
  8
0
 10
6.8694405371762119
 20
2.1236328639884858
 30
0.0
 40
1.3464987988501951
 50
315.40193276985042
 51
327.00278337909941
  0
ARC
  5
B36
  8
0
 10
7.5355317531165911
 20
1.689172420146287
 30
0.0
 40
0.5512460673648901
 50
327.17205219882447
 51
345.07493780973971
  0
ARC
  5
B37
  8
0
 10
7.7253961410215828
 20
1.6225001893368951
 30
0.0
 40
0.3509586704481389
 50
347.6098637670172
 51
42.046498523797098
  0
ARC
  5
B39
  8
0
 10
6.5543203520650097
 20
0.3896170900916846
 30
0.0
 40
2.0505081897254711
 50
45.715927935967571
 51
69.502245376966755
  0
ARC
  5
B3A
  8
0
 10
-32.155686458095147
 20
-88.710361894454564
 30
0.0
 40
99.193400317940075
 50
66.578860604343021
 51
67.865761158284556
  0
ARC
  5
B3B
  8
0
 10
-3.468498554329321
 20
-17.52083693843818
 30
0.0
 40
22.442974453351312
 50
67.228554639628896
 51
74.923203161520561
  0
ARC
  5
B3C
  8
0
 10
1.5673702157605669
 20
1.135717424264963
 30
0.0
 40
3.1187327479709981
 50
75.101456875167315
 51
95.580349800565173
  0
ARC
  5
B3D
  8
0
 10
1.33651242850202
 20
3.4495483164138498
 30
0.0
 40
0.7934328669845688
 50
95.236388066192916
 51
166.080171747365
  0
ARC
  5
B3E
  8
0
 10
0.4875386323103049
 20
3.670932840819821
 30
0.0
 40
0.084540089768513
 50
260.53078355026508
 51
338.84259455851861
  0
ARC
  5
B3F
  8
0
 10
84.150520973058462
 20
453.19660115901468
 30
0.0
 40
457.32934051861469
 50
259.29047298838918
 51
259.457282019133
  0
ARC
  5
B40
  8
0
 10
-0.8202393368407717
 20
3.9116910525263902
 30
0.0
 40
0.0799988261377737
 50
118.5200879842408
 51
259.37457827634762
  0
ARC
  5
B41
  8
0
 10
-1.2290123118509839
 20
4.6766558889280399
 30
0.0
 40
0.7873363446622674
 50
298.07784518033998
 51
314.84174527311762
  0
ARC
  5
B42
  8
0
 10
8.0714317032265157
 20
-3.1959502539393361
 30
0.0
 40
11.40083395229809
 50
137.80451579813311
 51
140.09162139029789
  0
ARC
  5
B43
  8
0
 10
1.0899345721090681
 20
2.994097422132652
 30
0.0
 40
2.073491133745295
 50
90.556835912045173
 51
134.94988361214149
  0
ARC
  5
B44
  8
0
 10
0.9652074096154226
 20
-5.3153313933484494
 30
0.0
 40
10.383348660287711
 50
73.784531783740491
 51
89.422935187177416
  0
ARC
  5
B45
  8
0
 10
-5.5453489070898474
 20
-32.226477438036078
 30
0.0
 40
38.062972624871833
 50
70.868113535451883
 51
75.686650469007276
  0
ARC
  5
B46
  8
0
 10
8.6146361167086436
 20
7.7503224708926188
 30
0.0
 40
4.3553586661387147
 50
247.2383124507314
 51
258.2768625455372
  0
ARC
  5
B47
  8
0
 10
7.799038034009647
 20
3.9228751732289111
 30
0.0
 40
0.4425277616422851
 50
260.98572235730188
 51
7.242485003456359
  0
ARC
  5
B48
  8
0
 10
7.8974168102768534
 20
3.8666149867737931
 30
0.0
 40
0.3585747093828887
 50
18.209041474482682
 51
44.298512262604618
  0
ARC
  5
B49
  8
0
 10
8.1722478938639238
 20
4.1363656826387718
 30
0.0
 40
0.0265416224425595
 50
177.77293299958819
 51
226.72213818077711
  0
ARC
  5
B52
  8
0
 10
-7.7914655962586847
 20
4.1594794900141512
 30
0.0
 40
15.937207213922999
 50
359.9206116284538
 51
0.2381883476352673
  0
ARC
  5
B53
  8
0
 10
8.1754682712322015
 20
4.225827011773827
 30
0.0
 40
0.0298645153276123
 50
89.083492388727549
 51
180.18037689747169
  0
ARC
  5
B54
  8
0
 10
8.2258337585948436
 20
4.9888479863917032
 30
0.0
 40
0.7348556239272287
 50
262.54331641054199
 51
266.1073168275642
  0
ARC
  5
B55
  8
0
 10
8.1386591771760877
 20
4.2922055400661963
 30
0.0
 40
0.0330307921823005
 50
164.79051300980191
 51
255.63927873496789
  0
ARC
  5
B56
  8
0
 10
-51900.52607335514
 20
4.3398872184379931
 30
0.0
 40
51908.6328587221
 50
359.99995693477479
 51
0.000129196798966
  0
ARC
  5
B57
  8
0
 10
8.136792115758789
 20
4.456931739871818
 30
0.0
 40
0.0300068811395501
 50
112.4950847317636
 51
179.99093172137481
  0
ARC
  5
B58
  8
0
 10
8.3820602190921711
 20
3.8647818905446769
 30
0.0
 40
0.6709420467149434
 50
90.615131242565511
 51
112.4991178261524
  0
ARC
  5
B59
  8
0
 10
8.374859188644006
 20
4.5656817056440051
 30
0.0
 40
0.029996435518143
 50
180.00402826498339
 51
269.99597173501479
  0
ARC
  5
B5A
  8
0
 10
-849.86902987878955
 20
4.6324188657982717
 30
0.0
 40
858.21389522698951
 50
359.99554437597408
 51
0.002246855877112
  0
ARC
  5
B5B
  8
0
 10
8.3748607824858965
 20
4.6660757196852023
 30
0.0
 40
0.0299960942392141
 50
114.5218002888503
 51
180.0037586758142
  0
ARC
  5
B5C
  8
0
 10
8.2634448474438695
 20
4.9689224543051571
 30
0.0
 40
0.2927892660707572
 50
289.75581875270581
 51
335.2509367248897
  0
ARC
  5
B5D
  8
0
 10
8.3905661156620308
 20
4.8700489984391941
 30
0.0
 40
0.1407847180254165
 50
350.30803262678887
 51
49.315613653557158
  0
ARC
  5
B5E
  8
0
 10
9.3205016960898632
 20
6.1093939721564396
 30
0.0
 40
1.4089933930352769
 50
219.71518019525101
 51
233.49707587390751
  0
ARC
  5
B5F
  8
0
 10
8.3503881873648993
 20
5.24319921028619
 30
0.0
 40
0.1187326313631622
 50
103.9476922255204
 51
196.69646884630939
  0
ARC
  5
B60
  8
0
 10
8.8504359806054715
 20
3.840305233387785
 30
0.0
 40
1.607543064390756
 50
71.657774510484785
 51
109.199974757831
  0
ARC
  5
B61
  8
0
 10
9.3018219700803648
 20
5.2034337671636406
 30
0.0
 40
0.171623064355155
 50
19.4047400573738
 51
71.486526458622194
  0
ARC
  5
B62
  8
0
 10
9.2809912250000632
 20
5.2706292413391989
 30
0.0
 40
0.1829879313411057
 50
301.88487345891269
 51
356.81225886342258
  0
ARC
  5
B64
  8
0
 10
12.97985745247269
 20
0.4980421144851781
 30
0.0
 40
5.856154120056547
 50
127.96029133312381
 51
129.73806540831441
  0
ARC
  5
B65
  8
0
 10
9.3702132803330347
 20
4.831492249082185
 30
0.0
 40
0.2163386113356645
 50
128.296323380714
 51
163.46001271443379
  0
ARC
  5
B66
  8
0
 10
9.2990028431001353
 20
4.8768966810865848
 30
0.0
 40
0.1371346660782704
 50
173.2225033841267
 51
230.5529165822314
  0
ARC
  5
B67
  8
0
 10
9.5018131774060386
 20
5.0860452076042471
 30
0.0
 40
0.4281581850090369
 50
227.37618822528489
 51
246.51079136397399
  0
ARC
  5
B68
  8
0
 10
9.3187099238114772
 20
4.6660757203256482
 30
0.0
 40
0.0299960930418749
 50
359.9962401106751
 51
65.478262058632382
  0
ARC
  5
B69
  8
0
 10
867.37321591513376
 20
4.6324117968214296
 30
0.0
 40
858.02451055865663
 50
179.99775217615181
 51
180.00445613543829
  0
ARC
  5
B6A
  8
0
 10
9.3176668414441526
 20
4.5661701972533821
 30
0.0
 40
0.0310449867515219
 50
279.96131469700219
 51
359.09452332976991
  0
ARC
  5
B6B
  8
0
 10
9.311785352299994
 20
3.8656877063999708
 30
0.0
 40
0.670000000000028
 50
67.492956327100529
 51
90.000123858099499
  0
ARC
  5
B6D
  8
0
 10
9.5567785868857644
 20
4.456931738454597
 30
0.0
 40
0.030006883195221
 50
0.0090709750722463
 51
67.504912646243554
  0
ARC
  5
B6E
  8
0
 10
28217.193894771161
 20
4.375519990401977
 30
0.0
 40
28207.60710941895
 50
179.99983462539939
 51
180.00017465781579
  0
ARC
  5
B6F
  8
0
 10
9.5567743392428781
 20
4.2895428544276646
 30
0.0
 40
0.0300111455701312
 50
277.35284074520848
 51
359.98160608539808
  0
ARC
  5
B70
  8
0
 10
9.4593657573075536
 20
5.1051804706452009
 30
0.0
 40
0.8514434439738287
 50
273.94828037967409
 51
276.82948767886631
  0
ARC
  5
B71
  8
0
 10
9.5178955766171462
 20
4.225686863963749
 30
0.0
 40
0.0300711257410662
 50
0.000927398220858
 51
89.814910785550481
  0
ARC
  5
B72
  8
0
 10
3495.6109106915619
 20
4.282113296900893
 30
0.0
 40
3486.0629444458682
 50
180.0009273982208
 51
180.00237850095209
  0
ARC
  5
B73
  8
0
 10
9.5176986814692537
 20
4.1373962496921184
 30
0.0
 40
0.0302705680212587
 50
318.01779115994862
 51
0.0023785009501236
  0
ARC
  5
B74
  8
0
 10
10.109385270699249
 20
3.604971838623348
 30
0.0
 40
0.7656997664614731
 50
138.0177911599485
 51
142.07446558918571
  0
ARC
  5
B75
  8
0
 10
9.7287520234146374
 20
3.9015592669381891
 30
0.0
 40
0.2831588132017111
 50
142.07446558918559
 51
173.1197217310187
  0
ARC
  5
B76
  8
0
 10
9.7020721526283928
 20
3.904778568507131
 30
0.0
 40
0.2562854172912104
 50
173.1197217310189
 51
203.40292650049059
  0
ARC
  5
B77
  8
0
 10
7.1691210556313303
 20
2.6120758620952111
 30
0.0
 40
2.5880324319725641
 50
6.4648026322513523
 51
27.397394491407461
  0
ARC
  5
B78
  8
0
 10
6.965200481352583
 20
2.792191212548691
 30
0.0
 40
2.7777261129109059
 50
343.93082870221349
 51
2.2959419209533931
  0
ARC
  5
B79
  8
0
 10
10.70176795703801
 20
1.7335930097157071
 30
0.0
 40
1.1059957647049921
 50
164.81341971632531
 51
184.7123791456201
  0
ARC
  5
B7A
  8
0
 10
9.8270985805602091
 20
1.6607709122260319
 30
0.0
 40
0.2283015838004341
 50
184.5320631216602
 51
222.2878569806991
  0
ARC
  5
B7B
  8
0
 10
9.8937330035638755
 20
1.741149515812922
 30
0.0
 40
0.3320015344716594
 50
224.81289092949589
 51
266.5900475034901
  0
ARC
  5
B7C
  8
0
 10
-1853.0749848534861
 20
1.3008104302954711
 30
0.0
 40
1862.948973666282
 50
359.99104768166183
 51
0.0033500451577564
  0
ARC
  5
B7D
  8
0
 10
9.8482194497055264
 20
0.6264706982811638
 30
0.0
 40
0.3841225746204592
 50
42.7851523948164
 51
86.156748585574846
  0
ARC
  5
B7E
  8
0
 10
9.9115656603932152
 20
0.7036127197460829
 30
0.0
 40
0.2855570324980936
 50
357.21456279290823
 51
40.057950220956549
  0
ARC
  5
B7F
  8
0
 10
8.8433807928652524
 20
-18.376738376096839
 30
0.0
 40
22.917213439185421
 50
88.82885092638638
 51
91.171447034475975
  0
ARC
  5
B87
  8
0
 10
8.3897542053226655
 20
5.224271262611035
 30
0.0
 40
0.9657842267286667
 50
252.96272037013571
 51
279.53877695261912
  0
ARC
  5
B88
  8
0
 10
8.8467853215380163
 20
7.9220259122403442
 30
0.0
 40
3.6622473853945539
 50
265.34855079342663
 51
274.6514498572476
  0
ARC
  5
B89
  8
0
 10
9.3062606435780513
 20
5.266826741903742
 30
0.0
 40
1.0081670318515159
 50
260.72502186867371
 51
286.15000244170398
  0
ARC
  5
B8A
  8
0
 10
8.3606013399419723
 20
3.8822957168335859
 30
0.0
 40
0.6028856619546312
 50
71.965386019383601
 51
114.897855537965
  0
ARC
  5
B8B
  8
0
 10
8.846785348860088
 20
2.9279958360209748
 30
0.0
 40
1.5566560244880869
 50
78.905798970846874
 51
101.0942008761275
  0
ARC
  5
B8C
  8
0
 10
9.3351130379360132
 20
3.8666953035973881
 30
0.0
 40
0.6183894663648037
 50
65.984713412430835
 51
107.77597519522701
  0
LINE
  5
B8D
  8
0
 10
8.5472494789999995
 20
4.4555612982000001
 30
0.0
 11
8.5497991877290165
 21
4.2718402802273037
 31
0.0
  0
LINE
  5
B8E
  8
0
 10
9.1463211833741944
 20
4.4555613051308898
 30
0.0
 11
9.1437714968000012
 21
4.2718402835999987
 31
0.0
  0
ARC
  5
B8F
  8
0
 10
8.8465766208905041
 20
11.77144427285895
 30
0.0
 40
7.5456174195147012
 50
264.9010040049327
 51
275.10498378460068
  0
ATTDEF
  5
C55
  8
DEFPOINTS
 10
8.8346618336250344
 20
0.686286525985949
 30
0.0
 40
0.001
  1
K-72777
  3

  2
MODELNUMBER
 70
     0
1001
ACDBATTR
1070
     0
1070
     1
  0
ATTDEF
  5
C56
  8
DEFPOINTS
 10
8.8346618336250344
 20
0.6846198593192839
 30
0.0
 40
0.001
  1
ARTIFACTS
  3

  2
TRADENAME
 70
     0
1001
ACDBATTR
1070
     0
1070
     1
  0
ATTDEF
  5
C57
  8
DEFPOINTS
 10
8.8346618336250344
 20
0.6829531926526187
 30
0.0
 40
0.001
  1
BATH SPOUT
  3

  2
PRODUCT
 70
     0
1001
ACDBATTR
1070
     0
1070
     1
  0
ATTDEF
  5
C58
  8
DEFPOINTS
 10
8.8346618336250344
 20
0.6812865259859536
 30
0.0
 40
0.001
  1
BRASS
  3

  2
MATERIAL
 70
     0
1001
ACDBATTR
1070
     0
1070
     1
  0
LINE
  5
FEA
  8
0
 10
9.8739856283999998
 20
1.2989462287000011
 30
0.0
 11
9.8739856283999998
 21
1.4097358178999999
 31
0.0
  0
ARC
  5
103D
  8
0
 10
9.5117742063999984
 20
1.129735817899999
 30
0.0
 40
0.4
 50
341.84071401929992
 51
25.039430032199999
  0
ARC
  5
1040
  8
0
 10
8.8465750741692588
 20
5591.0093835066018
 30
0.0
 40
5586.3160403742077
 50
269.99503414847368
 51
270.00497016412419
  0
ARC
  5
1041
  8
0
 10
8.9005755154810338
 20
-681.45815007412511
 30
0.0
 40
685.57559748759775
 50
89.946544406837816
 51
90.062389239899986
  0
ARC
  5
1042
  8
0
 10
8.2784971510519867
 20
380.51889956081288
 30
0.0
 40
379.51433520991162
 50
269.9271613121312
 51
270.24371399902361
  0
ENDSEC
  0
EOF
