  0
SECTION
  2
HEADER
  9
$ACADVER
  1
AC1009
  9
$INSBASE
 10
7.9202485165450938
 20
4.392845103
 30
0.0
  9
$EXTMIN
 10
6.117340146234894
 20
4.3833313435122028
 30
-0.0000000349181948
  9
$EXTMAX
 10
9.7226868045081982
 20
14.270340002223771
 30
0.0000000814935746
  9
$LIMMIN
 10
0.0
 20
0.0
  9
$LIMMAX
 10
22.0
 20
17.0
  9
$ORTHOMODE
 70
     0
  9
$REGENMODE
 70
     1
  9
$FILLMODE
 70
     1
  9
$QTEXTMODE
 70
     0
  9
$MIRRTEXT
 70
     0
  9
$DRAGMODE
 70
     2
  9
$LTSCALE
 40
1.2099999999999991
  9
$OSMODE
 70
  3071
  9
$ATTMODE
 70
     1
  9
$TEXTSIZE
 40
0.2
  9
$TRACEWID
 40
0.05
  9
$TEXTSTYLE
  7
STANDARD
  9
$CLAYER
  8
0
  9
$CELTYPE
  6
BYLAYER
  9
$CECOLOR
 62
   256
  9
$DIMSCALE
 40
1.0
  9
$DIMASZ
 40
0.1875
  9
$DIMEXO
 40
0.0625
  9
$DIMDLI
 40
0.8359999999999999
  9
$DIMRND
 40
0.0
  9
$DIMDLE
 40
0.0
  9
$DIMEXE
 40
0.125
  9
$DIMTP
 40
0.0
  9
$DIMTM
 40
0.0
  9
$DIMTXT
 40
0.15625
  9
$DIMCEN
 40
0.198
  9
$DIMTSZ
 40
0.0
  9
$DIMTOL
 70
     0
  9
$DIMLIM
 70
     0
  9
$DIMTIH
 70
     1
  9
$DIMTOH
 70
     1
  9
$DIMSE1
 70
     0
  9
$DIMSE2
 70
     0
  9
$DIMTAD
 70
     0
  9
$DIMZIN
 70
     0
  9
$DIMBLK
  1

  9
$DIMASO
 70
     1
  9
$DIMSHO
 70
     1
  9
$DIMPOST
  1

  9
$DIMAPOST
  1

  9
$DIMALT
 70
     0
  9
$DIMALTD
 70
     2
  9
$DIMALTF
 40
25.399999999999999
  9
$DIMLFAC
 40
1.0
  9
$DIMTOFL
 70
     0
  9
$DIMTVP
 40
0.0
  9
$DIMTIX
 70
     0
  9
$DIMSOXD
 70
     0
  9
$DIMSAH
 70
     0
  9
$DIMBLK1
  1

  9
$DIMBLK2
  1

  9
$DIMSTYLE
  2
STANDARD
  9
$DIMCLRD
 70
     0
  9
$DIMCLRE
 70
     0
  9
$DIMCLRT
 70
     0
  9
$DIMTFAC
 40
1.0
  9
$DIMGAP
 40
0.09
  9
$LUNITS
 70
     2
  9
$LUPREC
 70
     4
  9
$SKETCHINC
 40
0.1
  9
$FILLETRAD
 40
0.0
  9
$AUNITS
 70
     0
  9
$AUPREC
 70
     0
  9
$MENU
  1
.
  9
$ELEVATION
 40
0.0
  9
$PELEVATION
 40
0.0
  9
$THICKNESS
 40
0.0
  9
$LIMCHECK
 70
     0
  9
$BLIPMODE
 70
     0
  9
$CHAMFERA
 40
0.0
  9
$CHAMFERB
 40
0.0
  9
$SKPOLY
 70
     0
  9
$TDCREATE
 40
2457347.596642673
  9
$TDUPDATE
 40
2457351.5075718518
  9
$TDINDWG
 40
0.1267094676
  9
$TDUSRTIMER
 40
0.1267094676
  9
$USRTIMER
 70
     1
  9
$ANGBASE
 50
0.0
  9
$ANGDIR
 70
     0
  9
$PDMODE
 70
     0
  9
$PDSIZE
 40
0.3125
  9
$PLINEWID
 40
0.0
  9
$COORDS
 70
     1
  9
$SPLFRAME
 70
     0
  9
$SPLINETYPE
 70
     6
  9
$SPLINESEGS
 70
     8
  9
$ATTDIA
 70
     0
  9
$ATTREQ
 70
     1
  9
$HANDLING
 70
     1
  9
$HANDSEED
  5
150A
  9
$SURFTAB1
 70
     6
  9
$SURFTAB2
 70
     6
  9
$SURFTYPE
 70
     6
  9
$SURFU
 70
     6
  9
$SURFV
 70
     6
  9
$UCSNAME
  2

  9
$UCSORG
 10
0.0
 20
0.0
 30
0.0
  9
$UCSXDIR
 10
1.0
 20
0.0
 30
0.0
  9
$UCSYDIR
 10
0.0
 20
1.0
 30
0.0
  9
$PUCSNAME
  2

  9
$PUCSORG
 10
0.0
 20
0.0
 30
0.0
  9
$PUCSXDIR
 10
1.0
 20
0.0
 30
0.0
  9
$PUCSYDIR
 10
0.0
 20
1.0
 30
0.0
  9
$USERI1
 70
     0
  9
$USERI2
 70
     0
  9
$USERI3
 70
     0
  9
$USERI4
 70
     0
  9
$USERI5
 70
     0
  9
$USERR1
 40
0.0
  9
$USERR2
 40
0.0
  9
$USERR3
 40
0.0
  9
$USERR4
 40
0.0
  9
$USERR5
 40
0.0
  9
$WORLDVIEW
 70
     1
  9
$SHADEDGE
 70
     3
  9
$SHADEDIF
 70
    70
  9
$TILEMODE
 70
     1
  9
$MAXACTVP
 70
    48
  9
$PLIMCHECK
 70
     0
  9
$PEXTMIN
 10
1.0000000000000000E+020
 20
1.0000000000000000E+020
 30
1.0000000000000000E+020
  9
$PEXTMAX
 10
-1.0000000000000000E+020
 20
-1.0000000000000000E+020
 30
-1.0000000000000000E+020
  9
$PLIMMIN
 10
0.0
 20
0.0
  9
$PLIMMAX
 10
12.0
 20
9.0
  9
$UNITMODE
 70
     0
  9
$VISRETAIN
 70
     1
  9
$PLINEGEN
 70
     0
  9
$PSLTSCALE
 70
     1
  0
ENDSEC
  0
SECTION
  2
TABLES
  0
TABLE
  2
VPORT
 70
     1
  0
VPORT
  2
*ACTIVE
 70
     0
 10
0.0
 20
0.0
 11
1.0
 21
1.0
 12
-0.4316846356196553
 22
-0.4676343104207473
 13
0.0
 23
0.0
 14
1.0
 24
1.0
 15
0.0
 25
0.0
 16
-0.2622639534798594
 26
-0.0469068379345821
 36
2.6744626085311252
 17
8.3498321266311066
 27
9.7945760490481284
 37
0.0401439364189573
 40
9.954580927148168
 41
2.0329087048832268
 42
50.0
 43
0.0
 44
0.0
 50
0.0
 51
280.091420411858
 71
     0
 72
   100
 73
     1
 74
     1
 75
     0
 76
     0
 77
     0
 78
     0
  0
ENDTAB
  0
TABLE
  2
LTYPE
 70
     1
  0
LTYPE
  2
CONTINUOUS
 70
     0
  3
Solid line
 72
    65
 73
     0
 40
0.0
  0
ENDTAB
  0
TABLE
  2
LAYER
 70
     2
  0
LAYER
  2
0
 70
     0
 62
     7
  6
CONTINUOUS
  0
LAYER
  2
DEFPOINTS
 70
     0
 62
     7
  6
CONTINUOUS
  0
ENDTAB
  0
TABLE
  2
STYLE
 70
     1
  0
STYLE
  2
STANDARD
 70
     0
 40
0.0
 41
0.8
 50
0.0
 71
     0
 42
0.2
  3
txt
  4

  0
ENDTAB
  0
TABLE
  2
VIEW
 70
     0
  0
ENDTAB
  0
TABLE
  2
UCS
 70
     0
  0
ENDTAB
  0
TABLE
  2
APPID
 70
     4
  0
APPID
  2
ACAD
 70
     0
  0
APPID
  2
ACAD_MLEADERVER
 70
     0
  0
APPID
  2
ACAD_NAV_VCDISPLAY
 70
     0
  0
APPID
  2
ACDBATTR
 70
     0
  0
ENDTAB
  0
TABLE
  2
DIMSTYLE
 70
     1
  0
DIMSTYLE
  2
STANDARD
 70
     0
  3

  4

  5

  6

  7

 40
1.0
 41
0.1875
 42
0.0625
 43
0.38
 44
0.125
 45
0.0
 46
0.0
 47
1.5
 48
1.5
140
0.15625
141
0.09
142
0.0
143
25.399999999999999
144
1.0
145
0.0
146
1.0
147
0.09
 71
     0
 72
     0
 73
     1
 74
     1
 75
     0
 76
     0
 77
     0
 78
     4
170
     0
171
     2
172
     0
173
     0
174
     0
175
     0
176
     0
177
     0
178
     0
  0
ENDTAB
  0
ENDSEC
  0
SECTION
  2
BLOCKS
  0
BLOCK
  8
0
  2
$MODEL_SPACE
 70
     0
 10
0.0
 20
0.0
 30
0.0
  3
$MODEL_SPACE
  1

  0
ENDBLK
  5
21
  8
0
  0
BLOCK
 67
     1
  8
0
  2
$PAPER_SPACE
 70
     0
 10
0.0
 20
0.0
 30
0.0
  3
$PAPER_SPACE
  1

  0
ENDBLK
  5
1D
 67
     1
  8
0
  0
BLOCK
  8
0
  2
*U0
 70
     1
 10
0.0
 20
0.0
 30
0.0
  3
*U0
  1

  0
CIRCLE
  5
1263
  8
0
 10
-0.013510885229449
 20
-0.4113895518279361
 30
0.0
 40
0.0194871916996273
  0
CIRCLE
  5
1264
  8
0
 10
-0.0134846653114789
 20
-0.4113892318007313
 30
0.0
 40
0.0558600294234892
  0
CIRCLE
  5
1265
  8
0
 10
-0.0139633965318407
 20
-0.4134067655432326
 30
0.0
 40
0.0899703876611238
  0
CIRCLE
  5
1266
  8
0
 10
-0.169206378277857
 20
-0.0397969055501886
 30
0.0
 40
0.0194871916996273
  0
CIRCLE
  5
1267
  8
0
 10
-0.1691801583598869
 20
-0.0397965855229838
 30
0.0
 40
0.0558600294234892
  0
CIRCLE
  5
1268
  8
0
 10
-0.1696588895802487
 20
-0.0418141192654851
 30
0.0
 40
0.0899703876611238
  0
CIRCLE
  5
1269
  8
0
 10
-0.3203339632398015
 20
0.3325839153471684
 30
0.0
 40
0.0194871916996273
  0
CIRCLE
  5
126A
  8
0
 10
-0.3203077433218313
 20
0.3325842353743731
 30
0.0
 40
0.0558600294234892
  0
CIRCLE
  5
126B
  8
0
 10
-0.3207864745421931
 20
0.3305667016318718
 30
0.0
 40
0.0899703876611238
  0
CIRCLE
  5
126C
  8
0
 10
0.1604673797005853
 20
0.0228491450490331
 30
0.0
 40
0.0194871916996273
  0
CIRCLE
  5
126D
  8
0
 10
0.1604935996185555
 20
0.0228494650762379
 30
0.0
 40
0.0558600294234892
  0
CIRCLE
  5
126E
  8
0
 10
0.1600148683981937
 20
0.0208319313337366
 30
0.0
 40
0.0899703876611238
  0
CIRCLE
  5
126F
  8
0
 10
-0.0035363310144723
 20
0.4146967775019466
 30
0.0
 40
0.0194871916996273
  0
CIRCLE
  5
1270
  8
0
 10
-0.0035101110965021
 20
0.4146970975291513
 30
0.0
 40
0.0558600294234892
  0
CIRCLE
  5
1271
  8
0
 10
-0.0039888423168639
 20
0.4126795637866501
 30
0.0
 40
0.0899703876611238
  0
CIRCLE
  5
1272
  8
0
 10
0.3212389858445839
 20
0.4154239792585308
 30
0.0
 40
0.0194871916996273
  0
CIRCLE
  5
1273
  8
0
 10
0.321265205762554
 20
0.4154242992857356
 30
0.0
 40
0.0558600294234892
  0
CIRCLE
  5
1274
  8
0
 10
0.3207864745421922
 20
0.4134067655432343
 30
0.0
 40
0.0899703876611238
  0
ENDBLK
  5
125E
  8
0
  0
BLOCK
  8
0
  2
*U1
 70
     1
 10
0.0
 20
0.0
 30
0.0
  3
*U1
  1

  0
INSERT
  5
1283
  8
0
  6
BYBLOCK
 62
     0
  2
*U0
 10
7.7625833535794486
 20
13.29348779837794
 30
0.0
  0
INSERT
  5
1284
  8
0
  6
BYBLOCK
 62
     0
  2
*U0
 10
7.2256273574403362
 20
12.94044581929866
 30
0.0
 50
45.000000000000021
  0
INSERT
  5
1285
  8
0
  6
BYBLOCK
 62
     0
  2
*U0
 10
7.0955805088220618
 20
12.31112221577945
 30
0.0
 41
0.9999999999999998
 42
0.9999999999999998
 43
0.9999999999999998
 50
90.000000000000028
  0
INSERT
  5
1286
  8
0
  6
BYBLOCK
 62
     0
  2
*U0
 10
7.448622487901333
 20
11.77416621964033
 30
0.0
 41
0.9999999999999998
 42
0.9999999999999998
 43
0.9999999999999998
 50
135.0
  0
INSERT
  5
1287
  8
0
  6
BYBLOCK
 62
     0
  2
*U0
 10
8.0779460914205501
 20
11.644119371022059
 30
0.0
 41
0.9999999999999998
 42
0.9999999999999998
 43
0.9999999999999998
 50
180.0
  0
INSERT
  5
1288
  8
0
  6
BYBLOCK
 62
     0
  2
*U0
 10
8.6149020875596634
 20
11.997161350101329
 30
0.0
 41
0.9999999999999998
 42
0.9999999999999998
 43
0.9999999999999998
 50
225.0
  0
INSERT
  5
1289
  8
0
  6
BYBLOCK
 62
     0
  2
*U0
 10
8.744948936177936
 20
12.626484953620549
 30
0.0
 41
0.9999999999999998
 42
0.9999999999999998
 43
0.9999999999999998
 50
270.0
  0
INSERT
  5
128A
  8
0
  6
BYBLOCK
 62
     0
  2
*U0
 10
8.3919069570986657
 20
13.163440949759661
 30
0.0
 41
0.9999999999999998
 42
0.9999999999999998
 43
0.9999999999999998
 50
315.0
  0
ENDBLK
  5
1261
  8
0
  0
ENDSEC
  0
SECTION
  2
ENTITIES
  0
LINE
  5
239
  8
0
 10
7.5602647225000004
 20
4.3928451029999991
 30
0.0
 11
8.2802647225000001
 21
4.3928451029999991
 31
0.0
  0
LINE
  5
25E
  8
0
 10
7.4644667007000001
 20
4.7428451029999996
 30
0.0
 11
8.3760627442999986
 21
4.7428451029999996
 31
0.0
  0
LINE
  5
25F
  8
0
 10
8.4010610559999996
 20
4.767019058699999
 30
0.0
 11
7.4394683890999991
 21
4.767019058699999
 31
0.0
  0
LINE
  5
47F
  8
0
 10
7.4138101311999991
 20
9.9735037392999981
 30
0.0
 11
7.3846992544000001
 21
9.9599291145000013
 31
0.0
  0
LINE
  5
48D
  8
0
 10
7.3702647224999991
 20
9.6364261771000006
 30
0.0
 11
7.3702647224999991
 21
9.9372744814999994
 31
0.0
  0
LINE
  5
48E
  8
0
 10
7.3774429522489049
 20
9.9232357990185385
 30
0.0
 11
7.377443401199999
 21
9.6495033932999998
 31
0.0
  0
LINE
  5
48F
  8
0
 10
7.3952647225000003
 20
9.5238451029999993
 30
0.0
 11
7.3952647225000003
 21
9.5930603358000006
 31
0.0
  0
LINE
  5
490
  8
0
 10
7.5602647225000004
 20
4.3928451029999991
 30
0.0
 11
7.5602647225000004
 21
4.722845103
 31
0.0
  0
LINE
  5
538
  8
0
 10
8.2802647225000001
 20
4.722845103
 30
0.0
 11
8.2802647225000001
 21
4.3928421741000001
 31
0.0
  0
LINE
  5
566
  8
0
 10
7.4102650045000003
 20
9.5088451029999987
 30
0.0
 11
8.4302647225000005
 21
9.5088451029999987
 31
0.0
  0
LINE
  5
5A1
  8
0
 10
8.4452647224999993
 20
9.5238451029999993
 30
0.0
 11
8.4452647224999993
 21
9.5930603324000003
 31
0.0
  0
LINE
  5
5A2
  8
0
 10
8.4630913912000008
 20
9.6495519577999982
 30
0.0
 11
8.4630860453999972
 21
9.9241971529999997
 31
0.0
  0
LINE
  5
5A3
  8
0
 10
8.4702647224999996
 20
9.937274799299999
 30
0.0
 11
8.4702647224999996
 21
9.6364264328000004
 31
0.0
  0
LINE
  5
5C1
  8
0
 10
8.4128709141999991
 20
9.9907796476000001
 30
0.0
 11
7.4276585215925266
 21
9.9907796055199434
 31
0.0
  0
LINE
  5
605
  8
0
 10
7.5592647225
 20
10.1785603102
 30
0.0
 11
8.2812647224999996
 21
10.1785603102
 31
0.0
  0
LINE
  5
60D
  8
0
 10
8.4267193138999996
 20
9.9735037392999981
 30
0.0
 11
8.4558301894000003
 21
9.9599291150999996
 31
0.0
  0
ARC
  5
1007
  8
0
 10
7.4644547383999997
 20
4.7678451029999991
 30
0.0
 40
0.025
 50
181.89349877410001
 51
270.0
  0
ARC
  5
1008
  8
0
 10
7.540264722499999
 20
4.722845103
 30
0.0
 40
0.02
 50
0.0
 51
75.522487814100003
  0
ARC
  5
100A
  8
0
 10
7.7401557623999988
 20
9.9218922011000004
 30
0.0
 40
0.32
 50
128.5913942485
 51
167.56844775339999
  0
ARC
  5
100D
  8
0
 10
7.5592647225
 20
10.148560310200001
 30
0.0
 40
0.03
 50
90.0
 51
128.5913942485
  0
ARC
  5
100E
  8
0
 10
7.4032446745999998
 20
9.9961614339999993
 30
0.0
 40
0.025
 50
295.0
 51
347.56844775339988
  0
ARC
  5
100F
  8
0
 10
7.4102647225
 20
9.5238451029999993
 30
0.0
 40
0.015
 50
180.0
 51
270.0
  0
ARC
  5
1010
  8
0
 10
8.3760747066999972
 20
4.7678451029999991
 30
0.0
 40
0.025
 50
270.0
 51
358.10650122589999
  0
ARC
  5
1011
  8
0
 10
8.3002647224999997
 20
4.722845103
 30
0.0
 40
0.02
 50
104.4775121859
 51
180.0
  0
ARC
  5
1012
  8
0
 10
8.100373682699999
 20
9.9218922011000004
 30
0.0
 40
0.32
 50
12.431552246600001
 51
51.408605751499998
  0
ARC
  5
1014
  8
0
 10
7.9202647224999989
 20
12.4688035847
 30
0.0
 40
1.8015008659999989
 50
308.3472393779
 51
89.999484578199997
  0
ARC
  5
1015
  8
0
 10
7.9202647224999989
 20
12.4688035847
 30
0.0
 40
1.8015008659999989
 50
90.000515421800003
 51
231.65279884270001
  0
CIRCLE
  5
101C
  8
0
 10
7.9202647224999989
 20
12.4688035847
 30
0.0
 40
1.6174808099999991
  0
CIRCLE
  5
1023
  8
0
 10
7.9202647224999989
 20
12.4688035847
 30
0.0
 40
1.434252370999999
  0
ARC
  5
1026
  8
0
 10
8.2812647224999996
 20
10.148560310200001
 30
0.0
 40
0.03
 50
51.408605751499998
 51
90.0
  0
ARC
  5
1027
  8
0
 10
8.4372847704999998
 20
9.9961614339999993
 30
0.0
 40
0.025
 50
192.43155224660001
 51
245.0
  0
ARC
  5
1028
  8
0
 10
8.4302647225000005
 20
9.5238451029999993
 30
0.0
 40
0.015
 50
270.0
 51
360.0
  0
ARC
  5
1193
  8
0
 10
7.1856038874768551
 20
9.5317879621880994
 30
0.0
 40
0.2649144686471898
 50
315.15678871985602
 51
355.0316876782112
  0
ARC
  5
1194
  8
0
 10
7.7051783494149362
 20
9.0651045964450958
 30
0.0
 40
0.4340283748080163
 50
139.8471831131184
 51
175.6239336575444
  0
ARC
  5
1195
  8
0
 10
9.384585091477545
 20
8.7932302104156328
 30
0.0
 40
2.1340762145747751
 50
171.78343053351321
 51
182.69959878268401
  0
ARC
  5
1196
  8
0
 10
-98.907310126793675
 20
1.144574101256935
 30
0.0
 40
106.4084577771301
 50
1.950692958511306
 51
3.6251771965704038
  0
ARC
  5
1197
  8
0
 10
30.555751302720111
 20
9.2865149310098065
 30
0.0
 40
23.310438330524931
 50
181.4596821747528
 51
183.47725786591519
  0
ARC
  5
1198
  8
0
 10
114.74799708321
 20
1.1465824611464179
 30
0.0
 40
106.4084577771301
 50
176.37589996408531
 51
178.05038420214439
  0
ARC
  5
1199
  8
0
 10
8.6549258395231465
 20
9.5317879621880124
 30
0.0
 40
0.2649144686471898
 50
184.96831232178201
 51
224.84321128013721
  0
ARC
  5
119A
  8
0
 10
8.1353513775850104
 20
9.0651045964450692
 30
0.0
 40
0.4340283748080163
 50
4.376066342448758
 51
40.15281688687476
  0
ARC
  5
119B
  8
0
 10
6.4559446355223686
 20
8.7932302104158069
 30
0.0
 40
2.1340762145747751
 50
357.30040121730917
 51
8.2165694664799762
  0
ARC
  5
119C
  8
0
 10
-14.715221575720131
 20
9.286514931012487
 30
0.0
 40
23.310438330524931
 50
356.52274213407799
 51
358.54031782524032
  0
ARC
  5
11A0
  8
0
 10
7.395264720164997
 20
9.9372713986644037
 30
0.0
 40
0.024999997664992
 50
114.99999850372841
 51
179.999998543316
  0
ARC
  5
11A1
  8
0
 10
8.4444410553065392
 20
9.9367460171838768
 30
0.0
 40
0.0258290111430708
 50
1.1655271798265221
 51
63.903132682396652
  0
ARC
  5
11A2
  8
0
 10
7.3952647176627737
 20
9.6364295948549863
 30
0.0
 40
0.0249999951627746
 50
180.00000127193709
 51
240.00212665680101
  0
ARC
  5
11A3
  8
0
 10
7.3678354563275068
 20
9.591967986915602
 30
0.0
 40
0.0274510085214859
 50
2.280554095372318
 51
56.495228220088137
  0
ARC
  5
11A4
  8
0
 10
8.445264547012826
 20
9.6364296784515755
 30
0.0
 40
0.0250001756978571
 50
300.00752822271818
 51
359.9925615667749
  0
ARC
  5
11A5
  8
0
 10
8.4715803299933867
 20
9.5923705630459288
 30
0.0
 40
0.0263250565197939
 50
121.6573810386066
 51
178.46064115692241
  0
LINE
  5
11A6
  8
0
 10
7.3952647225000003
 20
9.5930603358000006
 30
0.0
 11
8.4452647225000046
 21
9.5930603358000006
 31
0.0
  0
ARC
  5
11A7
  8
0
 10
7.3995809083991864
 20
9.6510362281826776
 30
0.0
 40
0.0221443973467699
 50
181.481827637615
 51
230.52740307682021
  0
ARC
  5
11A8
  8
0
 10
7.5524451978411236
 20
10.29545909269669
 30
0.0
 40
0.6822584744958347
 50
255.83645957023421
 51
265.21749958532712
  0
ARC
  5
11A9
  8
0
 10
7.5416174215499714
 20
11.24519275382151
 30
0.0
 40
1.630267354295325
 50
268.3811986267047
 51
271.61880137329752
  0
ARC
  5
11AA
  8
0
 10
7.5190097921736454
 20
10.37600756974569
 30
0.0
 40
0.7635251166240947
 50
275.1594582196002
 51
283.61642014771888
  0
ARC
  5
11AB
  8
0
 10
7.9365762853605242
 20
10.9838939541557
 30
0.0
 40
1.370739464115341
 50
260.00889022748157
 51
266.5937624271582
  0
ARC
  5
11AC
  8
0
 10
7.9202684478580636
 20
12.275699866115289
 30
0.0
 40
2.660920950617752
 50
268.5972719264214
 51
271.40247737928632
  0
ARC
  5
11AD
  8
0
 10
7.902188844872958
 20
10.998895516275139
 30
0.0
 40
1.3858196627946899
 50
273.44219993720799
 51
279.95528936762952
  0
ARC
  5
11AE
  8
0
 10
8.3132544754761284
 20
10.326114227012679
 30
0.0
 40
0.7131005352936849
 50
256.0851541243299
 51
265.14143435053808
  0
ARC
  5
11AF
  8
0
 10
8.2989113532625947
 20
11.091737214026541
 30
0.0
 40
1.4768794454088581
 50
268.21304234455738
 51
271.78701140549902
  0
ARC
  5
11B0
  8
0
 10
8.2861208875415961
 20
10.30715862781244
 30
0.0
 40
0.694081624811961
 50
274.86350590902799
 51
284.08426834055638
  0
ARC
  5
11B1
  8
0
 10
8.4406292461087862
 20
9.6512697500526201
 30
0.0
 40
0.0225277334040081
 50
309.718903397524
 51
355.62681816089969
  0
ARC
  5
11B2
  8
0
 10
7.399579948052434
 20
9.9226633039127314
 30
0.0
 40
0.0221443973467699
 50
129.4730020655287
 51
178.51857750473391
  0
ARC
  5
11B3
  8
0
 10
7.5524487942484004
 20
9.2782415203286082
 30
0.0
 40
0.6822584744958347
 50
94.782905557021749
 51
104.1639455721147
  0
ARC
  5
11B4
  8
0
 10
7.5416277335887472
 20
8.3285077826635838
 30
0.0
 40
1.630267354295325
 50
88.381603769051424
 51
91.619206515644123
  0
ARC
  5
11B5
  8
0
 10
7.5190139581455089
 20
9.1976928068575923
 30
0.0
 40
0.7635251166240947
 50
76.383984994630012
 51
84.840946922748628
  0
ARC
  5
11B6
  8
0
 10
7.9365847497278637
 20
8.5898093751038136
 30
0.0
 40
1.370739464115341
 50
93.406642715190614
 51
99.991514914867309
  0
ARC
  5
11B7
  8
0
 10
7.9202860466731639
 20
7.2980033478626938
 30
0.0
 40
2.660920950617752
 50
88.597927763062515
 51
91.403133215927426
  0
ARC
  5
11B8
  8
0
 10
7.9021974153182244
 20
8.5748075698288204
 30
0.0
 40
1.3858196627946899
 50
80.045115774719434
 51
86.558205205140808
  0
ARC
  5
11B9
  8
0
 10
8.3132582886289192
 20
9.24759176574746
 30
0.0
 40
0.7131005352936849
 50
94.858970791810705
 51
103.91525101801891
  0
ARC
  5
11BA
  8
0
 10
8.2989205801878931
 20
8.4819686773315475
 30
0.0
 40
1.4768794454088581
 50
88.213393736849866
 51
91.787362797791488
  0
ARC
  5
11BB
  8
0
 10
8.2861245666587386
 20
9.2665471730837812
 30
0.0
 40
0.694081624811961
 50
75.916136801792504
 51
85.136899233320804
  0
ARC
  5
11BC
  8
0
 10
8.4406282873872591
 20
9.9224371433663077
 30
0.0
 40
0.0225277334040081
 50
4.3735869814490993
 51
50.281501744824901
  0
LINE
  5
11C8
  8
0
 10
7.6987607330999994
 20
9.9397592778000003
 30
0.0
 11
7.6987593741000104
 21
9.6339424166000036
 31
0.0
  0
LINE
  5
11C9
  8
0
 10
8.1417683752328127
 20
9.633940194807284
 30
0.0
 11
8.1417677574616434
 21
9.9397625833562522
 31
0.0
  0
ARC
  5
11DC
  8
0
 10
6.7839606994059496
 20
11.03241624909762
 30
0.0
 40
0.0299999750940615
 50
359.99995875153701
 51
51.65310087432605
  0
ARC
  5
11DD
  8
0
 10
6.9255604640072193
 20
10.984809522064429
 30
0.0
 40
0.1117094976355706
 50
182.53935245607721
 51
223.6735711915646
  0
LINE
  5
11DE
  8
0
 10
6.8139606745000041
 20
11.03241622749997
 30
0.0
 11
6.8139606621000048
 21
10.9798602708
 31
0.0
  0
ARC
  5
11DF
  8
0
 10
7.9080461293602964
 20
12.22834662225433
 30
0.0
 40
1.695512372215336
 50
231.1623079406516
 51
247.6898242297429
  0
ARC
  5
11E0
  8
0
 10
5.9117483252929839
 20
7.4605676852789831
 30
0.0
 40
3.4733933209357368
 50
62.824585859256921
 51
67.080908619515881
  0
ARC
  5
11E1
  8
0
 10
7.3659178978873081
 20
10.29405292824948
 30
0.0
 40
0.2885471212743684
 50
10.803777413266531
 51
62.734958369158058
  0
ARC
  5
11E2
  8
0
 10
6.9747236797089229
 20
10.21535374894837
 30
0.0
 40
0.6875707314647159
 50
357.59176819702668
 51
11.13513624355406
  0
ARC
  5
11E3
  8
0
 10
7.905484520872089
 20
9.4626284144051258
 30
0.0
 40
0.763036042830003
 50
88.890096808128035
 51
110.21871058511729
  0
ARC
  5
11E4
  8
0
 10
7.9202647368518493
 20
12.42578334293685
 30
0.0
 40
1.7679630694368511
 50
230.78777415864519
 51
309.21226405113771
  0
ARC
  5
11E5
  8
0
 10
9.0565687455940491
 20
11.03241624909762
 30
0.0
 40
0.0299999750940615
 50
128.3468991256739
 51
180.00004124846299
  0
ARC
  5
11E6
  8
0
 10
8.9149689809927803
 20
10.984809522064429
 30
0.0
 40
0.1117094976355706
 50
316.32642880843542
 51
357.46064754392268
  0
LINE
  5
11E7
  8
0
 10
9.0265687704999955
 20
11.03241622749997
 30
0.0
 11
9.0265687828999912
 21
10.9798602708
 31
0.0
  0
ARC
  5
11E8
  8
0
 10
7.9324833156397032
 20
12.22834662225433
 30
0.0
 40
1.695512372215336
 50
292.31017577025699
 51
308.83769205934829
  0
ARC
  5
11E9
  8
0
 10
9.9287811197070148
 20
7.4605676852789831
 30
0.0
 40
3.4733933209357368
 50
112.9190913804841
 51
117.1754141407431
  0
ARC
  5
11EA
  8
0
 10
8.4746115471126906
 20
10.29405292824948
 30
0.0
 40
0.2885471212743684
 50
117.26504163084191
 51
169.1962225867334
  0
ARC
  5
11EB
  8
0
 10
8.8658057652910731
 20
10.21535374894837
 30
0.0
 40
0.6875707314647159
 50
168.86486375644591
 51
182.40823180297321
  0
ARC
  5
11EC
  8
0
 10
7.9350449241279088
 20
9.4626284144051258
 30
0.0
 40
0.763036042830003
 50
69.781289414882693
 51
91.109903191871936
  0
INSERT
  5
1262
  8
0
  2
*U1
 10
0.0
 20
0.0
 30
0.0
  0
LINE
  5
12F7
  8
0
 10
7.5602647225000004
 20
4.4188869238999988
 30
0.0
 11
8.2802647225000001
 21
4.436117553199999
 31
0.0
  0
LINE
  5
12F8
  8
0
 10
7.9077093441692332
 20
4.3928451029999991
 30
0.0
 11
8.2802641915000006
 21
4.402868164
 31
0.0
  0
LINE
  5
12FA
  8
0
 10
7.5602646101999991
 20
4.476243135399999
 30
0.0
 11
8.2802646101999997
 21
4.4934737647
 31
0.0
  0
LINE
  5
12FB
  8
0
 10
7.560265124499999
 20
4.5476722692999987
 30
0.0
 11
8.2802651244999996
 21
4.5649028985999989
 31
0.0
  0
LINE
  5
12FC
  8
0
 10
7.5602651622999986
 20
4.6191014031999993
 30
0.0
 11
8.2802651622999992
 21
4.6363320324999986
 31
0.0
  0
LINE
  5
12FD
  8
0
 10
7.560265253499999
 20
4.6838638629
 30
0.0
 11
8.2802652534999996
 21
4.7010944922000002
 31
0.0
  0
ATTDEF
  5
1373
  8
DEFPOINTS
 10
7.9156385717932354
 20
4.3835713248244481
 30
0.0
 40
0.001
  1
METAL
  3

  2
MATERIAL
 70
     0
1001
ACDBATTR
1070
     0
1070
     1
  0
ATTDEF
  5
1374
  8
DEFPOINTS
 10
7.9156385717932354
 20
4.385237991491115
 30
0.0
 40
0.001
  1
HANDSHOWER
  3

  2
PRODUCT
 70
     0
1001
ACDBATTR
1070
     0
1070
     1
  0
ATTDEF
  5
1375
  8
DEFPOINTS
 10
7.9156385717932354
 20
4.3869046581577811
 30
0.0
 40
0.001
  1
ARTIFACTS
  3

  2
TRADENAME
 70
     0
1001
ACDBATTR
1070
     0
1070
     1
  0
ATTDEF
  5
1376
  8
DEFPOINTS
 10
7.9156385717932354
 20
4.388571324824448
 30
0.0
 40
0.001
  1
K-72776
  3

  2
MODELNUMBER
 70
     0
1001
ACDBATTR
1070
     0
1070
     1
  0
ENDSEC
  0
EOF
