  0
SECTION
  2
HEADER
  9
$ACADVER
  1
AC1009
  9
$INSBASE
 10
2854.1892477635569776
 20
220.8223771719709987
 30
0.0
  9
$EXTMIN
 10
2852.8142477635569776
 20
219.4473771719709987
 30
0.0
  9
$EXTMAX
 10
2855.5642477635560681
 20
222.1973771719709987
 30
0.0
  9
$LIMMIN
 10
0.0
 20
0.0
  9
$LIMMAX
 10
11.6929133858000007
 20
8.2677165353999982
  9
$ORTHOMODE
 70
     0
  9
$REGENMODE
 70
     1
  9
$FILLMODE
 70
     1
  9
$QTEXTMODE
 70
     0
  9
$MIRRTEXT
 70
     0
  9
$DRAGMODE
 70
     2
  9
$LTSCALE
 40
0.6431102362
  9
$OSMODE
 70
  4095
  9
$ATTMODE
 70
     1
  9
$TEXTSIZE
 40
0.2
  9
$TRACEWID
 40
0.05
  9
$TEXTSTYLE
  7
STANDARD
  9
$CLAYER
  8
0
  9
$CELTYPE
  6
BYLAYER
  9
$CECOLOR
 62
   256
  9
$DIMSCALE
 40
1.0
  9
$DIMASZ
 40
0.1875
  9
$DIMEXO
 40
0.0625
  9
$DIMDLI
 40
0.4443307087
  9
$DIMRND
 40
0.0
  9
$DIMDLE
 40
0.0
  9
$DIMEXE
 40
0.125
  9
$DIMTP
 40
0.01
  9
$DIMTM
 40
0.01
  9
$DIMTXT
 40
2.0
  9
$DIMCEN
 40
0.1052362205
  9
$DIMTSZ
 40
0.0
  9
$DIMTOL
 70
     1
  9
$DIMLIM
 70
     0
  9
$DIMTIH
 70
     1
  9
$DIMTOH
 70
     1
  9
$DIMSE1
 70
     0
  9
$DIMSE2
 70
     0
  9
$DIMTAD
 70
     0
  9
$DIMZIN
 70
     0
  9
$DIMBLK
  1

  9
$DIMASO
 70
     1
  9
$DIMSHO
 70
     1
  9
$DIMPOST
  1
\X
  9
$DIMAPOST
  1

  9
$DIMALT
 70
     1
  9
$DIMALTD
 70
     2
  9
$DIMALTF
 40
25.3999999999999986
  9
$DIMLFAC
 40
1.0
  9
$DIMTOFL
 70
     0
  9
$DIMTVP
 40
0.0
  9
$DIMTIX
 70
     0
  9
$DIMSOXD
 70
     0
  9
$DIMSAH
 70
     0
  9
$DIMBLK1
  1

  9
$DIMBLK2
  1

  9
$DIMSTYLE
  2
STANDARD
  9
$DIMCLRD
 70
     0
  9
$DIMCLRE
 70
     0
  9
$DIMCLRT
 70
     0
  9
$DIMTFAC
 40
1.0
  9
$DIMGAP
 40
0.09
  9
$LUNITS
 70
     2
  9
$LUPREC
 70
     4
  9
$SKETCHINC
 40
0.1
  9
$FILLETRAD
 40
0.0
  9
$AUNITS
 70
     0
  9
$AUPREC
 70
     0
  9
$MENU
  1
.
  9
$ELEVATION
 40
0.0
  9
$PELEVATION
 40
0.0
  9
$THICKNESS
 40
0.0
  9
$LIMCHECK
 70
     0
  9
$BLIPMODE
 70
     0
  9
$CHAMFERA
 40
0.0
  9
$CHAMFERB
 40
0.0
  9
$SKPOLY
 70
     0
  9
$TDCREATE
 40
2458060.468368056230247
  9
$TDUPDATE
 40
2459635.0016319439746439
  9
$TDINDWG
 40
0.3893936343
  9
$TDUSRTIMER
 40
0.3893936343
  9
$USRTIMER
 70
     1
  9
$ANGBASE
 50
0.0
  9
$ANGDIR
 70
     0
  9
$PDMODE
 70
     0
  9
$PDSIZE
 40
0.3125
  9
$PLINEWID
 40
0.0
  9
$COORDS
 70
     1
  9
$SPLFRAME
 70
     0
  9
$SPLINETYPE
 70
     6
  9
$SPLINESEGS
 70
     8
  9
$ATTDIA
 70
     1
  9
$ATTREQ
 70
     1
  9
$HANDLING
 70
     1
  9
$HANDSEED
  5
B0D9
  9
$SURFTAB1
 70
     6
  9
$SURFTAB2
 70
     6
  9
$SURFTYPE
 70
     6
  9
$SURFU
 70
     6
  9
$SURFV
 70
     6
  9
$UCSNAME
  2

  9
$UCSORG
 10
0.0
 20
0.0
 30
0.0
  9
$UCSXDIR
 10
1.0
 20
0.0
 30
0.0
  9
$UCSYDIR
 10
0.0
 20
1.0
 30
0.0
  9
$PUCSNAME
  2

  9
$PUCSORG
 10
0.0
 20
0.0
 30
0.0
  9
$PUCSXDIR
 10
1.0
 20
0.0
 30
0.0
  9
$PUCSYDIR
 10
0.0
 20
1.0
 30
0.0
  9
$USERI1
 70
     0
  9
$USERI2
 70
     0
  9
$USERI3
 70
     0
  9
$USERI4
 70
     0
  9
$USERI5
 70
     0
  9
$USERR1
 40
0.0
  9
$USERR2
 40
0.0
  9
$USERR3
 40
0.0
  9
$USERR4
 40
0.0
  9
$USERR5
 40
0.0
  9
$WORLDVIEW
 70
     1
  9
$SHADEDGE
 70
     3
  9
$SHADEDIF
 70
    70
  9
$TILEMODE
 70
     1
  9
$MAXACTVP
 70
    64
  9
$PLIMCHECK
 70
     0
  9
$PEXTMIN
 10
1.0000000000000000E+20
 20
1.0000000000000000E+20
 30
1.0000000000000000E+20
  9
$PEXTMAX
 10
-1.0000000000000000E+20
 20
-1.0000000000000000E+20
 30
-1.0000000000000000E+20
  9
$PLIMMIN
 10
0.0
 20
0.0
  9
$PLIMMAX
 10
12.0
 20
9.0
  9
$UNITMODE
 70
     0
  9
$VISRETAIN
 70
     1
  9
$PLINEGEN
 70
     0
  9
$PSLTSCALE
 70
     1
  0
ENDSEC
  0
SECTION
  2
TABLES
  0
TABLE
  2
VPORT
 70
     1
  0
VPORT
  2
*ACTIVE
 70
     0
 10
0.0
 20
0.0
 11
1.0
 21
1.0
 12
512.2143942479315228
 22
84.4888795917790958
 13
0.0
 23
0.0
 14
1.0
 24
1.0
 15
0.0
 25
0.0
 16
0.0
 26
0.0
 36
48.1717359839548322
 17
2341.974853515625
 27
136.3334975801919029
 37
0.0
 40
2.7717965653897059
 41
2.0410052910052912
 42
50.0
 43
0.0
 44
0.0
 50
0.0
 51
0.0
 71
     0
 72
   100
 73
     1
 74
     1
 75
     0
 76
     0
 77
     0
 78
     0
  0
ENDTAB
  0
TABLE
  2
LTYPE
 70
     2
  0
LTYPE
  2
CONTINUOUS
 70
     0
  3
Solid line
 72
    65
 73
     0
 40
0.0
  0
LTYPE
  2
PHANTOM2
 70
     0
  3
___ _ _ ___ _ _ ___ _ _ ___ _ _
 72
    65
 73
     6
 40
1.25
 49
0.625
 49
-0.125
 49
0.125
 49
-0.125
 49
0.125
 49
-0.125
  0
ENDTAB
  0
TABLE
  2
LAYER
 70
     2
  0
LAYER
  2
0
 70
     0
 62
   255
  6
CONTINUOUS
  0
LAYER
  2
DEFPOINTS
 70
     0
 62
     7
  6
CONTINUOUS
  0
ENDTAB
  0
TABLE
  2
STYLE
 70
     1
  0
STYLE
  2
STANDARD
 70
     0
 40
0.0
 41
0.8
 50
0.0
 71
     0
 42
0.2
  3
txt
  4

  0
ENDTAB
  0
TABLE
  2
VIEW
 70
     0
  0
ENDTAB
  0
TABLE
  2
UCS
 70
     0
  0
ENDTAB
  0
TABLE
  2
APPID
 70
     9
  0
APPID
  2
ACAD
 70
     0
  0
APPID
  2
ACAD_MLEADERVER
 70
     0
  0
APPID
  2
ACAD_EXEMPT_FROM_CAD_STANDARDS
 70
     0
  0
APPID
  2
ACAD_NAV_VCDISPLAY
 70
     0
  0
APPID
  2
ACAECLAYERSTANDARD
 70
     0
  0
APPID
  2
ACCMTRANSPARENCY
 70
     0
  0
APPID
  2
ACAD_DSTYLE_DIMJAG
 70
     0
  0
APPID
  2
ACAD_DSTYLE_DIMTALN
 70
     0
  0
APPID
  2
ACDBATTR
 70
     0
  0
ENDTAB
  0
TABLE
  2
DIMSTYLE
 70
     1
  0
DIMSTYLE
  2
STANDARD
 70
     0
  3

  4

  5

  6

  7

 40
1.0
 41
0.1875
 42
0.0625
 43
0.38
 44
0.125
 45
0.0
 46
0.0
 47
0.01
 48
0.01
140
0.15625
141
0.09
142
0.0
143
25.3999999999999986
144
1.0
145
0.0
146
1.0
147
0.09
 71
     1
 72
     0
 73
     1
 74
     1
 75
     0
 76
     0
 77
     0
 78
     4
170
     0
171
     2
172
     0
173
     0
174
     0
175
     0
176
     0
177
     0
178
     0
  0
ENDTAB
  0
ENDSEC
  0
SECTION
  2
BLOCKS
  0
BLOCK
  8
0
  2
$MODEL_SPACE
 70
     0
 10
0.0
 20
0.0
 30
0.0
  3
$MODEL_SPACE
  1

  0
ENDBLK
  5
21
  8
0
  0
BLOCK
 67
     1
  8
0
  2
$PAPER_SPACE
 70
     0
 10
0.0
 20
0.0
 30
0.0
  3
$PAPER_SPACE
  1

  0
ENDBLK
  5
1D
 67
     1
  8
0
  0
ENDSEC
  0
SECTION
  2
ENTITIES
  0
ATTDEF
  5
3930
  8
DEFPOINTS
 10
2854.18547094745918
 20
220.826492645720009
 30
0.0
 40
0.001
  1
K-72775
  3

  2
MODELNUMBER
 70
     0
1001
ACDBATTR
1070
     0
1070
     1
  0
ATTDEF
  5
3931
  8
DEFPOINTS
 10
2854.18547094745918
 20
220.8248259790534007
 30
0.0
 40
0.001
  1
ARTIFACTS
  3

  2
TRADENAME
 70
     0
1001
ACDBATTR
1070
     0
1070
     1
  0
ATTDEF
  5
3932
  8
DEFPOINTS
 10
2854.18547094745918
 20
220.8231593123867071
 30
0.0
 40
0.001
  1
SHOWER ARM
  3

  2
PRODUCT
 70
     0
1001
ACDBATTR
1070
     0
1070
     1
  0
LINE
  5
B001
  8
0
 10
2853.7832477635570285
 20
220.6693069610221016
 30
0.0
 11
2853.7832477635570285
 21
221.7113785619710029
 31
0.0
  0
LINE
  5
B002
  8
0
 10
2854.5952477635569267
 20
220.6653786404710047
 30
0.0
 11
2854.5952477635569267
 21
221.7113785619710029
 31
0.0
  0
CIRCLE
  5
B003
  8
0
 10
2854.1892477635569776
 20
220.8223771719709987
 30
0.0
 40
1.375
  0
ARC
  5
B004
  8
0
 10
2854.1892477635569776
 20
220.8223771719709987
 30
0.0
 40
1.0189135209999991
 50
113.3170863738522058
 51
66.6829136261477231
  0
ARC
  5
B005
  8
0
 10
2854.1892477635569776
 20
220.8223771719709987
 30
0.0
 40
0.6363933979
 50
129.6406256799652112
 51
235.2119388047941868
  0
ARC
  5
B006
  8
0
 10
2854.1892477635569776
 20
220.8223771719709987
 30
0.0
 40
0.6363933979
 50
305.9648936057909054
 51
50.359374320034739
  0
ARC
  5
B007
  8
0
 10
2854.1892477635569776
 20
220.8223771719709987
 30
0.0
 40
0.4975
 50
323.5533175065676801
 51
35.3056699193073626
  0
ARC
  5
B008
  8
0
 10
2854.1885075433860948
 20
220.8226058508996914
 30
0.0
 40
0.4967625230763561
 50
144.6667232230931859
 51
216.562497205951388
  0
ARC
  5
B009
  8
0
 10
2854.1892477635569776
 20
221.7113785619710029
 30
0.0
 40
0.4060000000000001
 50
0.0
 51
180.0
  0
ARC
  5
B00A
  8
0
 10
2854.032670328319
 20
220.6624612289386107
 30
0.0
 40
0.2495164921607849
 50
131.3266727825532882
 51
186.60423298882381
  0
ARC
  5
B00B
  8
0
 10
2854.1995978890208789
 20
220.4503406283999993
 30
0.0
 40
0.5192493888527885
 50
55.6116416621471714
 51
129.7023390673730034
  0
ARC
  5
B00C
  8
0
 10
2854.086959368090902
 20
220.5789616385310126
 30
0.0
 40
0.3000407487260083
 50
177.710338949447106
 51
187.3731813977661886
  0
ARC
  5
B00D
  8
0
 10
2854.0786236186850147
 20
220.5288087547233999
 30
0.0
 40
0.2894576209120488
 50
177.6947449344635004
 51
187.542845211726501
  0
ARC
  5
B00E
  8
0
 10
2855.6742902645351023
 20
220.5176688451983864
 30
0.0
 40
1.882811134239831
 50
180.8172966833668909
 51
183.1014689189144065
  0
ARC
  5
B00F
  8
0
 10
2854.0039859402081674
 20
220.4170730267780129
 30
0.0
 40
0.2097528858699717
 50
170.3125373019987876
 51
189.1730444739596066
  0
ARC
  5
B010
  8
0
 10
2854.1136957483108745
 20
220.4497676503947901
 30
0.0
 40
0.3236097382341023
 50
191.7920118180711881
 51
252.3546576301818902
  0
ARC
  5
B011
  8
0
 10
2854.2098873847849063
 20
220.7478733334415892
 30
0.0
 40
0.636849209879582
 50
252.2374388463566959
 51
268.14277809815502
  0
ARC
  5
B012
  8
0
 10
2853.9260471587149368
 20
225.0422056102416946
 30
0.0
 40
4.9378665583614829
 50
273.0554559739287015
 51
273.5688755606648783
  0
ARC
  5
B013
  8
0
 10
2854.3724807963180865
 20
220.6618713999727106
 30
0.0
 40
0.2227945745043948
 50
349.9655905204326132
 51
0.901989553808745
  0
ARC
  5
B014
  8
0
 10
2854.3535399317179326
 20
220.4030054452562979
 30
0.0
 40
0.2302864896446204
 50
308.4900513469879115
 51
355.0444553413341851
  0
ARC
  5
B015
  8
0
 10
2854.2058675139060142
 20
220.5538534102491042
 30
0.0
 40
0.4408003197372018
 50
273.5838050646341912
 51
311.3119195685396789
  0
ARC
  5
B016
  8
0
 10
2854.1837961451337833
 20
220.184597281267088
 30
0.0
 40
0.4175290827278843
 50
89.2518758192483546
 51
131.4019860256383083
  0
ARC
  5
B017
  8
0
 10
2854.0291473402508018
 20
220.3599996608795948
 30
0.0
 40
0.1836867263731965
 50
131.4019860256383083
 51
228.0374282353614888
  0
ARC
  5
B018
  8
0
 10
2854.1820914181012085
 20
220.5300846593245865
 30
0.0
 40
0.4124241252515399
 50
228.0374370674873887
 51
270.9942409884283165
  0
ARC
  5
B019
  8
0
 10
2854.1946993819788077
 20
220.184597281267088
 30
0.0
 40
0.4175290827278843
 50
48.5980139743616633
 51
90.7481241807516312
  0
ARC
  5
B01A
  8
0
 10
2854.3493481868631534
 20
220.3599996608795948
 30
0.0
 40
0.1836867263731965
 50
311.9625717646384828
 51
48.5980139743616633
  0
ARC
  5
B01B
  8
0
 10
2854.1964041090118371
 20
220.5300846593245865
 30
0.0
 40
0.4124241252515399
 50
269.0057590115716835
 51
311.9625629325125828
  0
ARC
  5
B01C
  8
0
 10
2854.0726790631370022
 20
220.3739989524898988
 30
0.0
 40
0.2627023684784355
 50
118.4704235154244998
 51
190.2455192282733947
  0
ARC
  5
B01D
  8
0
 10
2854.1848413031671043
 20
220.1975109888522866
 30
0.0
 40
0.4715366861253455
 50
89.4645692158498207
 51
120.2283225796691966
  0
ARC
  5
B01E
  8
0
 10
2854.0697503746550865
 20
220.3925444207997089
 30
0.0
 40
0.2790153403076467
 50
116.1025472830022949
 51
167.618912357105188
  0
ARC
  5
B01F
  8
0
 10
2854.1980596190928736
 20
220.1779391936939021
 30
0.0
 40
0.5311899399323455
 50
90.9505174201915736
 51
98.1914625061178867
  0
ARC
  5
B020
  8
0
 10
2854.2056610139279655
 20
220.1786267289951127
 30
0.0
 40
0.5316471136445154
 50
99.0128947307992178
 51
119.1139080141320932
  0
ARC
  5
B021
  8
0
 10
2854.1237106920220867
 20
220.3909733457225002
 30
0.0
 40
0.3546857931075125
 50
109.6045339209685068
 51
148.9258158945754928
  0
ARC
  5
B022
  8
0
 10
2854.1985462299658138
 20
220.2241367054544128
 30
0.0
 40
0.5371566063448878
 50
90.9918699424654847
 51
111.153427130392302
  0
ARC
  5
B023
  8
0
 10
2854.1495538821031914
 20
220.4269333227090897
 30
0.0
 40
0.3944682214869779
 50
95.9886397940645963
 51
145.9467139316585929
  0
ARC
  5
B024
  8
0
 10
2854.2007814793828402
 20
220.2639049068465908
 30
0.0
 40
0.5629755088168462
 50
91.1739044857089596
 51
99.4448203324656532
  0
ARC
  5
B025
  8
0
 10
2854.0949852221760921
 20
220.5339776489774977
 30
0.0
 40
0.3190631858392343
 50
115.3251731204992012
 51
157.5004259317223045
  0
ARC
  5
B026
  8
0
 10
2854.1963376053317916
 20
220.3500150935495014
 30
0.0
 40
0.5288578221908289
 50
90.768127391968207
 51
116.7251540849139957
  0
LINE
  5
B027
  8
0
 10
2854.4924024847568944
 20
220.8415426069709895
 30
0.0
 11
2854.492869601656821
 21
220.8788399054710112
 31
0.0
  0
ARC
  5
B028
  8
0
 10
2854.2000145551778587
 20
220.408438960581293
 30
0.0
 40
0.5225604939898892
 50
55.9767451173090578
 51
91.1806008712047174
  0
ARC
  5
B029
  8
0
 10
2854.1963858473500295
 20
220.3987173437940044
 30
0.0
 40
0.5322190498642277
 50
90.7684699326602953
 51
116.5615789954734964
  0
ARC
  5
B02A
  8
0
 10
2854.1142839852032012
 20
220.5582978779715972
 30
0.0
 40
0.3527750603417857
 50
116.2240101764010944
 51
144.8238073704276019
  0
ARC
  5
B02B
  8
0
 10
2854.086201045044163
 20
220.6018308947944035
 30
0.0
 40
0.3053586397524675
 50
148.4672754762835041
 51
168.6417412814197974
  0
ARC
  5
B02C
  8
0
 10
2856.8764577934639419
 20
220.3612598720895051
 30
0.0
 40
3.104234202218223
 50
174.4410008220172017
 51
174.8372523479353049
  0
ARC
  5
B02D
  8
0
 10
2854.0057268119930995
 20
220.5810226835918115
 30
0.0
 40
0.2187939194594773
 50
159.9383887005230065
 51
177.3997683978356861
  0
ARC
  5
B02E
  8
0
 10
2854.0179550336861212
 20
220.5283589398528932
 30
0.0
 40
0.228875446091699
 50
148.5366436166873996
 51
176.9700103883311044
  0
ARC
  5
B02F
  8
0
 10
2854.0158169198648466
 20
220.4656151554081021
 30
0.0
 40
0.2239003597223514
 50
151.0353042112286914
 51
178.2445791907638011
  0
ARC
  5
B030
  8
0
 10
2854.2023444963328984
 20
220.3472301157486868
 30
0.0
 40
0.5317565802346815
 50
65.0551561506653258
 51
91.4112912296833713
  0
ARC
  5
B031
  8
0
 10
2854.2868046529911226
 20
220.5288116736761879
 30
0.0
 40
0.3314933029169051
 50
37.8338091665006218
 51
65.0551561506653258
  0
ARC
  5
B032
  8
0
 10
2854.383113283547118
 20
220.6034037833186972
 30
0.0
 40
0.2096766609247862
 50
3.6198404320599291
 51
37.8777466879591813
  0
ARC
  5
B033
  8
0
 10
2854.2021459296938701
 20
220.2824448053229105
 30
0.0
 40
0.5444702482092529
 50
77.1980914761056027
 51
91.3574288467592766
  0
ARC
  5
B034
  8
0
 10
2854.222645742423083
 20
220.3726611581591044
 30
0.0
 40
0.4519541272303173
 50
51.5181157848666516
 51
77.1980914761056027
  0
ARC
  5
B035
  8
0
 10
2854.3582141184037937
 20
220.5432046188846016
 30
0.0
 40
0.2340921145652585
 50
21.8352102093380402
 51
51.5181157848666516
  0
ARC
  5
B036
  8
0
 10
2854.3811161393950897
 20
220.5523811033687878
 30
0.0
 40
0.2094200568296874
 50
3.7049529828600472
 51
21.8352102093380402
  0
ARC
  5
B037
  8
0
 10
2854.2016706338231415
 20
220.2183521057621078
 30
0.0
 40
0.5430028437073054
 50
74.6840856726933424
 51
91.3109326226055202
  0
ARC
  5
B038
  8
0
 10
2854.2301192454669945
 20
220.3222293462501966
 30
0.0
 40
0.4353004547092958
 50
54.2643827123011491
 51
74.6840856726933424
  0
ARC
  5
B039
  8
0
 10
2854.3297308476990111
 20
220.4606718699959913
 30
0.0
 40
0.2647460537682425
 50
21.4832232839628396
 51
54.2643827123011491
  0
ARC
  5
B03A
  8
0
 10
2854.416200166787803
 20
220.4947037963547132
 30
0.0
 40
0.1718207334551392
 50
0.7855114702528284
 51
21.4832232839628396
  0
ARC
  5
B03B
  8
0
 10
2854.2030305254561426
 20
220.1820610264367133
 30
0.0
 40
0.5271752155694351
 50
70.175021351693502
 51
91.4981434170740187
  0
ARC
  5
B03C
  8
0
 10
2854.2521907705800004
 20
220.3184223051227093
 30
0.0
 40
0.3822230578565715
 50
45.0630085028235001
 51
70.175021351693502
  0
ARC
  5
B03D
  8
0
 10
2854.3680227067611668
 20
220.4345092839893994
 30
0.0
 40
0.21823152117936
 50
12.2228621482657296
 51
45.0630085028235001
  0
ARC
  5
B03E
  8
0
 10
2854.3787909759630566
 20
220.4368419641953096
 30
0.0
 40
0.2072134896605995
 50
2.705176303781327
 51
12.2228621482657296
  0
ARC
  5
B03F
  8
0
 10
2854.1752284982690071
 20
220.0560103701432979
 30
0.0
 40
0.6131769998933445
 50
72.1295965330073017
 51
88.6899137937367357
  0
ARC
  5
B040
  8
0
 10
2854.2493236874988725
 20
220.2858192970736013
 30
0.0
 40
0.3717184320935391
 50
41.2680567296691407
 51
72.1295965330073017
  0
ARC
  5
B041
  8
0
 10
2854.3636693845769514
 20
220.3861615504837062
 30
0.0
 40
0.2195885327987131
 50
16.7455215543431599
 51
41.2680567296691407
  0
ARC
  5
B042
  8
0
 10
2854.3691107599188399
 20
220.3877987547475072
 30
0.0
 40
0.2139061914307925
 50
358.7447067290165137
 51
16.7455215543416003
  0
ARC
  5
B043
  8
0
 10
2854.241571523483799
 20
220.1296749194422091
 30
0.0
 40
0.4908310731713275
 50
70.0695262006312163
 51
96.119494313301189
  0
ARC
  5
B044
  8
0
 10
2854.2968807541660681
 20
220.2822114479430979
 30
0.0
 40
0.3285766324746166
 50
42.6506835682873486
 51
70.0695262006312163
  0
ARC
  5
B045
  8
0
 10
2854.4003386731201317
 20
220.3775149220402056
 30
0.0
 40
0.1879128732143198
 50
22.5012029319576392
 51
42.6506835682873486
  0
ARC
  5
B046
  8
0
 10
2854.3925366126782137
 20
220.4042339826389991
 30
0.0
 40
0.1911880648370375
 50
355.0685580093709746
 51
3.185348918191337
  0
ARC
  5
B047
  8
0
 10
2854.3021286522211994
 20
220.451586693980687
 30
0.0
 40
0.2836883477906644
 50
352.5610356798633802
 51
358.9971934731589727
  0
ARC
  5
B048
  8
0
 10
2855.4166957822299082
 20
220.435132470119612
 30
0.0
 40
0.831001660423877
 50
175.7263132916760924
 51
179.207813190689393
  0
ARC
  5
B049
  8
0
 10
2853.4943763777819186
 20
220.5647740336646905
 30
0.0
 40
1.095722730568762
 50
356.4569141088107926
 51
0.0595846637602343
  0
ARC
  5
B04A
  8
0
 10
2854.26982871772816
 20
220.6056797526890989
 30
0.0
 40
0.3227291374384956
 50
352.9221077355900889
 51
1.9465507300622289
  0
ARC
  5
B04B
  8
0
 10
2854.2961244729372083
 20
220.6366140779497016
 30
0.0
 40
0.5113228550522541
 50
179.5539647466937936
 51
185.3992911187505115
  0
ARC
  5
B04D
  8
0
 10
2854.1957359476250531
 20
220.1525287078592896
 30
0.0
 40
0.4553707094288979
 50
72.4219153403283116
 51
90.8163856482653955
  0
ARC
  5
B04E
  8
0
 10
2854.2197013676109236
 20
220.2281776662840969
 30
0.0
 40
0.3760164010021274
 50
46.077114982821513
 51
72.4219153403283116
  0
ARC
  5
B04F
  8
0
 10
2854.3437184592557969
 20
220.3569475107275935
 30
0.0
 40
0.1972374540925681
 50
8.6841220858348045
 51
46.077114982821513
  0
ARC
  5
B050
  8
0
 10
2854.3629438893931365
 20
220.3598839626328925
 30
0.0
 40
0.1777890630615003
 50
343.3813649797942844
 51
8.6841220858348045
  0
ARC
  5
B051
  8
0
 10
2854.3396873761530514
 20
220.3668252673728034
 30
0.0
 40
0.2020593560046352
 50
323.7212236627374864
 51
343.3813649797928065
  0
ARC
  5
B052
  8
0
 10
2854.2829771975038966
 20
220.4084507018999943
 30
0.0
 40
0.2724065035092766
 50
310.7941022893613763
 51
323.7212236627374864
  0
ARC
  5
B053
  8
0
 10
2854.2231722392389202
 20
220.4830233732604086
 30
0.0
 40
0.3679519256372503
 50
281.0830082199169055
 51
310.2575881083602098
  0
LINE
  5
B054
  8
0
 10
2854.1892477640999459
 20
220.6078531926833932
 30
0.0
 11
2854.1892477635569776
 21
220.6177091052709898
 31
0.0
  0
ENDSEC
  0
EOF
