  0
SECTION
  2
HEADER
  9
$ACADVER
  1
AC1009
  9
$INSBASE
 10
3496.591509275892804
 20
167.6342086881163027
 30
0.0
  9
$EXTMIN
 10
3493.4294331546229841
 20
163.3312565785911943
 30
-0.0000000000000058
  9
$EXTMAX
 10
3499.8376276037529351
 20
168.3002984203309893
 30
0.0000000000000104
  9
$LIMMIN
 10
0.0
 20
0.0
  9
$LIMMAX
 10
11.6929133858000007
 20
8.2677165353999982
  9
$ORTHOMODE
 70
     0
  9
$REGENMODE
 70
     1
  9
$FILLMODE
 70
     1
  9
$QTEXTMODE
 70
     0
  9
$MIRRTEXT
 70
     0
  9
$DRAGMODE
 70
     2
  9
$LTSCALE
 40
0.6431102362
  9
$OSMODE
 70
   575
  9
$ATTMODE
 70
     1
  9
$TEXTSIZE
 40
0.2
  9
$TRACEWID
 40
0.05
  9
$TEXTSTYLE
  7
STANDARD
  9
$CLAYER
  8
0
  9
$CELTYPE
  6
BYLAYER
  9
$CECOLOR
 62
   256
  9
$DIMSCALE
 40
1.0
  9
$DIMASZ
 40
0.1875
  9
$DIMEXO
 40
0.0625
  9
$DIMDLI
 40
0.4443307087
  9
$DIMRND
 40
0.0
  9
$DIMDLE
 40
0.0
  9
$DIMEXE
 40
0.125
  9
$DIMTP
 40
0.01
  9
$DIMTM
 40
0.01
  9
$DIMTXT
 40
2.0
  9
$DIMCEN
 40
0.1052362205
  9
$DIMTSZ
 40
0.0
  9
$DIMTOL
 70
     1
  9
$DIMLIM
 70
     0
  9
$DIMTIH
 70
     1
  9
$DIMTOH
 70
     1
  9
$DIMSE1
 70
     0
  9
$DIMSE2
 70
     0
  9
$DIMTAD
 70
     0
  9
$DIMZIN
 70
     0
  9
$DIMBLK
  1

  9
$DIMASO
 70
     1
  9
$DIMSHO
 70
     1
  9
$DIMPOST
  1
\X
  9
$DIMAPOST
  1

  9
$DIMALT
 70
     1
  9
$DIMALTD
 70
     2
  9
$DIMALTF
 40
25.3999999999999986
  9
$DIMLFAC
 40
1.0
  9
$DIMTOFL
 70
     0
  9
$DIMTVP
 40
0.0
  9
$DIMTIX
 70
     0
  9
$DIMSOXD
 70
     0
  9
$DIMSAH
 70
     0
  9
$DIMBLK1
  1

  9
$DIMBLK2
  1

  9
$DIMSTYLE
  2
STANDARD
  9
$DIMCLRD
 70
     0
  9
$DIMCLRE
 70
     0
  9
$DIMCLRT
 70
     0
  9
$DIMTFAC
 40
1.0
  9
$DIMGAP
 40
0.09
  9
$LUNITS
 70
     2
  9
$LUPREC
 70
     4
  9
$SKETCHINC
 40
0.1
  9
$FILLETRAD
 40
0.0
  9
$AUNITS
 70
     0
  9
$AUPREC
 70
     0
  9
$MENU
  1
.
  9
$ELEVATION
 40
0.0
  9
$PELEVATION
 40
0.0
  9
$THICKNESS
 40
0.0
  9
$LIMCHECK
 70
     0
  9
$BLIPMODE
 70
     0
  9
$CHAMFERA
 40
0.0
  9
$CHAMFERB
 40
0.0
  9
$SKPOLY
 70
     0
  9
$TDCREATE
 40
2458060.468368056230247
  9
$TDUPDATE
 40
2459506.4660532409325242
  9
$TDINDWG
 40
0.5908866898
  9
$TDUSRTIMER
 40
0.5908866898
  9
$USRTIMER
 70
     1
  9
$ANGBASE
 50
0.0
  9
$ANGDIR
 70
     0
  9
$PDMODE
 70
     0
  9
$PDSIZE
 40
0.3125
  9
$PLINEWID
 40
0.0
  9
$COORDS
 70
     1
  9
$SPLFRAME
 70
     0
  9
$SPLINETYPE
 70
     6
  9
$SPLINESEGS
 70
     8
  9
$ATTDIA
 70
     1
  9
$ATTREQ
 70
     1
  9
$HANDLING
 70
     1
  9
$HANDSEED
  5
156F3
  9
$SURFTAB1
 70
     6
  9
$SURFTAB2
 70
     6
  9
$SURFTYPE
 70
     6
  9
$SURFU
 70
     6
  9
$SURFV
 70
     6
  9
$UCSNAME
  2

  9
$UCSORG
 10
0.0
 20
0.0
 30
0.0
  9
$UCSXDIR
 10
1.0
 20
0.0
 30
0.0
  9
$UCSYDIR
 10
0.0
 20
1.0
 30
0.0
  9
$PUCSNAME
  2

  9
$PUCSORG
 10
0.0
 20
0.0
 30
0.0
  9
$PUCSXDIR
 10
1.0
 20
0.0
 30
0.0
  9
$PUCSYDIR
 10
0.0
 20
1.0
 30
0.0
  9
$USERI1
 70
     0
  9
$USERI2
 70
     0
  9
$USERI3
 70
     0
  9
$USERI4
 70
     0
  9
$USERI5
 70
     0
  9
$USERR1
 40
0.0
  9
$USERR2
 40
0.0
  9
$USERR3
 40
0.0
  9
$USERR4
 40
0.0
  9
$USERR5
 40
0.0
  9
$WORLDVIEW
 70
     1
  9
$SHADEDGE
 70
     3
  9
$SHADEDIF
 70
    70
  9
$TILEMODE
 70
     1
  9
$MAXACTVP
 70
    64
  9
$PLIMCHECK
 70
     0
  9
$PEXTMIN
 10
1.0000000000000000E+20
 20
1.0000000000000000E+20
 30
1.0000000000000000E+20
  9
$PEXTMAX
 10
-1.0000000000000000E+20
 20
-1.0000000000000000E+20
 30
-1.0000000000000000E+20
  9
$PLIMMIN
 10
0.0
 20
0.0
  9
$PLIMMAX
 10
12.0
 20
9.0
  9
$UNITMODE
 70
     0
  9
$VISRETAIN
 70
     1
  9
$PLINEGEN
 70
     0
  9
$PSLTSCALE
 70
     1
  0
ENDSEC
  0
SECTION
  2
TABLES
  0
TABLE
  2
VPORT
 70
     1
  0
VPORT
  2
*ACTIVE
 70
     0
 10
0.0
 20
0.0
 11
1.0
 21
1.0
 12
2.9539649204389491
 22
3.4425246277114532
 13
0.0
 23
0.0
 14
1.0
 24
1.0
 15
0.0
 25
0.0
 16
0.0
 26
0.0
 36
52.9446869140630767
 17
3493.6795654296870453
 27
162.3732528686522869
 37
0.0
 40
7.9755472823744098
 41
2.4470774091627172
 42
50.0
 43
0.0
 44
0.0
 50
0.0
 51
0.0
 71
     0
 72
   100
 73
     1
 74
     1
 75
     0
 76
     0
 77
     0
 78
     0
  0
ENDTAB
  0
TABLE
  2
LTYPE
 70
     2
  0
LTYPE
  2
CONTINUOUS
 70
     0
  3
Solid line
 72
    65
 73
     0
 40
0.0
  0
LTYPE
  2
PHANTOM2
 70
     0
  3
___ _ _ ___ _ _ ___ _ _ ___ _ _
 72
    65
 73
     6
 40
1.25
 49
0.625
 49
-0.125
 49
0.125
 49
-0.125
 49
0.125
 49
-0.125
  0
ENDTAB
  0
TABLE
  2
LAYER
 70
     2
  0
LAYER
  2
0
 70
     0
 62
   255
  6
CONTINUOUS
  0
LAYER
  2
DEFPOINTS
 70
     0
 62
     7
  6
CONTINUOUS
  0
ENDTAB
  0
TABLE
  2
STYLE
 70
     1
  0
STYLE
  2
STANDARD
 70
     0
 40
0.0
 41
0.8
 50
0.0
 71
     0
 42
0.2
  3
txt
  4

  0
ENDTAB
  0
TABLE
  2
VIEW
 70
     0
  0
ENDTAB
  0
TABLE
  2
UCS
 70
     0
  0
ENDTAB
  0
TABLE
  2
APPID
 70
     9
  0
APPID
  2
ACAD
 70
     0
  0
APPID
  2
ACAD_MLEADERVER
 70
     0
  0
APPID
  2
ACAD_EXEMPT_FROM_CAD_STANDARDS
 70
     0
  0
APPID
  2
ACAD_NAV_VCDISPLAY
 70
     0
  0
APPID
  2
ACAECLAYERSTANDARD
 70
     0
  0
APPID
  2
ACCMTRANSPARENCY
 70
     0
  0
APPID
  2
ACAD_DSTYLE_DIMJAG
 70
     0
  0
APPID
  2
ACAD_DSTYLE_DIMTALN
 70
     0
  0
APPID
  2
ACDBATTR
 70
     0
  0
ENDTAB
  0
TABLE
  2
DIMSTYLE
 70
     1
  0
DIMSTYLE
  2
STANDARD
 70
     0
  3

  4

  5

  6

  7

 40
1.0
 41
0.1875
 42
0.0625
 43
0.38
 44
0.125
 45
0.0
 46
0.0
 47
0.01
 48
0.01
140
0.15625
141
0.09
142
0.0
143
25.3999999999999986
144
1.0
145
0.0
146
1.0
147
0.09
 71
     1
 72
     0
 73
     1
 74
     1
 75
     0
 76
     0
 77
     0
 78
     4
170
     0
171
     2
172
     0
173
     0
174
     0
175
     0
176
     0
177
     0
178
     0
  0
ENDTAB
  0
ENDSEC
  0
SECTION
  2
BLOCKS
  0
BLOCK
  8
0
  2
$MODEL_SPACE
 70
     0
 10
0.0
 20
0.0
 30
0.0
  3
$MODEL_SPACE
  1

  0
ENDBLK
  5
21
  8
0
  0
BLOCK
 67
     1
  8
0
  2
$PAPER_SPACE
 70
     0
 10
0.0
 20
0.0
 30
0.0
  3
$PAPER_SPACE
  1

  0
ENDBLK
  5
1D
 67
     1
  8
0
  0
ENDSEC
  0
SECTION
  2
ENTITIES
  0
ATTDEF
  5
12BEB
  8
DEFPOINTS
 10
3496.5925225029350258
 20
167.6382846312851029
 30
0.0
 40
0.001
  1
K-72774
  3

  2
MODELNUMBER
 70
     0
1001
ACDBATTR
1070
     0
1070
     1
  0
ATTDEF
  5
12BEC
  8
DEFPOINTS
 10
3496.5925225029350258
 20
167.6366179646184094
 30
0.0
 40
0.001
  1
ARTIFACTS
  3

  2
TRADENAME
 70
     0
1001
ACDBATTR
1070
     0
1070
     1
  0
ATTDEF
  5
12BED
  8
DEFPOINTS
 10
3496.5925225029350258
 20
167.6349512979518011
 30
0.0
 40
0.001
  1
SHOWERHEAD
  3

  2
PRODUCT
 70
     0
1001
ACDBATTR
1070
     0
1070
     1
  0
ARC
  5
152DC
  8
0
 10
3496.58715721342287
 20
168.2030383706529904
 30
0.0
 40
0.5688463309108635
 50
241.4505823590598084
 51
259.3340805853936786
  0
ARC
  5
152DD
  8
0
 10
3496.4014275574450039
 20
167.9343934833223102
 30
0.0
 40
0.2379171457902181
 50
132.4979079928286012
 51
193.9849731315702002
  0
ARC
  5
152DE
  8
0
 10
3496.4582233877890758
 20
167.9696898389696003
 30
0.0
 40
0.3022571277707835
 50
197.8785765820306892
 51
241.779473960518402
  0
ARC
  5
152DF
  8
0
 10
3496.4022879115232172
 20
167.9437208066696883
 30
0.0
 40
0.304696952639608
 50
181.3776825174711007
 51
238.1480646195753934
  0
ARC
  5
152E0
  8
0
 10
3496.3941306863071077
 20
167.9283746935824979
 30
0.0
 40
0.2965601223214139
 50
124.7367291459298002
 51
178.450269279017391
  0
ARC
  5
152E1
  8
0
 10
3496.4297410451699761
 20
167.8721163016519995
 30
0.0
 40
0.2609807247278668
 50
121.3854108278327004
 51
177.492648847297005
  0
ARC
  5
152E2
  8
0
 10
3496.4333704482742178
 20
167.8528905576158081
 30
0.0
 40
0.2418428812322803
 50
130.1875907086954101
 51
186.7854010191030056
  0
ARC
  5
152E3
  8
0
 10
3496.4368912300988086
 20
167.8320686449035009
 30
0.0
 40
0.2051356076255828
 50
128.2809283338428941
 51
202.7247528840902078
  0
ARC
  5
152E4
  8
0
 10
3496.4733080658411382
 20
167.760549838268588
 30
0.0
 40
0.2428869677149463
 50
132.4531330511231033
 51
170.1835506626532037
  0
ARC
  5
152E5
  8
0
 10
3496.4789892714670714
 20
167.7020455345150083
 30
0.0
 40
0.2504177902439408
 50
123.3742176428660002
 51
162.8932382442654045
  0
ARC
  5
152E6
  8
0
 10
3496.4934324586961338
 20
167.6416508040869928
 30
0.0
 40
0.2647227450594857
 50
121.0829105775210053
 51
156.0391067168754944
  0
ARC
  5
152E7
  8
0
 10
3496.5955115616261537
 20
167.4424521395804106
 30
0.0
 40
0.4357353399237562
 50
90.5262765823052149
 51
138.2240395028431976
  0
ARC
  5
152E8
  8
0
 10
3496.5840033548870451
 20
167.3826088173402979
 30
0.0
 40
0.4374581078424406
 50
89.0168688351991335
 51
130.8544502342309954
  0
ARC
  5
152E9
  8
0
 10
3496.5997694461948413
 20
167.4219002118815922
 30
0.0
 40
0.30540540833332
 50
91.5498435970839068
 51
128.1396622616732941
  0
ARC
  5
152EA
  8
0
 10
3496.5900811683900429
 20
167.3565287405176036
 30
0.0
 40
0.3071807420088803
 50
89.7336264414625759
 51
110.6255582270705986
  0
LINE
  5
152EB
  8
0
 10
3496.1365085395341339
 20
167.6870464460162964
 30
0.0
 11
3496.1365249629971004
 21
167.251044137762193
 31
0.0
  0
ARC
  5
152EC
  8
0
 10
3496.5964279121908476
 20
167.888469888452903
 30
0.0
 40
0.5020928524772575
 50
172.3701906015292025
 51
203.6511983101657961
  0
ARC
  5
152ED
  8
0
 10
3496.5930254212198633
 20
167.5333590640663886
 30
0.0
 40
0.5367442463329938
 50
211.7340123537742897
 51
269.8381559849207747
  0
ARC
  5
152EE
  8
0
 10
3496.3666689624301398
 20
167.1503658279816023
 30
0.0
 40
0.2964661790321848
 50
140.9232133329871886
 51
229.9680852575681058
  0
ARC
  5
152EF
  8
0
 10
3496.5730390329172224
 20
167.3973603500726028
 30
0.0
 40
0.6183272498335485
 50
230.0473724316665027
 51
237.4009398922125911
  0
ARC
  5
152F0
  8
0
 10
3496.3552730640021764
 20
167.0867369736685077
 30
0.0
 40
0.2735828500940551
 50
143.0888722127346
 51
184.3632521498086021
  0
ARC
  5
152F1
  8
0
 10
3496.3546840130848068
 20
167.0947989898064918
 30
0.0
 40
0.2629768507316075
 50
144.8709125348273119
 51
199.0650562977727134
  0
ARC
  5
152F2
  8
0
 10
3496.3787970952871547
 20
167.0911789580096922
 30
0.0
 40
0.255735485649991
 50
149.8779474875493918
 51
237.1060855246180097
  0
ARC
  5
152F3
  8
0
 10
3496.3850555405761042
 20
167.0571072264303041
 30
0.0
 40
0.264059820748293
 50
145.5520019264886002
 51
172.8242601647253025
  0
ARC
  5
152F4
  8
0
 10
3496.5928521279888628
 20
167.3363755866147926
 30
0.0
 40
0.392385146829652
 50
218.0214046689031875
 51
269.8039173795966121
  0
ARC
  5
152F5
  8
0
 10
3496.8095768784260144
 20
166.4723458283999094
 30
0.0
 40
1.222517413053535
 50
123.4049816169348048
 51
136.8120941597740057
  0
LINE
  5
152F6
  8
0
 10
3495.9112354132339533
 20
167.2908601931162877
 30
0.0
 11
3495.9082272950840888
 21
167.1666377786162911
 31
0.0
  0
ARC
  5
152F7
  8
0
 10
3495.7665147439170141
 20
167.1660494369419041
 30
0.0
 40
0.1417137724572323
 50
343.4841292626311997
 51
0.2378709641977246
  0
ARC
  5
152F8
  8
0
 10
3495.8674161948370056
 20
167.1384871612970073
 30
0.0
 40
0.0372086364225822
 50
294.9798635436001177
 51
340.0030424697229137
  0
ARC
  5
152F9
  8
0
 10
3496.2327077301470126
 20
166.8819897223231123
 30
0.0
 40
0.4145253155396537
 50
147.4926005772462076
 51
210.48964926419481
  0
LINE
  5
152FA
  8
0
 10
3495.9112354132339533
 20
167.2908601931162877
 30
0.0
 11
3495.9136221138201108
 21
166.9007978985854947
 31
0.0
  0
ARC
  5
152FB
  8
0
 10
3495.9392166401348732
 20
167.2905258859003084
 30
0.0
 40
0.0279832239067335
 50
138.6083773959622931
 51
179.3154881560874117
  0
ARC
  5
152FC
  8
0
 10
3496.3342606195287772
 20
166.8755783999534117
 30
0.0
 40
0.5020347150537008
 50
203.9644924166622104
 51
265.5066998982883888
  0
ARC
  5
152FD
  8
0
 10
3496.5915104370419613
 20
166.9752297834500041
 30
0.0
 40
0.6694264095347277
 50
243.7022029034033039
 51
269.9999006179389198
  0
ARC
  5
152FE
  8
0
 10
3495.3784530727220954
 20
165.7212068657320003
 30
0.0
 40
1.295314983830971
 50
43.9513272651568911
 51
65.5966639210183757
  0
ARC
  5
152FF
  8
0
 10
3496.5915092760319567
 20
165.2675826857887955
 30
0.0
 40
1.3814158424517591
 50
90.0000000057581815
 51
101.716390393873894
  0
LINE
  5
15300
  8
0
 10
3495.9136221138201108
 20
166.9007978985854947
 30
0.0
 11
3495.9100847637268998
 21
166.7510038297045867
 31
0.0
  0
LINE
  5
15301
  8
0
 10
3496.3109887390860422
 20
166.6202163975486883
 30
0.0
 11
3496.304843332137807
 21
166.4360449678852945
 31
0.0
  0
ARC
  5
15302
  8
0
 10
3495.7714011266280068
 20
166.764248936021005
 30
0.0
 40
0.1393146942721455
 50
318.3518543557364069
 51
354.5444618924757947
  0
ARC
  5
15303
  8
0
 10
3496.0981778435921115
 20
166.4383688445363134
 30
0.0
 40
0.2066785536976255
 50
342.1704468178446064
 51
359.3557573945307126
  0
ARC
  5
15304
  8
0
 10
3496.2959856077382028
 20
166.8211156766338092
 30
0.0
 40
0.4816653813842368
 50
172.7394044599836889
 51
236.8942207163466946
  0
ARC
  5
15305
  8
0
 10
3496.5865958992289961
 20
167.2309311327298929
 30
0.0
 40
0.9838754966109517
 50
235.7528587607104953
 51
248.007950549045205
  0
ARC
  5
15306
  8
0
 10
3496.358953113014195
 20
165.3182982732002984
 30
0.0
 40
2.5429416075681979
 50
95.9352724065796423
 51
145.5117687140397891
  0
ARC
  5
15307
  8
0
 10
3495.4976032327440407
 20
165.9335585618239861
 30
0.0
 40
1.4847240019264121
 50
146.2602683108538031
 51
228.5951741682656859
  0
ARC
  5
15308
  8
0
 10
3495.3589378815349846
 20
165.7840856819987891
 30
0.0
 40
1.466319822658636
 50
138.3690632389308917
 51
230.5596776277546098
  0
ARC
  5
15309
  8
0
 10
3496.5444274446881536
 20
167.1816503009659129
 30
0.0
 40
3.113465893730762
 50
229.3364616359060051
 51
263.9847266307053815
  0
ARC
  5
1530A
  8
0
 10
3496.5728473844701512
 20
167.1791965980577004
 30
0.0
 40
3.3153062685534569
 50
229.674651968964298
 51
263.8584030504911198
  0
ARC
  5
1530B
  8
0
 10
3495.4058672468531768
 20
165.481305417766805
 30
0.0
 40
1.816877312840165
 50
147.2101285558574091
 51
179.6116930849256903
  0
ARC
  5
1530C
  8
0
 10
3495.4378113294651484
 20
165.5458212732451102
 30
0.0
 40
1.849516524621357
 50
181.6173864018385018
 51
233.7440119572750064
  0
ARC
  5
1530D
  8
0
 10
3496.6129126787159294
 20
167.2696622296427904
 30
0.0
 40
3.9351966965588239
 50
234.7907404865102023
 51
264.2427313634358939
  0
ARC
  5
1530E
  8
0
 10
3495.8489314361590914
 20
165.1930329708114868
 30
0.0
 40
2.3454626318218632
 50
120.0530975460040963
 51
147.1516440505120045
  0
ARC
  5
1530F
  8
0
 10
3496.5587396988607907
 20
167.1951979242242885
 30
0.0
 40
3.7379324852663491
 50
235.3545143307972864
 51
264.7722177376463151
  0
ARC
  5
15310
  8
0
 10
3495.3720405004992244
 20
165.6012455819470119
 30
0.0
 40
1.7533791018604861
 50
166.8535850509026091
 51
237.6465535149208108
  0
ARC
  5
15311
  8
0
 10
3496.5958613383618285
 20
168.2030383706529904
 30
0.0
 40
0.5688463309108635
 50
280.6659194146062077
 51
298.5494176409400779
  0
ARC
  5
15312
  8
0
 10
3496.7815909943401493
 20
167.9343934833223102
 30
0.0
 40
0.2379171457902181
 50
346.0150268684297998
 51
47.5020920071713277
  0
ARC
  5
15313
  8
0
 10
3496.724795163995168
 20
167.9696898389696003
 30
0.0
 40
0.3022571277707835
 50
298.2205260394816264
 51
342.1214234179693108
  0
ARC
  5
15314
  8
0
 10
3496.7807306402619361
 20
167.9437208066696883
 30
0.0
 40
0.304696952639608
 50
301.8519353804244929
 51
358.6223174825287856
  0
ARC
  5
15315
  8
0
 10
3496.7888878654780456
 20
167.9283746935824979
 30
0.0
 40
0.2965601223214139
 50
1.5497307209825459
 51
55.2632708540701785
  0
ARC
  5
15316
  8
0
 10
3496.7532775066151771
 20
167.8721163016519995
 30
0.0
 40
0.2609807247278668
 50
2.5073511527029888
 51
58.6145891721672925
  0
ARC
  5
15317
  8
0
 10
3496.7496481035109355
 20
167.8528905576158081
 30
0.0
 40
0.2418428812322803
 50
353.2145989808968807
 51
49.8124092913045686
  0
ARC
  5
15318
  8
0
 10
3496.7461273216858899
 20
167.8320686449035009
 30
0.0
 40
0.2051356076255828
 50
337.2752471159083143
 51
51.719071666157113
  0
ARC
  5
15319
  8
0
 10
3496.7097104859440151
 20
167.760549838268588
 30
0.0
 40
0.2428869677149463
 50
9.8164493373468193
 51
47.5468669488768398
  0
ARC
  5
1531A
  8
0
 10
3496.7040292803180819
 20
167.7020455345150083
 30
0.0
 40
0.2504177902439408
 50
17.1067617557346097
 51
56.62578235713395
  0
ARC
  5
1531B
  8
0
 10
3496.6895860930890194
 20
167.6416508040869928
 30
0.0
 40
0.2647227450594857
 50
23.9608932831244594
 51
58.9170894224789521
  0
ARC
  5
1531C
  8
0
 10
3496.5875069901589995
 20
167.4424521395804106
 30
0.0
 40
0.4357353399237562
 50
41.7759604971567668
 51
89.4737234176947851
  0
ARC
  5
1531D
  8
0
 10
3496.5990151968981081
 20
167.3826088173402979
 30
0.0
 40
0.4374581078424406
 50
49.1455497657689833
 51
90.9831311648008523
  0
ARC
  5
1531E
  8
0
 10
3496.5832491055898572
 20
167.4219002118815922
 30
0.0
 40
0.30540540833332
 50
51.8603377383266988
 51
88.4501564029160932
  0
ARC
  5
1531F
  8
0
 10
3496.5929373833951104
 20
167.3565287405176036
 30
0.0
 40
0.3071807420088803
 50
69.3744417729293161
 51
90.2663735585374241
  0
LINE
  5
15320
  8
0
 10
3497.0465100122510194
 20
167.6870464460162964
 30
0.0
 11
3497.0464935887880529
 21
167.251044137762193
 31
0.0
  0
ARC
  5
15321
  8
0
 10
3496.5865906395929414
 20
167.888469888452903
 30
0.0
 40
0.5020928524772575
 50
336.3488016898326123
 51
7.6298093984708046
  0
ARC
  5
15322
  8
0
 10
3496.5899931305661994
 20
167.5333590640663886
 30
0.0
 40
0.5367442463329938
 50
270.1618440150791116
 51
328.2659876462257103
  0
ARC
  5
15323
  8
0
 10
3496.816349589354104
 20
167.1503658279816023
 30
0.0
 40
0.2964661790321848
 50
310.0319147424319226
 51
39.0767866670127617
  0
ARC
  5
15324
  8
0
 10
3496.6099795188679309
 20
167.3973603500726028
 30
0.0
 40
0.6183272498335485
 50
302.5990601077874089
 51
309.9526275683335257
  0
ARC
  5
15325
  8
0
 10
3496.8277454877829769
 20
167.0867369736685077
 30
0.0
 40
0.2735828500940551
 50
355.6367478501912842
 51
36.9111277872653574
  0
ARC
  5
15326
  8
0
 10
3496.8283345387008012
 20
167.0947989898064918
 30
0.0
 40
0.2629768507316075
 50
340.9349437022257234
 51
35.1290874651727023
  0
ARC
  5
15327
  8
0
 10
3496.8042214564989081
 20
167.0911789580096922
 30
0.0
 40
0.255735485649991
 50
302.8939144753820187
 51
30.1220525124505798
  0
ARC
  5
15328
  8
0
 10
3496.7979630112099585
 20
167.0571072264303041
 30
0.0
 40
0.264059820748293
 50
7.1757398352747241
 51
34.4479980735114211
  0
ARC
  5
15329
  8
0
 10
3496.5901664237958357
 20
167.3363755866147926
 30
0.0
 40
0.392385146829652
 50
270.1960826204035016
 51
321.9785953310969262
  0
ARC
  5
1532A
  8
0
 10
3496.3734416733591388
 20
166.4723458283999094
 30
0.0
 40
1.222517413053535
 50
43.187905840225973
 51
56.5950183830652378
  0
LINE
  5
1532B
  8
0
 10
3497.2717831385521094
 20
167.2908601931162877
 30
0.0
 11
3497.2747912567010644
 21
167.1666377786162911
 31
0.0
  0
ARC
  5
1532C
  8
0
 10
3497.4165038078681391
 20
167.1660494369419041
 30
0.0
 40
0.1417137724572323
 50
179.7621290358023032
 51
196.5158707373688003
  0
ARC
  5
1532D
  8
0
 10
3497.3156023569481476
 20
167.1384871612970073
 30
0.0
 40
0.0372086364225822
 50
199.9969575302770863
 51
245.0201364563999107
  0
ARC
  5
1532E
  8
0
 10
3496.9503108216381406
 20
166.8819897223231123
 30
0.0
 40
0.4145253155396537
 50
329.5103507358052184
 51
32.507399422753771
  0
LINE
  5
1532F
  8
0
 10
3497.2717831385521094
 20
167.2908601931162877
 30
0.0
 11
3497.2693964379659519
 21
166.9007978985854947
 31
0.0
  0
ARC
  5
15330
  8
0
 10
3497.2438019116498253
 20
167.2905258859003084
 30
0.0
 40
0.0279832239067335
 50
0.6845118439125656
 51
41.3916226040376785
  0
ARC
  5
15331
  8
0
 10
3496.8487579322559213
 20
166.8755783999534117
 30
0.0
 40
0.5020347150537008
 50
274.4933001017116112
 51
336.0355075833377896
  0
ARC
  5
15332
  8
0
 10
3496.591508114743192
 20
166.9752297834500041
 30
0.0
 40
0.6694264095347277
 50
270.0000993820610802
 51
296.2977970965966961
  0
ARC
  5
15333
  8
0
 10
3497.8045654790630579
 20
165.7212068657320003
 30
0.0
 40
1.295314983830971
 50
114.4033360789815958
 51
136.0486727348431089
  0
ARC
  5
15334
  8
0
 10
3496.5915092757541061
 20
165.2675826857887955
 30
0.0
 40
1.3814158424517591
 50
78.2836096061260491
 51
89.9999999942418043
  0
LINE
  5
15335
  8
0
 10
3497.2693964379659519
 20
166.9007978985854947
 30
0.0
 11
3497.2729337880577987
 21
166.7510038297045867
 31
0.0
  0
LINE
  5
15336
  8
0
 10
3496.8720298126991111
 20
166.6202163975486883
 30
0.0
 11
3496.878175219647801
 21
166.4360449678852945
 31
0.0
  0
ARC
  5
15337
  8
0
 10
3497.4116174251557823
 20
166.764248936021005
 30
0.0
 40
0.1393146942721455
 50
185.4555381075242053
 51
221.6481456442635931
  0
ARC
  5
15338
  8
0
 10
3497.0848407081930418
 20
166.4383688445363134
 30
0.0
 40
0.2066785536976255
 50
180.6442426054692021
 51
197.829553182153802
  0
ARC
  5
15339
  8
0
 10
3496.8870329440469504
 20
166.8211156766338092
 30
0.0
 40
0.4816653813842368
 50
303.1057792836533054
 51
7.2605955400162987
  0
ARC
  5
1533A
  8
0
 10
3496.5964226525570666
 20
167.2309311327298929
 30
0.0
 40
0.9838754966109517
 50
291.9920494509548803
 51
304.2471412392894763
  0
ARC
  5
1533B
  8
0
 10
3496.8240654387709583
 20
165.3182982732002984
 30
0.0
 40
2.5429416075681979
 50
34.4882312859601825
 51
84.0647275934203435
  0
ARC
  5
1533C
  8
0
 10
3497.6854153190411125
 20
165.9335585618239861
 30
0.0
 40
1.4847240019264121
 50
311.4048258317342857
 51
33.7397316891461472
  0
ARC
  5
1533D
  8
0
 10
3497.8240806702501686
 20
165.7840856819987891
 30
0.0
 40
1.466319822658636
 50
309.4403223722454186
 51
41.6309367610691226
  0
ARC
  5
1533E
  8
0
 10
3496.6385911070969996
 20
167.1816503009659129
 30
0.0
 40
3.113465893730762
 50
276.0152733692945048
 51
310.6635383640938812
  0
ARC
  5
1533F
  8
0
 10
3496.6101711673150021
 20
167.1791965980577004
 30
0.0
 40
3.3153062685534569
 50
276.1415969495088802
 51
310.3253480310356736
  0
ARC
  5
15340
  8
0
 10
3497.777151304932886
 20
165.481305417766805
 30
0.0
 40
1.816877312840165
 50
0.3883069150742697
 51
32.7898714441426122
  0
ARC
  5
15341
  8
0
 10
3497.7452072223190953
 20
165.5458212732451102
 30
0.0
 40
1.849516524621357
 50
306.2559880427249936
 51
358.3826135981615266
  0
ARC
  5
15342
  8
0
 10
3496.5701058730701334
 20
167.2696622296427904
 30
0.0
 40
3.9351966965588239
 50
275.7572686365642198
 51
305.2092595134897124
  0
ARC
  5
15343
  8
0
 10
3497.3340871156260619
 20
165.1930329708114868
 30
0.0
 40
2.3454626318218632
 50
32.84835594948796
 51
59.9469024539958895
  0
ARC
  5
15344
  8
0
 10
3496.6242788529239078
 20
167.1951979242242885
 30
0.0
 40
3.7379324852663491
 50
275.2277822623536849
 51
304.6454856692026851
  0
ARC
  5
15345
  8
0
 10
3497.8109780512868383
 20
165.6012455819470119
 30
0.0
 40
1.7533791018604861
 50
302.3534464850790755
 51
13.1464149490973696
  0
ARC
  5
15346
  8
0
 10
3496.591509275892804
 20
167.6035679527275022
 30
0.0
 40
0.8076702366618921
 50
244.1940784524921071
 51
295.8059215474219172
  0
ARC
  5
15347
  8
0
 10
3496.591509275892804
 20
166.8786043336307898
 30
0.0
 40
3.5440096805144909
 50
263.952804361558492
 51
276.047195638441508
  0
ARC
  5
15348
  8
0
 10
3496.591509275892804
 20
166.9971028698822124
 30
0.0
 40
3.5440096805144909
 50
263.952804361558492
 51
276.047195638441508
  0
ARC
  5
15349
  8
0
 10
3496.591509275892804
 20
167.4072072994262044
 30
0.0
 40
3.5440096805144909
 50
263.952804361558492
 51
276.047195638441508
  0
ARC
  5
1534A
  8
0
 10
3496.591509275892804
 20
167.6096160457067015
 30
0.0
 40
3.5440096805144909
 50
263.952804361558492
 51
276.047195638441508
  0
ARC
  5
1534B
  8
0
 10
3496.591509275892804
 20
167.256559234364488
 30
0.0
 40
1.009491329711101
 50
248.2940811794929914
 51
291.7059188205070086
  0
ARC
  5
1534C
  8
0
 10
3496.591509275892804
 20
168.2051496494952119
 30
0.0
 40
0.6270288547022957
 50
236.0674533065730998
 51
303.9325466934269002
  0
ARC
  5
1534D
  8
0
 10
3496.591509275892804
 20
168.2516701582019891
 30
0.0
 40
0.617461470085642
 50
259.7724366667839035
 51
280.2275633332162101
  0
ARC
  5
1534E
  8
0
 10
3496.591509275892804
 20
167.6532610166501911
 30
0.0
 40
0.635133636466126
 50
54.7725171079253172
 51
125.2274828920747041
  0
ARC
  5
1534F
  8
0
 10
3496.591509275892804
 20
167.4137244496662902
 30
0.0
 40
0.5116681458719138
 50
62.6910582281859732
 51
117.3089417718140055
  0
ARC
  5
15350
  8
0
 10
3496.591509275892804
 20
167.4717462513849
 30
0.0
 40
0.5056973969669444
 50
60.3360032591063984
 51
119.6639967408935945
  0
ARC
  5
15351
  8
0
 10
3496.591509275892804
 20
167.5411512787829054
 30
0.0
 40
0.4883594384560047
 50
54.7079769582829485
 51
125.2920230417170018
  0
ARC
  5
15352
  8
0
 10
3496.591509275892804
 20
167.5888546214318922
 30
0.0
 40
0.492715147705752
 50
55.1285985453195622
 51
124.8714014546803952
  0
ARC
  5
15353
  8
0
 10
3496.591509275892804
 20
167.6347220150126986
 30
0.0
 40
0.5109459869004408
 50
52.0528603788820021
 51
127.9471396211179979
  0
ARC
  5
15354
  8
0
 10
3496.591509275892804
 20
167.6275335008054981
 30
0.0
 40
0.5541283969108545
 50
57.5058838036329405
 51
122.4941161963670027
  0
ARC
  5
15355
  8
0
 10
3496.591509275892804
 20
167.6872888335130938
 30
0.0
 40
0.5491738220032513
 50
50.2979328950794979
 51
129.7020671049205021
  0
ENDSEC
  0
EOF
