  0
SECTION
  2
HEADER
  9
$ACADVER
  1
AC1009
  9
$INSBASE
 10
3516.0959267837988591
 20
163.3864856105304
 30
0.0
  9
$EXTMIN
 10
3511.3182652790851535
 20
158.7670546745092963
 30
-0.0000000349181948
  9
$EXTMAX
 10
3516.6718598058091629
 20
163.738779113624787
 30
0.0000000814935746
  9
$LIMMIN
 10
0.0
 20
0.0
  9
$LIMMAX
 10
11.6929133858000007
 20
8.2677165353999982
  9
$ORTHOMODE
 70
     0
  9
$REGENMODE
 70
     1
  9
$FILLMODE
 70
     1
  9
$QTEXTMODE
 70
     0
  9
$MIRRTEXT
 70
     0
  9
$DRAGMODE
 70
     2
  9
$LTSCALE
 40
0.6431102362
  9
$OSMODE
 70
  4095
  9
$ATTMODE
 70
     1
  9
$TEXTSIZE
 40
0.2
  9
$TRACEWID
 40
0.05
  9
$TEXTSTYLE
  7
STANDARD
  9
$CLAYER
  8
0
  9
$CELTYPE
  6
BYLAYER
  9
$CECOLOR
 62
   256
  9
$DIMSCALE
 40
1.0
  9
$DIMASZ
 40
0.1875
  9
$DIMEXO
 40
0.0625
  9
$DIMDLI
 40
0.4443307087
  9
$DIMRND
 40
0.0
  9
$DIMDLE
 40
0.0
  9
$DIMEXE
 40
0.125
  9
$DIMTP
 40
0.01
  9
$DIMTM
 40
0.01
  9
$DIMTXT
 40
2.0
  9
$DIMCEN
 40
0.1052362205
  9
$DIMTSZ
 40
0.0
  9
$DIMTOL
 70
     1
  9
$DIMLIM
 70
     0
  9
$DIMTIH
 70
     1
  9
$DIMTOH
 70
     1
  9
$DIMSE1
 70
     0
  9
$DIMSE2
 70
     0
  9
$DIMTAD
 70
     0
  9
$DIMZIN
 70
     0
  9
$DIMBLK
  1

  9
$DIMASO
 70
     1
  9
$DIMSHO
 70
     1
  9
$DIMPOST
  1
\X
  9
$DIMAPOST
  1

  9
$DIMALT
 70
     1
  9
$DIMALTD
 70
     2
  9
$DIMALTF
 40
25.3999999999999986
  9
$DIMLFAC
 40
1.0
  9
$DIMTOFL
 70
     0
  9
$DIMTVP
 40
0.0
  9
$DIMTIX
 70
     0
  9
$DIMSOXD
 70
     0
  9
$DIMSAH
 70
     0
  9
$DIMBLK1
  1

  9
$DIMBLK2
  1

  9
$DIMSTYLE
  2
STANDARD
  9
$DIMCLRD
 70
     0
  9
$DIMCLRE
 70
     0
  9
$DIMCLRT
 70
     0
  9
$DIMTFAC
 40
1.0
  9
$DIMGAP
 40
0.09
  9
$LUNITS
 70
     2
  9
$LUPREC
 70
     4
  9
$SKETCHINC
 40
0.1
  9
$FILLETRAD
 40
0.0
  9
$AUNITS
 70
     0
  9
$AUPREC
 70
     0
  9
$MENU
  1
.
  9
$ELEVATION
 40
0.0
  9
$PELEVATION
 40
0.0
  9
$THICKNESS
 40
0.0
  9
$LIMCHECK
 70
     0
  9
$BLIPMODE
 70
     0
  9
$CHAMFERA
 40
0.0
  9
$CHAMFERB
 40
0.0
  9
$SKPOLY
 70
     0
  9
$TDCREATE
 40
2458060.468368056230247
  9
$TDUPDATE
 40
2459595.0292708328925073
  9
$TDINDWG
 40
0.5994167824
  9
$TDUSRTIMER
 40
0.5994167824
  9
$USRTIMER
 70
     1
  9
$ANGBASE
 50
0.0
  9
$ANGDIR
 70
     0
  9
$PDMODE
 70
     0
  9
$PDSIZE
 40
0.3125
  9
$PLINEWID
 40
0.0
  9
$COORDS
 70
     1
  9
$SPLFRAME
 70
     0
  9
$SPLINETYPE
 70
     6
  9
$SPLINESEGS
 70
     8
  9
$ATTDIA
 70
     1
  9
$ATTREQ
 70
     1
  9
$HANDLING
 70
     1
  9
$HANDSEED
  5
16496
  9
$SURFTAB1
 70
     6
  9
$SURFTAB2
 70
     6
  9
$SURFTYPE
 70
     6
  9
$SURFU
 70
     6
  9
$SURFV
 70
     6
  9
$UCSNAME
  2

  9
$UCSORG
 10
0.0
 20
0.0
 30
0.0
  9
$UCSXDIR
 10
1.0
 20
0.0
 30
0.0
  9
$UCSYDIR
 10
0.0
 20
1.0
 30
0.0
  9
$PUCSNAME
  2

  9
$PUCSORG
 10
0.0
 20
0.0
 30
0.0
  9
$PUCSXDIR
 10
1.0
 20
0.0
 30
0.0
  9
$PUCSYDIR
 10
0.0
 20
1.0
 30
0.0
  9
$USERI1
 70
     0
  9
$USERI2
 70
     0
  9
$USERI3
 70
     0
  9
$USERI4
 70
     0
  9
$USERI5
 70
     0
  9
$USERR1
 40
0.0
  9
$USERR2
 40
0.0
  9
$USERR3
 40
0.0
  9
$USERR4
 40
0.0
  9
$USERR5
 40
0.0
  9
$WORLDVIEW
 70
     1
  9
$SHADEDGE
 70
     3
  9
$SHADEDIF
 70
    70
  9
$TILEMODE
 70
     1
  9
$MAXACTVP
 70
    64
  9
$PLIMCHECK
 70
     0
  9
$PEXTMIN
 10
1.0000000000000000E+20
 20
1.0000000000000000E+20
 30
1.0000000000000000E+20
  9
$PEXTMAX
 10
-1.0000000000000000E+20
 20
-1.0000000000000000E+20
 30
-1.0000000000000000E+20
  9
$PLIMMIN
 10
0.0
 20
0.0
  9
$PLIMMAX
 10
12.0
 20
9.0
  9
$UNITMODE
 70
     0
  9
$VISRETAIN
 70
     1
  9
$PLINEGEN
 70
     0
  9
$PSLTSCALE
 70
     1
  0
ENDSEC
  0
SECTION
  2
TABLES
  0
TABLE
  2
VPORT
 70
     1
  0
VPORT
  2
*ACTIVE
 70
     0
 10
0.0
 20
0.0
 11
1.0
 21
1.0
 12
23.9435488705721617
 22
1.9284921504147401
 13
0.0
 23
0.0
 14
1.0
 24
1.0
 15
0.0
 25
0.0
 16
0.0
 26
0.0
 36
21.5242013730781494
 17
3490.051513671875
 27
159.3244247436522869
 37
0.0
 40
5.011130445237967
 41
1.67063492063492
 42
50.0
 43
0.0
 44
0.0
 50
0.0
 51
0.0
 71
     0
 72
   100
 73
     1
 74
     1
 75
     0
 76
     0
 77
     0
 78
     0
  0
ENDTAB
  0
TABLE
  2
LTYPE
 70
     2
  0
LTYPE
  2
CONTINUOUS
 70
     0
  3
Solid line
 72
    65
 73
     0
 40
0.0
  0
LTYPE
  2
PHANTOM2
 70
     0
  3
___ _ _ ___ _ _ ___ _ _ ___ _ _
 72
    65
 73
     6
 40
1.25
 49
0.625
 49
-0.125
 49
0.125
 49
-0.125
 49
0.125
 49
-0.125
  0
ENDTAB
  0
TABLE
  2
LAYER
 70
     2
  0
LAYER
  2
0
 70
     0
 62
   255
  6
CONTINUOUS
  0
LAYER
  2
DEFPOINTS
 70
     0
 62
     7
  6
CONTINUOUS
  0
ENDTAB
  0
TABLE
  2
STYLE
 70
     1
  0
STYLE
  2
STANDARD
 70
     0
 40
0.0
 41
0.8
 50
0.0
 71
     0
 42
0.2
  3
txt
  4

  0
ENDTAB
  0
TABLE
  2
VIEW
 70
     0
  0
ENDTAB
  0
TABLE
  2
UCS
 70
     0
  0
ENDTAB
  0
TABLE
  2
APPID
 70
     9
  0
APPID
  2
ACAD
 70
     0
  0
APPID
  2
ACAD_MLEADERVER
 70
     0
  0
APPID
  2
ACAD_EXEMPT_FROM_CAD_STANDARDS
 70
     0
  0
APPID
  2
ACAD_NAV_VCDISPLAY
 70
     0
  0
APPID
  2
ACAECLAYERSTANDARD
 70
     0
  0
APPID
  2
ACCMTRANSPARENCY
 70
     0
  0
APPID
  2
ACAD_DSTYLE_DIMJAG
 70
     0
  0
APPID
  2
ACAD_DSTYLE_DIMTALN
 70
     0
  0
APPID
  2
ACDBATTR
 70
     0
  0
ENDTAB
  0
TABLE
  2
DIMSTYLE
 70
     1
  0
DIMSTYLE
  2
STANDARD
 70
     0
  3

  4

  5

  6

  7

 40
1.0
 41
0.1875
 42
0.0625
 43
0.38
 44
0.125
 45
0.0
 46
0.0
 47
0.01
 48
0.01
140
0.15625
141
0.09
142
0.0
143
25.3999999999999986
144
1.0
145
0.0
146
1.0
147
0.09
 71
     1
 72
     0
 73
     1
 74
     1
 75
     0
 76
     0
 77
     0
 78
     4
170
     0
171
     2
172
     0
173
     0
174
     0
175
     0
176
     0
177
     0
178
     0
  0
ENDTAB
  0
ENDSEC
  0
SECTION
  2
BLOCKS
  0
BLOCK
  8
0
  2
$MODEL_SPACE
 70
     0
 10
0.0
 20
0.0
 30
0.0
  3
$MODEL_SPACE
  1

  0
ENDBLK
  5
21
  8
0
  0
BLOCK
 67
     1
  8
0
  2
$PAPER_SPACE
 70
     0
 10
0.0
 20
0.0
 30
0.0
  3
$PAPER_SPACE
  1

  0
ENDBLK
  5
1D
 67
     1
  8
0
  0
ENDSEC
  0
SECTION
  2
ENTITIES
  0
ATTDEF
  5
12BEB
  8
DEFPOINTS
 10
3516.0966387609969388
 20
163.387004507225214
 30
0.0
 40
0.001
  1
K-72773
  3

  2
MODELNUMBER
 70
     0
1001
ACDBATTR
1070
     0
1070
     1
  0
ATTDEF
  5
12BEC
  8
DEFPOINTS
 10
3516.0966387609969388
 20
163.385337840558492
 30
0.0
 40
0.001
  1
ARTIFACTS
  3

  2
TRADENAME
 70
     0
1001
ACDBATTR
1070
     0
1070
     1
  0
ATTDEF
  5
12BED
  8
DEFPOINTS
 10
3516.0966387609969388
 20
163.3836711738919121
 30
0.0
 40
0.001
  1
SHOWERHEAD
  3

  2
PRODUCT
 70
     0
1001
ACDBATTR
1070
     0
1070
     1
  0
LINE
  5
1624E
  8
0
 10
3516.4318024891590539
 20
163.0506099051700062
 30
0.0
 11
3515.760051078439119
 21
163.7223613158907938
 31
0.0
  0
ARC
  5
1624F
  8
0
 10
3515.745908927111941
 20
163.708219195374312
 30
0.0
 40
0.0200000004214643
 50
44.9999375870278797
 51
134.9999987925920948
  0
LINE
  5
16250
  8
0
 10
3515.7317667911897843
 20
163.722361331296014
 30
0.0
 11
3515.2147468015668892
 21
163.2053411839447961
 31
0.0
  0
LINE
  5
16251
  8
0
 10
3514.8408131163678263
 20
163.0506090202912048
 30
0.0
 11
3515.7600501935598913
 21
162.1313719430999924
 31
0.0
  0
ARC
  5
16252
  8
0
 10
3515.3773810578168195
 20
163.0427066454365956
 30
0.0
 40
0.2299997704820279
 50
134.9999502805085001
 51
202.4596976153675882
  0
ARC
  5
16253
  8
0
 10
3515.100136720061073
 20
162.9280967005057903
 30
0.0
 40
0.0700000000091486
 50
264.4534798534789957
 51
22.4596895785472306
  0
LINE
  5
16254
  8
0
 10
3515.0933709461178296
 20
162.8584244369841088
 30
0.0
 11
3515.0291615160249421
 21
162.8622606206347996
 31
0.0
  0
LINE
  5
16255
  8
0
 10
3514.7983767838391032
 20
163.0499515343041139
 30
0.0
 11
3514.6148110312788049
 21
162.8742133695581913
 31
0.0
  0
ARC
  5
16256
  8
0
 10
3514.6613009877819422
 20
162.6235471968849993
 30
0.0
 40
0.4230035626024155
 50
17.2843380229935306
 51
72.7158998403478591
  0
ARC
  5
16257
  8
0
 10
3514.718350934755108
 20
162.0089076517382978
 30
0.0
 40
0.8175447564607381
 50
45.0001045496480501
 51
64.8961591046395512
  0
ARC
  5
16258
  8
0
 10
3514.5301038692568909
 20
162.9595016292907985
 30
0.0
 40
0.1202056177811645
 50
248.6772829434326013
 51
314.8041458043977059
  0
ARC
  5
16259
  8
0
 10
3514.4749804651410159
 20
162.8219555866780013
 30
0.0
 40
0.0280008741939234
 50
65.9435812570212363
 51
134.9987695881187904
  0
LINE
  5
1625A
  8
0
 10
3514.4551812823160617
 20
162.8417556198864986
 30
0.0
 11
3514.3988705089509494
 21
162.7854448465218979
 31
0.0
  0
ARC
  5
1625B
  8
0
 10
3514.8199922009089278
 20
163.0246403889979945
 30
0.0
 40
0.0332848363644136
 50
51.2783458892772686
 51
130.4969327951384059
  0
ARC
  5
1625C
  8
0
 10
3514.7855617363588863
 20
163.0008597396357004
 30
0.0
 40
0.026627341837948
 50
86.9477784042454687
 51
131.1023326049601962
  0
ARC
  5
1625D
  8
0
 10
3515.0660972060350105
 20
163.0726614247811881
 30
0.0
 40
0.5944875681699034
 50
204.343474260474693
 51
245.6563779269067993
  0
ARC
  5
1625E
  8
0
 10
3515.8800696622020041
 20
163.1554169807334063
 30
0.0
 40
1.22938736582365
 50
210.5230345462441051
 51
224.4987011529836138
  0
LINE
  5
1625F
  8
0
 10
3515.0652025775698348
 20
162.749227425007291
 30
0.0
 11
3514.8903556880591168
 21
162.5789095126474137
 31
0.0
  0
ARC
  5
16260
  8
0
 10
3514.6757508359960411
 20
162.8154665730222064
 30
0.0
 40
0.3193970653315458
 50
297.0585069312285214
 51
312.21435327922228
  0
ARC
  5
16261
  8
0
 10
3514.5466829494248486
 20
162.8154895246530884
 30
0.0
 40
0.0253089943497407
 50
107.4613726387374015
 51
151.3858790606485059
  0
ARC
  5
16262
  8
0
 10
3514.0134032121168275
 20
163.1360360602647859
 30
0.0
 40
0.5210558857573226
 50
233.5279907384831972
 51
317.7127720706324112
  0
LINE
  5
16263
  8
0
 10
3512.1881285838139775
 20
163.1541488523756982
 30
0.0
 11
3515.8635900256440436
 21
159.4786874105465131
 31
0.0
  0
LINE
  5
16264
  8
0
 10
3512.0324797178918743
 20
163.1383702781353975
 30
0.0
 11
3515.8478114514027766
 21
159.3230385446233868
 31
0.0
  0
LINE
  5
16265
  8
0
 10
3511.6136062718510402
 20
163.1099774850929975
 30
0.0
 11
3515.8194186583477858
 21
158.904165098596593
 31
0.0
  0
ARC
  5
16266
  8
0
 10
3511.6352227523548208
 20
163.1166452758361061
 30
0.0
 40
0.0200000000001113
 50
117.1173691121429954
 51
225.0000000041914063
  0
ARC
  5
16267
  8
0
 10
3511.8332167424559884
 20
162.7300201534085886
 30
0.0
 40
0.4543738083820936
 50
63.9889709983137394
 51
117.1173691196954962
  0
ARC
  5
16268
  8
0
 10
3512.0456360424168452
 20
163.1653315675449107
 30
0.0
 40
0.030000000027054
 50
243.9889709506227007
 51
312.438873423604889
  0
ARC
  5
16269
  8
0
 10
3512.1341916119408779
 20
163.0684828870028866
 30
0.0
 40
0.1012316875201957
 50
57.8046770940445427
 51
132.4388734677727086
  0
ARC
  5
1626A
  8
0
 10
3512.2042426630791851
 20
163.1801870638375078
 30
0.0
 40
0.0306211039427683
 50
238.2481780181713873
 51
320.0798843578845094
  0
ARC
  5
1626B
  8
0
 10
3512.6164212944131577
 20
162.7901095255679991
 30
0.0
 40
0.5369353289299204
 50
58.9660156838840521
 51
136.3784384482397911
  0
ARC
  5
1626C
  8
0
 10
3488.9660383506798098
 20
125.9967536954539042
 30
0.0
 40
44.2756054050253169
 50
56.0327275779576723
 51
57.2881108720202619
  0
ARC
  5
1626D
  8
0
 10
3511.5994641362021866
 20
163.0958353494156086
 30
0.0
 40
0.0200000000559904
 50
45.0000000572137822
 51
123.5273680777496992
  0
ARC
  5
1626E
  8
0
 10
3511.5345605220600191
 20
162.9979780995410863
 30
0.0
 40
0.0507051409732393
 50
138.7925538461776114
 51
179.1963306261976925
  0
ARC
  5
1626F
  8
0
 10
3511.5430567532089299
 20
163.0011573492153047
 30
0.0
 40
0.0592478114250375
 50
182.3874246306646114
 51
221.997905196256994
  0
LINE
  5
16270
  8
0
 10
3511.4990255993047867
 20
162.9615144350372873
 30
0.0
 11
3515.6709556083060306
 21
158.7895844260359013
 31
0.0
  0
ARC
  5
16271
  8
0
 10
3512.2963246162407813
 20
162.3212898365426042
 30
0.0
 40
1.0696207642637929
 50
136.9791453106199981
 51
138.4040900851055937
  0
ARC
  5
16272
  8
0
 10
3512.0211261402819218
 20
162.5153658284999949
 30
0.0
 40
0.7374383705554068
 50
125.9283225962373933
 51
133.413086410180199
  0
LINE
  5
16273
  8
0
 10
3511.8805097077552091
 20
162.3961825634787033
 30
0.0
 11
3515.1056237367470203
 21
159.1710685344868068
 31
0.0
  0
ARC
  5
16274
  8
0
 10
3512.9524045037319411
 20
163.0362279060761068
 30
0.0
 40
1.2484456312640919
 50
194.9393702347936141
 51
210.8420936678180055
  0
LINE
  5
16275
  8
0
 10
3512.1303214281469991
 20
162.0945865540261082
 30
0.0
 11
3512.0105428649130772
 21
162.2661494063210057
 31
0.0
  0
LINE
  5
16276
  8
0
 10
3512.1068549790529687
 20
162.1281983358933871
 30
0.0
 11
3512.0865566178340487
 21
162.1116796607549873
 31
0.0
  0
LINE
  5
16277
  8
0
 10
3512.2244975024350424
 20
162.0173984435394914
 30
0.0
 11
3512.1990711045427815
 21
161.9964273062927873
 31
0.0
  0
LINE
  5
16278
  8
0
 10
3512.2936536448642073
 20
161.9250630207833979
 30
0.0
 11
3512.2651006394680735
 21
161.9072106187863938
 31
0.0
  0
LINE
  5
16279
  8
0
 10
3512.2679853209938301
 20
161.9090142290721985
 30
0.0
 11
3512.4061439002061888
 21
161.7281205954278107
 31
0.0
  0
LINE
  5
1627A
  8
0
 10
3512.3522827522519947
 20
161.7986420123478126
 30
0.0
 11
3512.3313583188992197
 21
161.780604657030409
 31
0.0
  0
LINE
  5
1627B
  8
0
 10
3512.3299819992989796
 20
161.7669064521303994
 30
0.0
 11
3512.3861307572087753
 21
161.6944546319462859
 31
0.0
  0
ARC
  5
1627C
  8
0
 10
3512.0928147642998738
 20
162.1038799426304138
 30
0.0
 40
0.0100000000000572
 50
128.7420053506413069
 51
210.3758310228695052
  0
ARC
  5
1627D
  8
0
 10
3512.3378875251878526
 20
161.7730303936940004
 30
0.0
 40
0.0099999999926989
 50
130.7621684765387045
 51
217.7628181407874877
  0
ARC
  5
1627E
  8
0
 10
3511.7252518093850995
 20
161.5714145925724097
 30
0.0
 40
0.6694384642012043
 50
29.56775565143856
 51
43.1629749770295703
  0
ARC
  5
1627F
  8
0
 10
3512.2485370647618765
 20
162.0351946624035122
 30
0.0
 40
0.0354725121586557
 50
189.4651169182401134
 51
216.9833661661789961
  0
ARC
  5
16280
  8
0
 10
3512.3969490827062145
 20
162.009686135440603
 30
0.0
 40
0.1401756456301691
 50
218.977303878656187
 51
230.3540406504590123
  0
ARC
  5
16281
  8
0
 10
3511.8688208881658284
 20
161.6829654710228112
 30
0.0
 40
0.4553279341178575
 50
29.50447412060727
 51
43.506031735160569
  0
ARC
  5
16282
  8
0
 10
3512.2071638811721641
 20
161.9879785004339112
 30
0.0
 40
0.0116993740859483
 50
133.7669968573526944
 51
210.9274384843739938
  0
ARC
  5
16283
  8
0
 10
3512.2597330183830309
 20
161.9197363180990124
 30
0.0
 40
0.0136273438125342
 50
221.3232989105036097
 51
293.1965200482442242
  0
ARC
  5
16284
  8
0
 10
3512.6516187609358894
 20
162.261269263224591
 30
0.0
 40
0.5334533296843283
 50
211.5724700299911092
 51
221.0789322228320088
  0
LINE
  5
16285
  8
0
 10
3512.5467323818129444
 20
161.6923249250411914
 30
0.0
 11
3512.5221555365828863
 21
161.6703643015133025
 31
0.0
  0
LINE
  5
16286
  8
0
 10
3512.6194873026947789
 20
161.6027977011441124
 30
0.0
 11
3512.5916629161420133
 21
161.5838296783911119
 31
0.0
  0
ARC
  5
16287
  8
0
 10
3512.0655212696528906
 20
161.226939361356699
 30
0.0
 40
0.6694384642012043
 50
31.8350481688384086
 51
45.4302674944266869
  0
ARC
  5
16288
  8
0
 10
3512.5700490813669603
 20
161.71105825055119
 30
0.0
 40
0.0354725121586557
 50
191.7324094356289947
 51
219.2506586835669111
  0
ARC
  5
16289
  8
0
 10
3512.7193540665780347
 20
161.6914410792662977
 30
0.0
 40
0.1401756456301691
 50
221.2445963960556128
 51
232.6213331678619909
  0
ARC
  5
1628A
  8
0
 10
3512.2045648460830307
 20
161.3440827039702015
 30
0.0
 40
0.4553279341178575
 50
31.7717666380221715
 51
45.7733242525530883
  0
ARC
  5
1628B
  8
0
 10
3512.5299248803921728
 20
161.662303675084587
 30
0.0
 40
0.0111953741174429
 50
133.9458361973682088
 51
215.2831841791370096
  0
ARC
  5
1628C
  8
0
 10
3512.5859008799889125
 20
161.5966575274514128
 30
0.0
 40
0.0140625307876807
 50
224.8656562216648069
 51
294.1887477718847208
  0
ARC
  5
1628D
  8
0
 10
3512.9638713956292122
 20
161.952902340238893
 30
0.0
 40
0.5334533296843283
 50
213.8397625473743062
 51
223.3462247402304115
  0
LINE
  5
1628E
  8
0
 10
3512.4172937822900167
 20
161.7379036974442101
 30
0.0
 11
3512.3925193730028695
 21
161.7161661964003088
 31
0.0
  0
LINE
  5
1628F
  8
0
 10
3512.4892362205168865
 20
161.6477222807712053
 30
0.0
 11
3512.4612414618732146
 21
161.629006622551799
 31
0.0
  0
ARC
  5
16290
  8
0
 10
3511.9318943087910156
 20
161.2768882872038887
 30
0.0
 40
0.6694384642012043
 50
31.3169705771406193
 51
44.9121899027259488
  0
ARC
  5
16291
  8
0
 10
3512.4407789160691209
 20
161.7564254266856096
 30
0.0
 40
0.0354725121586557
 50
191.2143318439229915
 51
218.7325810918740103
  0
ARC
  5
16292
  8
0
 10
3512.5899004185071135
 20
161.7354590362195097
 30
0.0
 40
0.1401756456301691
 50
220.7265188043421063
 51
232.1032555761584888
  0
ARC
  5
16293
  8
0
 10
3512.0719914154969956
 20
161.392769603893214
 30
0.0
 40
0.4553279341178575
 50
31.2536890462936796
 51
45.2552466608471704
  0
ARC
  5
16294
  8
0
 10
3512.4025619184831157
 20
161.7077930239032071
 30
0.0
 40
0.0130752719815692
 50
140.1796688557012942
 51
208.013196337372591
  0
ARC
  5
16295
  8
0
 10
3512.4558012026218421
 20
161.6429444182275006
 30
0.0
 40
0.014961903923334
 50
226.6963428929610984
 51
291.3219059171645995
  0
ARC
  5
16296
  8
0
 10
3512.8367718939512088
 20
161.9946986740189914
 30
0.0
 40
0.5334533296843283
 50
213.3216849556690136
 51
222.8281471485323095
  0
LINE
  5
16297
  8
0
 10
3512.595122430434003
 20
161.5564097897733973
 30
0.0
 11
3512.5708690044411924
 21
161.5340924952521107
 31
0.0
  0
LINE
  5
16298
  8
0
 10
3512.6691773861589354
 20
161.4679549093883963
 30
0.0
 11
3512.6416330499741889
 21
161.4485824568247097
 31
0.0
  0
ARC
  5
16299
  8
0
 10
3512.1207609331308959
 20
161.0840444362293908
 30
0.0
 40
0.6694384642012042
 50
32.6720445099915295
 51
46.2672638355658066
  0
ARC
  5
1629A
  8
0
 10
3512.6181629890052136
 20
161.5754817226450939
 30
0.0
 40
0.0354725121586557
 50
192.5694057767665015
 51
220.0876550247118075
  0
ARC
  5
1629B
  8
0
 10
3512.7677386075388313
 20
161.5580476652193909
 30
0.0
 40
0.140175645630169
 50
222.0815927371718885
 51
233.4583295089989008
  0
ARC
  5
1629C
  8
0
 10
3512.2580784644751475
 20
161.203206403527787
 30
0.0
 40
0.4553279341178575
 50
32.6087629791422273
 51
46.6103205937052891
  0
ARC
  5
1629D
  8
0
 10
3512.5787552674601102
 20
161.5261462220861972
 30
0.0
 40
0.0111953741174429
 50
134.7828325385106041
 51
216.120180520299499
  0
ARC
  5
1629E
  8
0
 10
3512.6358960078509881
 20
161.4625720627877001
 30
0.0
 40
0.0151202753716952
 50
228.430196705951488
 51
292.2981999698637878
  0
ARC
  5
1629F
  8
0
 10
3513.0084104669408589
 20
161.8230528940119086
 30
0.0
 40
0.5334533296843281
 50
214.6767588885182079
 51
224.1832210813848008
  0
LINE
  5
162A0
  8
0
 10
3512.8698970549289697
 20
161.279625020208897
 30
0.0
 11
3512.8464898260790505
 21
161.2564217457691882
 31
0.0
  0
LINE
  5
162A1
  8
0
 10
3512.9471883458832053
 20
161.1939835660292033
 30
0.0
 11
3512.9203830330011442
 21
161.1736007895871126
 31
0.0
  0
ARC
  5
162A2
  8
0
 10
3512.4134191380421726
 20
160.7899559801961971
 30
0.0
 40
0.6694384642012043
 50
34.8019801633241102
 51
48.3971994889461712
  0
ARC
  5
162A3
  8
0
 10
3512.8922128708668424
 20
161.2995400979581859
 30
0.0
 40
0.0354725121586557
 50
194.699341430129607
 51
222.2175906780753962
  0
ARC
  5
162A4
  8
0
 10
3513.042333100579981
 20
161.2876771873006021
 30
0.0
 40
0.1401756456301691
 50
224.2115283905430942
 51
235.5882651623402069
  0
ARC
  5
162A5
  8
0
 10
3512.5462130451028315
 20
160.9141391397330096
 30
0.0
 40
0.4553279341178575
 50
34.7386986325259102
 51
48.7402562470479523
  0
ARC
  5
162A6
  8
0
 10
3512.8546659703979458
 20
161.2487740620873922
 30
0.0
 40
0.0111953741174429
 50
136.91276819184651
 51
218.2501161736491042
  0
ARC
  5
162A7
  8
0
 10
3512.9144324140911522
 20
161.1896626095623049
 30
0.0
 40
0.0171286872330845
 50
234.6594952968335122
 51
290.3287726856844984
  0
ARC
  5
162A8
  8
0
 10
3513.2729895437810228
 20
161.5614440961936111
 30
0.0
 40
0.5334533296843283
 50
216.8066945418948137
 51
226.313156734735287
  0
LINE
  5
162A9
  8
0
 10
3512.9831559544459196
 20
161.1035374882281985
 30
0.0
 11
3512.959941290000188
 21
161.0801415556367999
 31
0.0
  0
LINE
  5
162AA
  8
0
 10
3513.0611523952070456
 20
161.0185377378757039
 30
0.0
 11
3513.0345164525879227
 21
160.9979341232655088
 31
0.0
  0
ARC
  5
162AB
  8
0
 10
3512.5307405294420278
 20
160.6101125794830011
 30
0.0
 40
0.6694384642012042
 50
35.2755103168788722
 51
48.8707296424838376
  0
ARC
  5
162AC
  8
0
 10
3513.0053064187741256
 20
161.1236363163735916
 30
0.0
 40
0.0354725121586557
 50
195.1728715836740093
 51
222.6911208316271882
  0
ARC
  5
162AD
  8
0
 10
3513.1555195633750373
 20
161.1130144894362104
 30
0.0
 40
0.140175645630169
 50
224.6850585440832049
 51
236.0617953159074887
  0
ARC
  5
162AE
  8
0
 10
3512.6625035813672184
 20
160.735388981938911
 30
0.0
 40
0.4553279341178575
 50
35.2122287860424521
 51
49.2137864005918786
  0
ARC
  5
162AF
  8
0
 10
3512.9681803598750776
 20
161.0725617054254997
 30
0.0
 40
0.0111953741174429
 50
137.3862983453977904
 51
218.7236463271945865
  0
ARC
  5
162B0
  8
0
 10
3513.0281708293400698
 20
161.0118185487519042
 30
0.0
 40
0.0152657854526891
 50
231.3734228656676919
 51
294.5619054239481898
  0
ARC
  5
162B1
  8
0
 10
3513.3839055644289147
 20
161.3886783240560874
 30
0.0
 40
0.5334533296843281
 50
217.280224695422902
 51
226.7866868882657059
  0
LINE
  5
162B2
  8
0
 10
3513.1068326554818668
 20
160.937715843722998
 30
0.0
 11
3513.0838392483860844
 21
160.9141024251377985
 31
0.0
  0
LINE
  5
162B3
  8
0
 10
3513.1856257539261605
 20
160.8534540494810017
 30
0.0
 11
3513.1591849357969295
 21
160.8326006202460121
 31
0.0
  0
ARC
  5
162B4
  8
0
 10
3512.6590819448201728
 20
160.4400541529601014
 30
0.0
 40
0.6694384642012043
 50
35.8148506146499415
 51
49.4100699402796906
  0
ARC
  5
162B5
  8
0
 10
3513.1287929456639176
 20
160.9580222864898928
 30
0.0
 40
0.0354725121586557
 50
195.7122118814534986
 51
223.2304611294078995
  0
ARC
  5
162B6
  8
0
 10
3513.2790994197389409
 20
160.9488149052486108
 30
0.0
 40
0.1401756456301691
 50
225.2243988418759102
 51
236.6011356136870063
  0
ARC
  5
162B7
  8
0
 10
3512.7896599166238047
 20
160.5665653071889096
 30
0.0
 40
0.4553279341178575
 50
35.7515690838427815
 51
49.753126698389913
  0
ARC
  5
162B8
  8
0
 10
3513.0921493033110892
 20
160.9066004661420095
 30
0.0
 40
0.0111953741174429
 50
137.925638643198198
 51
219.2629866249893951
  0
ARC
  5
162B9
  8
0
 10
3513.1526086448698152
 20
160.8455438318748918
 30
0.0
 40
0.0145180690734002
 50
230.0794302622080068
 51
296.9345786229795863
  0
ARC
  5
162BA
  8
0
 10
3513.5048804441548782
 20
161.2266163527048946
 30
0.0
 40
0.5334533296843283
 50
217.8195649931992079
 51
227.3260271860515047
  0
LINE
  5
162BB
  8
0
 10
3512.7079992063308964
 20
161.3791910154644995
 30
0.0
 11
3512.6843904925399329
 21
161.3561927776981122
 31
0.0
  0
LINE
  5
162BC
  8
0
 10
3512.7845406063402152
 20
161.2928786964367873
 30
0.0
 11
3512.7575585376998788
 21
161.2727304869343072
 31
0.0
  0
ARC
  5
162BD
  8
0
 10
3512.2472678368108063
 20
160.8935219280272975
 30
0.0
 40
0.6694384642012043
 50
34.3022491829126608
 51
47.897468508511821
  0
ARC
  5
162BE
  8
0
 10
3512.730487869594981
 20
161.3989107007394068
 30
0.0
 40
0.0354725121586557
 50
194.1996104497098941
 51
221.7178596976744132
  0
ARC
  5
162BF
  8
0
 10
3512.8804989229251987
 20
161.3857389166149119
 30
0.0
 40
0.1401756456301691
 50
223.7117974101238076
 51
235.0885341819457039
  0
ARC
  5
162C0
  8
0
 10
3512.3811397986228258
 20
161.0165421568732995
 30
0.0
 40
0.4553279341178575
 50
34.2389676521154698
 51
48.2405252666524405
  0
ARC
  5
162C1
  8
0
 10
3512.6924996239959
 20
161.3484740738774974
 30
0.0
 40
0.0111953741174429
 50
136.4130372114429974
 51
217.7503851932384009
  0
LINE
  5
162C2
  8
0
 10
3512.6047986196599595
 20
161.4742407215096023
 30
0.0
 11
3512.5876786621988686
 21
161.4583649751303938
 31
0.0
  0
LINE
  5
162C3
  8
0
 10
3512.9500607407521784
 20
161.0798566190001964
 30
0.0
 11
3512.9265712113929112
 21
161.0609503820290058
 31
0.0
  0
LINE
  5
162C4
  8
0
 10
3512.8525474471698544
 20
161.143654643290887
 30
0.0
 11
3512.8757294300189642
 21
161.1667417412247971
 31
0.0
  0
LINE
  5
162C5
  8
0
 10
3512.587069916045948
 20
161.4448891857389867
 30
0.0
 11
3512.6450275240231349
 21
161.3746792265204135
 31
0.0
  0
LINE
  5
162C6
  8
0
 10
3512.852146203373195
 20
161.1298934001962948
 30
0.0
 11
3512.913230043394833
 21
161.0616694261325108
 31
0.0
  0
ARC
  5
162C7
  8
0
 10
3512.5956342106960619
 20
161.4512539523502141
 30
0.0
 40
0.0106703981584672
 50
138.2082400588533062
 51
216.618795506079806
  0
ARC
  5
162C8
  8
0
 10
3512.6527124174990604
 20
161.3810778523300087
 30
0.0
 40
0.0099999999995701
 50
219.7815732737400936
 51
306.7822225946777053
  0
ARC
  5
162C9
  8
0
 10
3512.8608367189040109
 20
161.1365264774532022
 30
0.0
 40
0.0109326471671512
 50
139.3068842614314065
 51
217.3528558015999863
  0
ARC
  5
162CA
  8
0
 10
3512.9203306100857844
 20
161.0692878171304017
 30
0.0
 40
0.0104143136470004
 50
227.0148788127582975
 51
306.814991208027493
  0
LINE
  5
162CB
  8
0
 10
3512.4758217363992117
 20
161.6387541413016038
 30
0.0
 11
3512.5678277549041013
 21
161.5285805332800919
 31
0.0
  0
LINE
  5
162CC
  8
0
 10
3512.6355755628960651
 20
161.4474551834024965
 30
0.0
 11
3512.7003506494579597
 21
161.3717402355912043
 31
0.0
  0
LINE
  5
162CD
  8
0
 10
3512.774336443815173
 20
161.2852589839866084
 30
0.0
 11
3512.957016185836892
 21
161.0717264691307093
 31
0.0
  0
LINE
  5
162CE
  8
0
 10
3513.0248984101572205
 20
160.9969076306655893
 30
0.0
 11
3513.0937835159861606
 21
160.9243148374337977
 31
0.0
  0
LINE
  5
162CF
  8
0
 10
3513.1715553698500116
 20
160.8423569738455114
 30
0.0
 11
3513.356694279356816
 21
160.647253106104813
 31
0.0
  0
ARC
  5
162D0
  8
0
 10
3514.71834882500616
 20
162.0089097614867057
 30
0.0
 40
0.8175447564607381
 50
44.9998954503611515
 51
45.0000856693981603
  0
LINE
  5
162D1
  8
0
 10
3515.8335961809320906
 20
163.4025426339190119
 30
0.0
 11
3515.4245955858777961
 21
162.9935420390698084
 31
0.0
  0
LINE
  5
162D2
  8
0
 10
3515.8335961809320906
 20
163.4025426339190119
 30
0.0
 11
3516.1119838071881532
 21
163.1241550076638873
 31
0.0
  0
ARC
  5
162D3
  8
0
 10
3515.706119363228936
 20
162.9966781899601926
 30
0.0
 40
0.4254130768110772
 50
17.4368351180083607
 51
72.5631648820018569
  0
ARC
  5
162D4
  8
0
 10
3515.5072884571259237
 20
162.9185418216328003
 30
0.0
 40
0.1116384502346364
 50
137.7928140156408858
 51
189.7550775531389888
  0
ARC
  5
162D5
  8
0
 10
3515.6632763822772176
 20
162.9538352090087017
 30
0.0
 40
0.2714794877251683
 50
191.5182533628072861
 51
258.4817466371724777
  0
ARC
  5
162D6
  8
0
 10
3516.4176603686419185
 20
163.0364677538431124
 30
0.0
 40
0.0200000004214643
 50
315.0000012073929838
 51
45.0000624129928397
  0
LINE
  5
162D7
  8
0
 10
3516.4318025045640752
 20
163.0223256179212967
 30
0.0
 11
3515.9147823572138805
 21
162.505305628298288
 31
0.0
  0
ARC
  5
162D8
  8
0
 10
3515.7521478187040884
 20
162.6679398845483036
 30
0.0
 40
0.2299997704820279
 50
247.5403023846415067
 51
315.0000497194823197
  0
ARC
  5
162D9
  8
0
 10
3515.6375378737739084
 20
162.3906955467923865
 30
0.0
 40
0.0700000000091486
 50
67.5403104214625216
 51
185.546520146530213
  0
LINE
  5
162DA
  8
0
 10
3515.5678656102531932
 20
162.3839297728507916
 30
0.0
 11
3515.571701793901866
 21
162.3197203427563124
 31
0.0
  0
LINE
  5
162DB
  8
0
 10
3515.7593927075718057
 20
162.0889356105708998
 30
0.0
 11
3515.5836545428260251
 21
161.9053698580109995
 31
0.0
  0
ARC
  5
162DC
  8
0
 10
3515.3329883701530889
 20
161.9518598145133126
 30
0.0
 40
0.4230035626024284
 50
17.2841001596483501
 51
72.7156619769930614
  0
ARC
  5
162DD
  8
0
 10
3514.71834882500616
 20
162.0089097614867057
 30
0.0
 40
0.8175447564607381
 50
25.1038408953611416
 51
44.9998954503611515
  0
ARC
  5
162DE
  8
0
 10
3515.6689428025588313
 20
161.8206626959882897
 30
0.0
 40
0.1202056177811592
 50
135.1958541956173008
 51
201.3227170565758115
  0
ARC
  5
162DF
  8
0
 10
3515.531396759945892
 20
161.7655392918730968
 30
0.0
 40
0.0280008741939234
 50
315.0012304119007922
 51
24.0564187429666809
  0
LINE
  5
162E0
  8
0
 10
3515.5511967931538493
 20
161.7457401090474036
 30
0.0
 11
3515.4948860197910108
 21
161.6894293356826893
 31
0.0
  0
ARC
  5
162E1
  8
0
 10
3515.7340815622660557
 20
162.1105510276406108
 30
0.0
 40
0.0332848363644136
 50
319.5030672048650899
 51
38.7216541107189229
  0
ARC
  5
162E2
  8
0
 10
3515.7103009129041311
 20
162.0761205630903987
 30
0.0
 40
0.026627341837948
 50
318.8976673950269856
 51
3.05222159574376
  0
ARC
  5
162E3
  8
0
 10
3515.7821025980501872
 20
162.3566560327668071
 30
0.0
 40
0.5944875681699034
 50
204.3436220730976061
 51
245.6565257395158994
  0
ARC
  5
162E4
  8
0
 10
3515.8648581540019222
 20
163.1706284889338008
 30
0.0
 40
1.22938736582365
 50
225.5012988470176083
 51
239.4769654537477948
  0
LINE
  5
162E5
  8
0
 10
3515.4586685982758354
 20
162.3557614043014894
 30
0.0
 11
3515.2883506859161571
 21
162.1809145147906008
 31
0.0
  0
ARC
  5
162E6
  8
0
 10
3515.5249077462908645
 20
161.9663096627270136
 30
0.0
 40
0.3193970653315458
 50
137.7856467207903108
 51
152.9414930687655954
  0
ARC
  5
162E7
  8
0
 10
3515.5249306747277842
 20
161.8372418041988112
 30
0.0
 40
0.0253090300749124
 50
298.6141366324848718
 51
342.5385324141038268
  0
ARC
  5
162E8
  8
0
 10
3515.8454772335330745
 20
161.3039620388487094
 30
0.0
 40
0.5210558857573226
 50
132.287227929368612
 51
216.4720092615031035
  0
ARC
  5
162E9
  8
0
 10
3515.8260864491039683
 20
158.925781579086788
 30
0.0
 40
0.0200000000001113
 50
224.9999999957913133
 51
332.8826308878445843
  0
ARC
  5
162EA
  8
0
 10
3515.4394613266767919
 20
159.1237755691882114
 30
0.0
 40
0.4543738083820936
 50
332.8826308803008942
 51
26.0110290016869783
  0
ARC
  5
162EB
  8
0
 10
3515.8747727408140236
 20
159.3361948691481018
 30
0.0
 40
0.030000000027054
 50
137.5611265764055133
 51
206.0110290493933007
  0
ARC
  5
162EC
  8
0
 10
3515.7779240602708342
 20
159.4247504386723904
 30
0.0
 40
0.1012316875201957
 50
317.5611265322341978
 51
32.1953229059464832
  0
ARC
  5
162ED
  8
0
 10
3515.8896282371060806
 20
159.4948014898110102
 30
0.0
 40
0.0306211039427683
 50
129.9201156421119947
 51
211.7518219818416014
  0
ARC
  5
162EE
  8
0
 10
3515.499550698836174
 20
159.906980121144386
 30
0.0
 40
0.5369353289299204
 50
313.6215615517555193
 51
31.0339843161061602
  0
ARC
  5
162EF
  8
0
 10
3478.7061948687219228
 20
136.2565971774124023
 30
0.0
 40
44.2756054050253169
 50
32.711889127955871
 51
33.9672724220698967
  0
ARC
  5
162F0
  8
0
 10
3515.8052765226839256
 20
158.8900229629331875
 30
0.0
 40
0.0200000000559904
 50
326.4726319222597795
 51
44.999999942801189
  0
ARC
  5
162F1
  8
0
 10
3515.7072968559359651
 20
158.8259256735096017
 30
0.0
 40
0.0513942851606653
 50
224.9999998762937139
 51
310.7179208211467767
  0
ARC
  5
162F2
  8
0
 10
3515.0307310098110065
 20
159.5868834429732033
 30
0.0
 40
1.0696207642637929
 50
311.5959099149105782
 51
313.0208546893614994
  0
ARC
  5
162F3
  8
0
 10
3515.224807001768113
 20
159.3116849670136048
 30
0.0
 40
0.7374383705554068
 50
316.5869135898083186
 51
324.0716774037512096
  0
ARC
  5
162F4
  8
0
 10
3515.7456690793451344
 20
160.2429633304633967
 30
0.0
 40
1.2484456312640919
 50
239.1579063321630088
 51
255.0606297651912087
  0
ARC
  5
162F5
  8
0
 10
3514.718350934755108
 20
162.0089076517382978
 30
0.0
 40
0.8175447564607381
 50
44.9999143306006886
 51
45.0001045496480501
  0
LINE
  5
162F6
  8
0
 10
3516.1119838071881532
 20
163.1241550076638873
 30
0.0
 11
3515.7029832123380402
 21
162.7151544126093086
 31
0.0
  0
ARC
  5
162F7
  8
0
 10
3515.6279829949007762
 20
162.7978472838570951
 30
0.0
 40
0.1116384502346364
 50
260.244922446863427
 51
312.2071859843430843
  0
ARC
  5
162F9
  8
0
 10
3512.8330448588440049
 20
161.1691867353133887
 30
0.0
 40
0.064451119024348
 50
24.4039897207401886
 51
59.6205907753007125
  0
ARC
  5
162FA
  8
0
 10
3512.9252486689379111
 20
161.2522432386801086
 30
0.0
 40
0.0656280517942249
 50
204.7298057155215076
 51
239.2947747805104086
  0
ARC
  5
162FB
  8
0
 10
3513.8829390343457817
 20
162.3277374117224099
 30
0.0
 40
1.5526517504075541
 50
219.4287523554230859
 51
222.6916369603274859
  0
ARC
  5
162FC
  8
0
 10
3512.488006777271039
 20
161.5705110418572872
 30
0.0
 40
0.0833743402070088
 50
25.1846629210647315
 51
52.2242077171171886
  0
ARC
  5
162FD
  8
0
 10
3512.6120644457741946
 20
161.6699157440727959
 30
0.0
 40
0.0803077091202812
 50
204.6580072422455032
 51
232.7508633959261886
  0
ARC
  5
162FE
  8
0
 10
3512.1088509413448264
 20
161.8590289827683932
 30
0.0
 40
0.1474581967982094
 50
28.9824332401533695
 51
44.1779493027789485
  0
ARC
  5
162FF
  8
0
 10
3512.3467726909839257
 20
162.035597675936998
 30
0.0
 40
0.1513795411664953
 50
209.1803625727033875
 51
223.9800199702399937
  0
LINE
  5
16300
  8
0
 10
3512.0841874937809735
 20
162.0988232437653949
 30
0.0
 11
3512.1378666438499749
 21
162.024161076908598
 31
0.0
  0
ARC
  5
16301
  8
0
 10
3512.1459832043988172
 20
162.0300024333303952
 30
0.0
 40
0.0099999999999975
 50
215.7419505403182995
 51
284.5525522632199795
  0
LINE
  5
16302
  8
0
 10
3512.1376651208338444
 20
162.1005309725468919
 30
0.0
 11
3512.1154300481980499
 21
162.0825325917303985
 31
0.0
  0
LINE
  5
16303
  8
0
 10
3512.1805798301720642
 20
161.9926723612452975
 30
0.0
 11
3512.2048253671100611
 21
162.0083804551547928
 31
0.0
  0
ARC
  5
16304
  8
0
 10
3512.1220996989318337
 20
162.0745149604817072
 30
0.0
 40
0.0104294191137834
 50
129.7559951247874039
 51
212.166282259596187
  0
ARC
  5
16305
  8
0
 10
3512.1750114912319987
 20
162.0015186832150107
 30
0.0
 40
0.0104529331261989
 50
218.0413745145544908
 51
302.1884632063109279
  0
LINE
  5
16306
  8
0
 10
3512.1132711267191553
 20
162.0689625649885102
 30
0.0
 11
3512.1667791168588337
 21
161.9950772685315883
 31
0.0
  0
LINE
  5
16307
  8
0
 10
3512.137678751499152
 20
162.1005127080304078
 30
0.0
 11
3512.2081059952338364
 21
162.0038790866626073
 31
0.0
  0
ARC
  5
16308
  8
0
 10
3512.2365745705787958
 20
162.1715404312828923
 30
0.0
 40
0.1253828465662153
 50
206.1768746351141033
 51
215.771315531149412
  0
ARC
  5
16309
  8
0
 10
3512.0238514180928178
 20
162.0155784853726004
 30
0.0
 40
0.1420228291813617
 50
36.729092797492747
 51
45.1283943206580389
  0
LINE
  5
1630A
  8
0
 10
3512.3610873468378486
 20
161.8774750188071039
 30
0.0
 11
3512.3365105016077905
 21
161.8555143952793003
 31
0.0
  0
LINE
  5
1630B
  8
0
 10
3512.4338422677210474
 20
161.7879477949101101
 30
0.0
 11
3512.406017881167827
 21
161.7689797721571097
 31
0.0
  0
ARC
  5
1630C
  8
0
 10
3511.8798762346791591
 20
161.4120894551226115
 30
0.0
 40
0.6694384642012043
 50
31.8350481688384086
 51
45.4302674944266869
  0
ARC
  5
1630D
  8
0
 10
3512.3844040463918645
 20
161.8962083443171878
 30
0.0
 40
0.0354725121586557
 50
191.7324094356289947
 51
219.2506586835669111
  0
ARC
  5
1630E
  8
0
 10
3512.5337090316029389
 20
161.8765911730322102
 30
0.0
 40
0.1401756456301691
 50
221.2445963960556128
 51
232.6213331678619909
  0
ARC
  5
1630F
  8
0
 10
3512.0189198111079349
 20
161.529232797736114
 30
0.0
 40
0.4553279341178575
 50
31.7717666380221715
 51
45.7733242525530883
  0
ARC
  5
16310
  8
0
 10
3512.344279845417077
 20
161.8474537688504995
 30
0.0
 40
0.0111953741174429
 50
133.9458361973682088
 51
215.2831841791370096
  0
ARC
  5
16311
  8
0
 10
3512.4002558450138167
 20
161.7818076212174105
 30
0.0
 40
0.0140625307876807
 50
224.8656562216648069
 51
294.1887477718847208
  0
ARC
  5
16312
  8
0
 10
3512.7782263606532069
 20
162.1380524340048908
 30
0.0
 40
0.5334533296843283
 50
213.8397625473743062
 51
223.3462247402304115
  0
ARC
  5
16313
  8
0
 10
3512.3023617422959433
 20
161.7556611356231997
 30
0.0
 40
0.0833743402070088
 50
25.1846629210647315
 51
52.2242077171171886
  0
ARC
  5
16314
  8
0
 10
3512.4264194107990988
 20
161.8550658378387936
 30
0.0
 40
0.0803077091202812
 50
204.6580072422455032
 51
232.7508633959261886
  0
ARC
  5
16315
  8
0
 10
3512.5976705831481013
 20
161.8074218885782045
 30
0.0
 40
0.2260946284825964
 50
213.2494472005191142
 51
223.1449589022473958
  0
ARC
  5
16316
  8
0
 10
3512.2430973680347961
 20
161.5284283080434022
 30
0.0
 40
0.2267636227915962
 50
33.2640802187163729
 51
43.1303258840536472
  0
LINE
  5
16317
  8
0
 10
3512.658700168732139
 20
161.3730686803903041
 30
0.0
 11
3512.6834099544130368
 21
161.3915420438050887
 31
0.0
  0
ARC
  5
16318
  8
0
 10
3512.5101512571191051
 20
161.4122446898954877
 30
0.0
 40
0.119801091439456
 50
30.0601480733280191
 51
48.79485002521551
  0
ARC
  5
16319
  8
0
 10
3512.6940800032530205
 20
161.5634685024473072
 30
0.0
 40
0.1214852479268087
 50
210.1893567463191062
 51
228.6620517043679115
  0
ARC
  5
1631A
  8
0
 10
3512.7515127155370465
 20
161.2871689840930003
 30
0.0
 40
0.0156531838879993
 50
231.268315756978609
 51
292.7204902645756874
  0
ARC
  5
1631B
  8
0
 10
3512.5536855428299532
 20
161.1699124881193939
 30
0.0
 40
0.215072076376647
 50
35.2782906698485093
 51
45.6822087200311913
  0
ARC
  5
1631C
  8
0
 10
3512.8791571267188374
 20
161.4476975067481135
 30
0.0
 40
0.2145990171357385
 50
215.2667918225776873
 51
225.6937075672958883
  0
LINE
  5
1631D
  8
0
 10
3512.7724351583310636
 20
161.4662079673609014
 30
0.0
 11
3512.7478583131010055
 21
161.4442473438330126
 31
0.0
  0
LINE
  5
1631E
  8
0
 10
3512.8451900792138076
 20
161.376680743463794
 30
0.0
 11
3512.817365692661042
 21
161.3577127207107935
 31
0.0
  0
ARC
  5
1631F
  8
0
 10
3512.2912240461719193
 20
161.0008224036762954
 30
0.0
 40
0.6694384642012043
 50
31.8350481688384086
 51
45.4302674944266869
  0
ARC
  5
16320
  8
0
 10
3512.7957518578850795
 20
161.4849412928709
 30
0.0
 40
0.0354725121586557
 50
191.7324094356289947
 51
219.2506586835669111
  0
ARC
  5
16321
  8
0
 10
3512.9450568430961539
 20
161.4653241215860078
 30
0.0
 40
0.1401756456301691
 50
221.2445963960556128
 51
232.6213331678619909
  0
ARC
  5
16322
  8
0
 10
3512.4302676226011499
 20
161.1179657462899115
 30
0.0
 40
0.4553279341178575
 50
31.7717666380221715
 51
45.7733242525530883
  0
ARC
  5
16323
  8
0
 10
3512.7556276569098372
 20
161.4361867174042118
 30
0.0
 40
0.0111953741174429
 50
133.9458361973682088
 51
215.2831841791370096
  0
ARC
  5
16324
  8
0
 10
3512.8116036565070317
 20
161.3705405697710944
 30
0.0
 40
0.0140625307876807
 50
224.8656562216648069
 51
294.1887477718847208
  0
ARC
  5
16325
  8
0
 10
3513.1895741721459672
 20
161.726785382558603
 30
0.0
 40
0.5334533296843283
 50
213.8397625473743062
 51
223.3462247402304115
  0
ARC
  5
16326
  8
0
 10
3512.7137095537891582
 20
161.3443940841769972
 30
0.0
 40
0.0833743402070088
 50
25.1846629210647315
 51
52.2242077171171886
  0
ARC
  5
16327
  8
0
 10
3512.8377672222918591
 20
161.4437987863925059
 30
0.0
 40
0.0803077091202812
 50
204.6580072422455032
 51
232.7508633959261886
  0
LINE
  5
16328
  8
0
 10
3513.0257374289690233
 20
161.2134070741853975
 30
0.0
 11
3513.0011605837398747
 21
161.1914464506575086
 31
0.0
  0
LINE
  5
16329
  8
0
 10
3513.0984923498522221
 20
161.1238798502884038
 30
0.0
 11
3513.0706679632990017
 21
161.1049118275352896
 31
0.0
  0
ARC
  5
1632A
  8
0
 10
3512.5445263168098791
 20
160.7480215105009052
 30
0.0
 40
0.6694384642012043
 50
31.8350481688384086
 51
45.4302674944266869
  0
ARC
  5
1632B
  8
0
 10
3513.0490541285230393
 20
161.2321403996955098
 30
0.0
 40
0.0354725121586557
 50
191.7324094356289947
 51
219.2506586835669111
  0
ARC
  5
1632C
  8
0
 10
3513.1983591137341136
 20
161.2125232284105039
 30
0.0
 40
0.1401756456301691
 50
221.2445963960556128
 51
232.6213331678619909
  0
ARC
  5
1632D
  8
0
 10
3512.6835698932391097
 20
160.8651648531144076
 30
0.0
 40
0.4553279341178575
 50
31.7717666380221715
 51
45.7733242525530883
  0
ARC
  5
1632E
  8
0
 10
3513.0089299275468875
 20
161.1833858242287931
 30
0.0
 40
0.0111953741174429
 50
133.9458361973682088
 51
215.2831841791370096
  0
ARC
  5
1632F
  8
0
 10
3513.0649059271449914
 20
161.1177396765957042
 30
0.0
 40
0.0140625307876807
 50
224.8656562216648069
 51
294.1887477718847208
  0
ARC
  5
16330
  8
0
 10
3513.4428764427839269
 20
161.4739844893830991
 30
0.0
 40
0.5334533296843283
 50
213.8397625473743062
 51
223.3462247402304115
  0
ARC
  5
16331
  8
0
 10
3512.967011824427118
 20
161.0915931910014933
 30
0.0
 40
0.0833743402070088
 50
25.1846629210647315
 51
52.2242077171171886
  0
ARC
  5
16332
  8
0
 10
3513.0910694929298188
 20
161.1909978932170873
 30
0.0
 40
0.0803077091202812
 50
204.6580072422455032
 51
232.7508633959261886
  0
LINE
  5
16333
  8
0
 10
3513.2914350480741632
 20
160.9418319219817874
 30
0.0
 11
3513.2702826446789004
 21
160.9165561205547874
 31
0.0
  0
LINE
  5
16334
  8
0
 10
3513.3763420480108834
 20
160.8637345232220071
 30
0.0
 11
3513.3515444272447894
 21
160.8409516265990078
 31
0.0
  0
ARC
  5
16335
  8
0
 10
3512.8823798405410344
 20
160.4119058002044085
 30
0.0
 40
0.6694384642012043
 50
40.1279456484506412
 51
53.7231649740318105
  0
ARC
  5
16336
  8
0
 10
3513.3118059668890965
 20
160.9637324157974945
 30
0.0
 40
0.0354725121586557
 50
200.0253069152402077
 51
227.5435561631728945
  0
ARC
  5
16337
  8
0
 10
3513.4623792248098653
 20
160.9658551539571079
 30
0.0
 40
0.1401756456301691
 50
229.5374938756550875
 51
240.9142306474778934
  0
ARC
  5
16338
  8
0
 10
3513.0030735337968508
 20
160.547879000774202
 30
0.0
 40
0.4553279341178575
 50
40.0646641176309188
 51
54.0662217321582688
  0
ARC
  5
16339
  8
0
 10
3513.2791333623640639
 20
160.9097003785753088
 30
0.0
 40
0.0111953741174429
 50
142.2387336769741069
 51
223.5760816587537079
  0
ARC
  5
1633A
  8
0
 10
3513.3439924347781016
 20
160.8528142646673018
 30
0.0
 40
0.0140625307876807
 50
233.1585537012823011
 51
302.4816452514837124
  0
ARC
  5
1633B
  8
0
 10
3513.6666283193130766
 20
161.259850090290513
 30
0.0
 40
0.5334533296843283
 50
222.1326600269919993
 51
231.6391222198433866
  0
ARC
  5
1633C
  8
0
 10
3513.2508931445659073
 20
160.8128215626105941
 30
0.0
 40
0.0833743402070088
 50
33.4775604006764667
 51
60.5171051967178073
  0
ARC
  5
1633D
  8
0
 10
3513.3593161342278108
 20
160.9290801332606975
 30
0.0
 40
0.0803077091202812
 50
212.9509047218610931
 51
241.0437608755370036
  0
LINE
  5
1633E
  8
0
 10
3513.204453370497049
 20
160.9392621170246969
 30
0.0
 11
3513.1833009671017862
 21
160.9139863155976968
 31
0.0
  0
LINE
  5
1633F
  8
0
 10
3513.289360370434224
 20
160.8611647182648881
 30
0.0
 11
3513.26456274966813
 21
160.8383818216418888
 31
0.0
  0
ARC
  5
16340
  8
0
 10
3512.7953981629639202
 20
160.4093359952472895
 30
0.0
 40
0.6694384642012043
 50
40.1279456484506412
 51
53.7231649740318105
  0
ARC
  5
16341
  8
0
 10
3513.2248242893119823
 20
160.9611626108402902
 30
0.0
 40
0.0354725121586557
 50
200.0253069152402077
 51
227.5435561631728945
  0
ARC
  5
16342
  8
0
 10
3513.3753975472332058
 20
160.9632853489999889
 30
0.0
 40
0.1401756456301691
 50
229.5374938756550875
 51
240.9142306474778934
  0
ARC
  5
16343
  8
0
 10
3512.9160918562201914
 20
160.5453091958169978
 30
0.0
 40
0.4553279341178575
 50
40.0646641176309188
 51
54.0662217321582688
  0
ARC
  5
16344
  8
0
 10
3513.1921516847869498
 20
160.9071305736181898
 30
0.0
 40
0.0111953741174429
 50
142.2387336769741069
 51
223.5760816587537079
  0
ARC
  5
16345
  8
0
 10
3513.2570107572009874
 20
160.8502444597100975
 30
0.0
 40
0.0140625307876807
 50
233.1585537012823011
 51
302.4816452514837124
  0
ARC
  5
16346
  8
0
 10
3513.579646641736872
 20
161.2572802853333087
 30
0.0
 40
0.5334533296843283
 50
222.1326600269919993
 51
231.6391222198433866
  0
ARC
  5
16347
  8
0
 10
3513.1639114669887931
 20
160.8102517576535035
 30
0.0
 40
0.0833743402070088
 50
33.4775604006764667
 51
60.5171051967178073
  0
ARC
  5
16348
  8
0
 10
3513.2723344566511514
 20
160.9265103283036069
 30
0.0
 40
0.0803077091202812
 50
212.9509047218610931
 51
241.0437608755370036
  0
ARC
  5
16349
  8
0
 10
3512.9015005102619398
 20
160.9515298530720031
 30
0.0
 40
0.1236712123030921
 50
33.3141707486626117
 51
51.4577833948430694
  0
ARC
  5
1634A
  8
0
 10
3513.0822768250568515
 20
161.1165556931613025
 30
0.0
 40
0.1241845801291117
 50
213.364236099049208
 51
231.4320502586026862
  0
ARC
  5
1634B
  8
0
 10
3513.6249178707407737
 20
160.9176056887615971
 30
0.0
 40
0.3697318238321059
 50
219.1900880156300104
 51
225.2332898708087043
  0
ARC
  5
1634C
  8
0
 10
3513.3874860190830987
 20
160.7604145566542968
 30
0.0
 40
0.0565729807391883
 50
199.3316222644631068
 51
226.2822187666872082
  0
ARC
  5
1634D
  8
0
 10
3513.3035217633891989
 20
160.6716829753399054
 30
0.0
 40
0.0763920474586799
 50
47.170172557892819
 51
66.4020721735567179
  0
ARC
  5
1634E
  8
0
 10
3510.4407883215990296
 20
157.5254973069199025
 30
0.0
 40
4.3300610102950667
 50
46.9263978402914219
 51
47.6913892069997516
  0
ARC
  5
1634F
  8
0
 10
3513.343662510978902
 20
160.6965817116999062
 30
0.0
 40
0.0114417820566882
 50
139.8644001235020937
 51
213.0817455604214956
  0
ARC
  5
16350
  8
0
 10
3513.5510121554370926
 20
160.8316571285901091
 30
0.0
 40
0.2589074227121183
 50
213.0817455604214956
 51
214.7787767693127137
  0
ARC
  5
16351
  8
0
 10
3513.3183077420931113
 20
160.6140484244918127
 30
0.0
 40
0.0677773770626961
 50
41.9010115211024399
 51
58.5115552673744403
  0
ARC
  5
16352
  8
0
 10
3513.4252677152121578
 20
160.7187490289277036
 30
0.0
 40
0.0855600125116639
 50
213.2434132746442117
 51
226.3839857430529889
  0
ARC
  5
16353
  8
0
 10
3513.2192786845471346
 20
160.5221990415585935
 30
0.0
 40
0.215537933680585
 50
42.6757905086239617
 51
57.5257723264269529
  0
LINE
  5
16354
  8
0
 10
3513.3350053520857728
 20
160.7040339647049052
 30
0.0
 11
3513.3554548482061364
 21
160.7277070738709881
 31
0.0
  0
ARC
  5
16355
  8
0
 10
3512.969336073282193
 20
160.7288350872601086
 30
0.0
 40
0.2022843615761198
 50
37.8692474717657035
 51
48.9326512157928306
  0
ARC
  5
16356
  8
0
 10
3513.2592356576478778
 20
161.0029885953360917
 30
0.0
 40
0.1986183272102578
 50
217.7668177169616115
 51
229.0350809705946915
  0
ARC
  5
16357
  8
0
 10
3512.3936271909988136
 20
161.7010730517291108
 30
0.0
 40
0.0099999999985095
 50
221.4405042832831043
 51
293.347576857601382
  0
LINE
  5
16358
  8
0
 10
3514.8040277271311425
 20
159.4208802547213963
 30
0.0
 11
3514.9755905794118007
 21
159.3011016914666982
 31
0.0
  0
LINE
  5
16359
  8
0
 10
3514.8376395089949256
 20
159.3974138056233869
 30
0.0
 11
3514.8211208338548204
 21
159.3771154444062859
 31
0.0
  0
LINE
  5
1635A
  8
0
 10
3514.7268396166559796
 20
159.5150563290189041
 30
0.0
 11
3514.7058684794060355
 21
159.4896299311292012
 31
0.0
  0
LINE
  5
1635B
  8
0
 10
3514.6345041939080147
 20
159.5842124714590966
 30
0.0
 11
3514.6166517919082253
 21
159.555659466065606
 31
0.0
  0
LINE
  5
1635C
  8
0
 10
3514.6184554021938311
 20
159.5585441475905952
 30
0.0
 11
3514.4375617685650468
 21
159.6967027268235881
 31
0.0
  0
LINE
  5
1635D
  8
0
 10
3514.5080831854788812
 20
159.6428415788612085
 30
0.0
 11
3514.4900458301599429
 21
159.6219171455109063
 31
0.0
  0
LINE
  5
1635E
  8
0
 10
3514.4763476252592227
 20
159.6205408259125988
 30
0.0
 11
3514.4038958050819019
 21
159.6766895838318021
 31
0.0
  0
ARC
  5
1635F
  8
0
 10
3514.8133211157310143
 20
159.3833735908723099
 30
0.0
 40
0.0100000000000572
 50
239.6241689702509916
 51
321.2579946424903028
  0
ARC
  5
16360
  8
0
 10
3514.4824715668241879
 20
159.6284463518007897
 30
0.0
 40
0.0099999999926989
 50
232.2371818523467084
 51
319.2378315165834124
  0
ARC
  5
16361
  8
0
 10
3514.280855765628985
 20
159.015810636022394
 30
0.0
 40
0.6694384642012043
 50
46.8370250160900596
 51
60.4322443416895112
  0
ARC
  5
16362
  8
0
 10
3514.7446358355227858
 20
159.5390958913436066
 30
0.0
 40
0.0354725121586557
 50
233.0166338269420976
 51
260.5348830748988007
  0
ARC
  5
16363
  8
0
 10
3514.7191273085768444
 20
159.687507909291412
 30
0.0
 40
0.1401756456301691
 50
219.645959342667112
 51
231.0226961144664131
  0
ARC
  5
16364
  8
0
 10
3514.392406644096809
 20
159.1593797147897931
 30
0.0
 40
0.4553279341178575
 50
46.4939682579733002
 51
60.4955258725301306
  0
ARC
  5
16365
  8
0
 10
3514.6974196735491205
 20
159.4977227077590953
 30
0.0
 40
0.0116993740859483
 50
239.0725615087580991
 51
316.2330031357759026
  0
ARC
  5
16366
  8
0
 10
3514.6291774912187975
 20
159.5502918449786023
 30
0.0
 40
0.0136273438125342
 50
156.8034799448813885
 51
228.6767010826287958
  0
ARC
  5
16367
  8
0
 10
3514.9707104363919825
 20
159.9421775874905052
 30
0.0
 40
0.5334533296843283
 50
228.9210677702984924
 51
238.4275299631364078
  0
LINE
  5
16368
  8
0
 10
3514.4017660981958215
 20
159.8372912084356017
 30
0.0
 11
3514.3798054746648631
 21
159.8127143632086984
 31
0.0
  0
LINE
  5
16369
  8
0
 10
3514.3122388743081501
 20
159.9100461293286912
 30
0.0
 11
3514.2932708515518243
 21
159.8822217427781993
 31
0.0
  0
ARC
  5
1636A
  8
0
 10
3513.9363805344542016
 20
159.3560800963319082
 30
0.0
 40
0.6694384642012043
 50
44.5697324987079213
 51
58.1649518242978871
  0
ARC
  5
1636B
  8
0
 10
3514.4204994237088613
 20
159.8606079079868891
 30
0.0
 40
0.0354725121586557
 50
230.749341309566006
 51
258.267590557509493
  0
ARC
  5
1636C
  8
0
 10
3514.4008822524419884
 20
160.0099128932008057
 30
0.0
 40
0.1401756456301691
 50
217.3786668252724894
 51
228.7554035970682946
  0
ARC
  5
1636D
  8
0
 10
3514.0535238770839896
 20
159.4951236727470132
 30
0.0
 40
0.4553279341178575
 50
44.2266757405833175
 51
58.2282333551059494
  0
ARC
  5
1636E
  8
0
 10
3514.371744848237995
 20
159.8204837070175017
 30
0.0
 40
0.0111953741174429
 50
234.7168158139843968
 51
316.0541637957700232
  0
ARC
  5
1636F
  8
0
 10
3514.3060987006110736
 20
159.8764597066225974
 30
0.0
 40
0.0140625307876807
 50
155.8112522212468036
 51
225.1343437714596973
  0
ARC
  5
16370
  8
0
 10
3514.6623435134438296
 20
160.2544302222192982
 30
0.0
 40
0.5334533296843283
 50
226.6537752529098952
 51
236.1602374457582982
  0
LINE
  5
16371
  8
0
 10
3514.4473448705839473
 20
159.7078526089071886
 30
0.0
 11
3514.4256073695369196
 21
159.6830781996222015
 31
0.0
  0
LINE
  5
16372
  8
0
 10
3514.357163453918929
 20
159.7797950471453134
 30
0.0
 11
3514.3384477956960836
 21
159.7518002885024941
 31
0.0
  0
ARC
  5
16373
  8
0
 10
3513.9863294602860151
 20
159.2224531354634962
 30
0.0
 40
0.6694384642012043
 50
45.0878100904031385
 51
58.6830294159991368
  0
ARC
  5
16374
  8
0
 10
3514.4658665998281322
 20
159.7313377426841043
 30
0.0
 40
0.0354725121586557
 50
231.2674189012601005
 51
258.7856681492150983
  0
ARC
  5
16375
  8
0
 10
3514.4449002093801937
 20
159.8804592451236886
 30
0.0
 40
0.1401756456301691
 50
217.8967444169711882
 51
229.2734811887970068
  0
ARC
  5
16376
  8
0
 10
3514.1022107769908871
 20
159.3625502421550948
 30
0.0
 40
0.4553279341178575
 50
44.7447533322898821
 51
58.7463109468385269
  0
ARC
  5
16377
  8
0
 10
3514.4172341970411253
 20
159.693120745103414
 30
0.0
 40
0.0130752719815692
 50
241.9868036557481901
 51
309.8203311374339819
  0
ARC
  5
16378
  8
0
 10
3514.3523855913708758
 20
159.7463600292498995
 30
0.0
 40
0.014961903923334
 50
158.6780940759664986
 51
223.3036571001752009
  0
ARC
  5
16379
  8
0
 10
3514.7041398472088076
 20
160.1273307205379979
 30
0.0
 40
0.5334533296843283
 50
227.1718528445950938
 51
236.6783150374645004
  0
LINE
  5
1637A
  8
0
 10
3514.2658509629341097
 20
159.8856812570730881
 30
0.0
 11
3514.243533668409782
 21
159.8614278310820112
 31
0.0
  0
LINE
  5
1637B
  8
0
 10
3514.1773960825580616
 20
159.9597362128081102
 30
0.0
 11
3514.1580236299910212
 21
159.9321918766252963
 31
0.0
  0
ARC
  5
1637C
  8
0
 10
3513.7934856093329472
 20
159.4113197598271086
 30
0.0
 40
0.6694384642012042
 50
43.7327361575717006
 51
57.3279554831390499
  0
ARC
  5
1637D
  8
0
 10
3514.2849228958089043
 20
159.9087218156415133
 30
0.0
 40
0.0354725121586557
 50
229.9123449684113041
 51
257.4305942163571217
  0
ARC
  5
1637E
  8
0
 10
3514.2674888384008227
 20
160.0582974341780869
 30
0.0
 40
0.140175645630169
 50
216.5416704841314868
 51
227.9184072559600054
  0
ARC
  5
1637F
  8
0
 10
3513.9126475766479416
 20
159.5486372911570072
 30
0.0
 40
0.4553279341178575
 50
43.3896793994256527
 51
57.391237013993937
  0
ARC
  5
16380
  8
0
 10
3514.2355873952451475
 20
159.8693140941018953
 30
0.0
 40
0.0111953741174429
 50
233.8798194728404098
 51
315.2171674546173108
  0
ARC
  5
16381
  8
0
 10
3514.1720132359528179
 20
159.9264548345012997
 30
0.0
 40
0.0151202753716952
 50
157.7018000232652071
 51
221.5698032871758016
  0
ARC
  5
16382
  8
0
 10
3514.5324940672230696
 20
160.2989692935474864
 30
0.0
 40
0.5334533296843281
 50
225.8167789117505038
 51
235.3232411046107018
  0
LINE
  5
16383
  8
0
 10
3513.9890661934027776
 20
160.1604558816011945
 30
0.0
 11
3513.9658629189598287
 21
160.1370486527536059
 31
0.0
  0
LINE
  5
16384
  8
0
 10
3513.903424739231923
 20
160.2377471725648093
 30
0.0
 11
3513.8830419627870469
 21
160.2109418596851924
 31
0.0
  0
ARC
  5
16385
  8
0
 10
3513.4993971533349395
 20
159.7039779647730882
 30
0.0
 40
0.6694384642012043
 50
41.6028005041816016
 51
55.1980198298156921
  0
ARC
  5
16386
  8
0
 10
3514.0089812711548802
 20
160.1827716975361966
 30
0.0
 40
0.0354725121586557
 50
227.7824093150595104
 51
255.3006585630022016
  0
ARC
  5
16387
  8
0
 10
3513.9971183605148326
 20
160.3328919272508131
 30
0.0
 40
0.1401756456301691
 50
214.4117348307929092
 51
225.7884716025805858
  0
ARC
  5
16388
  8
0
 10
3513.6235803128879525
 20
159.836771871818911
 30
0.0
 40
0.4553279341178575
 50
41.2597437460758982
 51
55.2613013606065877
  0
ARC
  5
16389
  8
0
 10
3513.9582152352791127
 20
160.1452247970738938
 30
0.0
 40
0.0111953741174429
 50
231.7498838194744053
 51
313.0872318012761752
  0
ARC
  5
1638A
  8
0
 10
3513.8991037827618129
 20
160.2049912407732961
 30
0.0
 40
0.0171286872330845
 50
159.6712273074452924
 51
215.3405046963005987
  0
ARC
  5
1638B
  8
0
 10
3514.2708852694358939
 20
160.5635483704184878
 30
0.0
 40
0.5334533296843283
 50
223.6868432583954132
 51
233.1933054512331012
  0
LINE
  5
1638C
  8
0
 10
3513.8129786614358636
 20
160.2737147811396028
 30
0.0
 11
3513.7895827288411965
 21
160.2505001166962018
 31
0.0
  0
LINE
  5
1638D
  8
0
 10
3513.7279789110921229
 20
160.3517112219103922
 30
0.0
 11
3513.7073752964788582
 21
160.3250752792937988
 31
0.0
  0
ARC
  5
1638E
  8
0
 10
3513.3195537526357839
 20
159.8212993561944018
 30
0.0
 40
0.6694384642012042
 50
41.1292703506533499
 51
54.7244896762512525
  0
ARC
  5
1638F
  8
0
 10
3513.8330774895839568
 20
160.2958652454643982
 30
0.0
 40
0.0354725121586557
 50
227.3088791615043078
 51
254.8271284094608973
  0
ARC
  5
16390
  8
0
 10
3513.822455662664197
 20
160.4460783900661909
 30
0.0
 40
0.140175645630169
 50
213.9382046772242063
 51
225.3149414490434879
  0
ARC
  5
16391
  8
0
 10
3513.4448301551078657
 20
159.9530624081045005
 30
0.0
 40
0.4553279341178575
 50
40.7862135925423388
 51
54.7877712070890013
  0
ARC
  5
16392
  8
0
 10
3513.7820028786309194
 20
160.2587391865720008
 30
0.0
 40
0.0111953741174429
 50
231.2763536659462034
 51
312.6137016477334214
  0
ARC
  5
16393
  8
0
 10
3513.7212597219649979
 20
160.3187296560442974
 30
0.0
 40
0.0152657854526891
 50
155.4380945691856084
 51
218.6265771274582903
  0
ARC
  5
16394
  8
0
 10
3514.0981194973110178
 20
160.6744643910874117
 30
0.0
 40
0.5334533296843281
 50
223.213313104868007
 51
232.7197752977139942
  0
LINE
  5
16395
  8
0
 10
3513.6471570169460392
 20
160.3973914821951041
 30
0.0
 11
3513.6235435983571733
 21
160.3743980751017091
 31
0.0
  0
LINE
  5
16396
  8
0
 10
3513.5628952227129957
 20
160.4761845806490896
 30
0.0
 11
3513.542041793475164
 21
160.449743762522786
 31
0.0
  0
ARC
  5
16397
  8
0
 10
3513.1494953261289993
 20
159.9496407715921862
 30
0.0
 40
0.6694384642012043
 50
40.5899300528533118
 51
54.1851493784713085
  0
ARC
  5
16398
  8
0
 10
3513.667463459713872
 20
160.4193517723747959
 30
0.0
 40
0.0354725121586557
 50
226.7695388637260123
 51
254.2877881116696983
  0
ARC
  5
16399
  8
0
 10
3513.6582560784909219
 20
160.5696582464514108
 30
0.0
 40
0.1401756456301691
 50
213.3988643794369864
 51
224.7756011512472867
  0
ARC
  5
1639A
  8
0
 10
3513.276006480372871
 20
160.0802187433816073
 30
0.0
 40
0.4553279341178575
 50
40.2468732947324028
 51
54.2484309092943704
  0
ARC
  5
1639B
  8
0
 10
3513.6160416393618107
 20
160.3827081300277086
 30
0.0
 40
0.0111953741174429
 50
230.7370133681430104
 51
312.0743613499320759
  0
ARC
  5
1639C
  8
0
 10
3513.5549850051029352
 20
160.4431674715945917
 30
0.0
 40
0.0145180690734002
 50
153.0654213701527055
 51
219.9205697309259051
  0
ARC
  5
1639D
  8
0
 10
3513.9360575259747748
 20
160.7954392708334979
 30
0.0
 40
0.5334533296843283
 50
222.6739728070774902
 51
232.1804349999216015
  0
LINE
  5
1639E
  8
0
 10
3514.088632188639167
 20
159.9985580329907862
 30
0.0
 11
3514.0656339508700512
 21
159.974949319203489
 31
0.0
  0
LINE
  5
1639F
  8
0
 10
3514.0023198696208055
 20
160.0750994330101094
 30
0.0
 11
3513.9821716601150001
 21
160.0481173643734962
 31
0.0
  0
ARC
  5
163A0
  8
0
 10
3513.6029631011460879
 20
159.537826663528989
 30
0.0
 40
0.6694384642012043
 50
42.1025314846132517
 51
55.6977508102249175
  0
ARC
  5
163A1
  8
0
 10
3514.1083518739160354
 20
160.0210466962521139
 30
0.0
 40
0.0354725121586557
 50
228.2821402954571965
 51
255.8003895434158039
  0
ARC
  5
163A2
  8
0
 10
3514.0951800898101283
 20
160.1710577495838947
 30
0.0
 40
0.1401756456301691
 50
214.9114658111863889
 51
226.2882025830012083
  0
ARC
  5
163A3
  8
0
 10
3513.7259833300081482
 20
159.6716986253267123
 30
0.0
 40
0.4553279341178575
 50
41.7594747264837025
 51
55.761032341017831
  0
ARC
  5
163A4
  8
0
 10
3514.0579152470500048
 20
159.9830584506599962
 30
0.0
 40
0.0111953741174429
 50
232.2496147998874108
 51
313.5869627816874754
  0
LINE
  5
163A5
  8
0
 10
3514.1836818946708263
 20
159.89535744630831
 30
0.0
 11
3514.1678061482912199
 21
159.8782374888496065
 31
0.0
  0
LINE
  5
163A6
  8
0
 10
3513.7892977922037971
 20
160.2406195674485048
 30
0.0
 11
3513.7703915552301623
 21
160.2171300380911134
 31
0.0
  0
LINE
  5
163A7
  8
0
 10
3513.8530958164828917
 20
160.1431062738589901
 30
0.0
 11
3513.8761829144191324
 21
160.1662882567044903
 31
0.0
  0
LINE
  5
163A8
  8
0
 10
3514.1543303588991876
 20
159.8776287426979081
 30
0.0
 11
3514.0841203996869808
 21
159.9355863506833089
 31
0.0
  0
LINE
  5
163A9
  8
0
 10
3513.8393345733879869
 20
160.142705030063496
 30
0.0
 11
3513.7711105993312231
 21
160.2037888700928931
 31
0.0
  0
ARC
  5
163AA
  8
0
 10
3514.1606951255112108
 20
159.8861930373466862
 30
0.0
 40
0.0106703981584672
 50
233.3812044870452098
 51
311.7917599342704875
  0
ARC
  5
163AB
  8
0
 10
3514.0905190254979971
 20
159.943271244159007
 30
0.0
 40
0.0099999999995701
 50
143.2177773984440137
 51
230.2184267194035954
  0
ARC
  5
163AC
  8
0
 10
3513.8459676506458891
 20
160.1513955455930898
 30
0.0
 40
0.0109326471671512
 50
232.6471441915257969
 51
310.693115731693922
  0
ARC
  5
163AD
  8
0
 10
3513.7787289903299097
 20
160.2108894367837877
 30
0.0
 40
0.0104143136470004
 50
143.185008785096187
 51
222.9851211803710953
  0
LINE
  5
163AE
  8
0
 10
3514.3481953144478211
 20
159.766380563028207
 30
0.0
 11
3514.2380217064378485
 21
159.8583865815465117
 31
0.0
  0
LINE
  5
163AF
  8
0
 10
3514.1568963565678132
 20
159.9261343895485936
 30
0.0
 11
3514.0811814087642233
 21
159.9909094761183894
 31
0.0
  0
LINE
  5
163B0
  8
0
 10
3513.994700157168154
 20
160.0648952704864882
 30
0.0
 11
3513.7811676423348217
 21
160.2475750125335878
 31
0.0
  0
LINE
  5
163B1
  8
0
 10
3513.7063488038779724
 20
160.3154572368624997
 30
0.0
 11
3513.6337560106549063
 21
160.3843423427003074
 31
0.0
  0
LINE
  5
163B2
  8
0
 10
3513.5517981470761697
 20
160.4621141965743902
 30
0.0
 11
3513.356694279356816
 21
160.647253106104813
 31
0.0
  0
ARC
  5
163B3
  8
0
 10
3513.8786279085029491
 20
160.1236036855297016
 30
0.0
 40
0.064451119024348
 50
30.3794092178346418
 51
65.5960102723766596
  0
ARC
  5
163B4
  8
0
 10
3513.961684411880924
 20
160.2158074956140865
 30
0.0
 40
0.0656280517942249
 50
210.7052252126158862
 51
245.2701942776093915
  0
ARC
  5
163B5
  8
0
 10
3515.0371785850379638
 20
161.1734978608920983
 30
0.0
 40
1.5526517504075541
 50
227.308363032804408
 51
230.5712476377096891
  0
ARC
  5
163B6
  8
0
 10
3514.2799522150048688
 20
159.7785656039083904
 30
0.0
 40
0.0833743402070088
 50
37.7757922760058307
 51
64.8153370720584405
  0
ARC
  5
163B7
  8
0
 10
3514.3793569172348725
 20
159.9026232723992109
 30
0.0
 40
0.0803077091202812
 50
217.2491365971989978
 51
245.3419927508782905
  0
ARC
  5
163B8
  8
0
 10
3514.5684701558711822
 20
159.3994097679479012
 30
0.0
 40
0.1474581967982094
 50
45.822050690336809
 51
61.0175667529697918
  0
ARC
  5
163B9
  8
0
 10
3514.7450388490678961
 20
159.6373315175650873
 30
0.0
 40
0.1513795411664953
 50
226.0199800228868128
 51
240.8196374204320023
  0
LINE
  5
163BA
  8
0
 10
3514.8082644168648585
 20
159.3747463203548875
 30
0.0
 11
3514.7336022500148829
 21
159.4284254704323018
 31
0.0
  0
ARC
  5
163BB
  8
0
 10
3514.7394436064369074
 20
159.436542030981002
 30
0.0
 40
0.0099999999999975
 50
165.4474477299062016
 51
234.2580494528070858
  0
LINE
  5
163BC
  8
0
 10
3514.8099721456528641
 20
159.4282239474079859
 30
0.0
 11
3514.7919737648339833
 21
159.4059888747746925
 31
0.0
  0
LINE
  5
163BD
  8
0
 10
3514.7021135343570677
 20
159.471138656757887
 30
0.0
 11
3514.717821628269121
 21
159.4953841936950028
 31
0.0
  0
ARC
  5
163BE
  8
0
 10
3514.7839561335858889
 20
159.4126585255093005
 30
0.0
 40
0.0104294191137834
 50
237.8337177335338026
 51
320.2440048683441205
  0
ARC
  5
163BF
  8
0
 10
3514.7109598563251893
 20
159.4655703178171109
 30
0.0
 40
0.0104529331261989
 50
147.8115367868169017
 51
231.9586254785756978
  0
LINE
  5
163C0
  8
0
 10
3514.7784037380911286
 20
159.4038299532959968
 30
0.0
 11
3514.7045184416410848
 21
159.4573379434449123
 31
0.0
  0
LINE
  5
163C1
  8
0
 10
3514.8099538811370621
 20
159.4282375780726113
 30
0.0
 11
3514.7133202597760828
 21
159.4986648218192045
 31
0.0
  0
ARC
  5
163C2
  8
0
 10
3514.8809816044008585
 20
159.5271333971438139
 30
0.0
 40
0.1253828465662153
 50
234.2286844619866883
 51
243.8231253580117084
  0
ARC
  5
163C3
  8
0
 10
3514.7250196584641344
 20
159.31441024467739
 30
0.0
 40
0.1420228291813617
 50
44.8716056724595376
 51
53.2709071956528035
  0
LINE
  5
163C4
  8
0
 10
3514.586916191939963
 20
159.6516461734383938
 30
0.0
 11
3514.5649555684090046
 21
159.6270693282114053
 31
0.0
  0
LINE
  5
163C5
  8
0
 10
3514.4973889680509274
 20
159.7244010943313981
 30
0.0
 11
3514.4784209452950563
 21
159.6965767077809062
 31
0.0
  0
ARC
  5
163C6
  8
0
 10
3514.1215306281978883
 20
159.1704350613345866
 30
0.0
 40
0.6694384642012043
 50
44.5697324987079213
 51
58.1649518242978871
  0
ARC
  5
163C7
  8
0
 10
3514.6056495174530028
 20
159.6749628729897097
 30
0.0
 40
0.0354725121586557
 50
230.749341309566006
 51
258.267590557509493
  0
ARC
  5
163C8
  8
0
 10
3514.5860323461861299
 20
159.8242678582035978
 30
0.0
 40
0.1401756456301691
 50
217.3786668252724894
 51
228.7554035970682946
  0
ARC
  5
163C9
  8
0
 10
3514.2386739708281311
 20
159.3094786377498053
 30
0.0
 40
0.4553279341178575
 50
44.2266757405833175
 51
58.2282333551059494
  0
ARC
  5
163CA
  8
0
 10
3514.556894941981227
 20
159.6348386720202939
 30
0.0
 40
0.0111953741174429
 50
234.7168158139843968
 51
316.0541637957700232
  0
ARC
  5
163CB
  8
0
 10
3514.4912487943552151
 20
159.6908146716253043
 30
0.0
 40
0.0140625307876807
 50
155.8112522212468036
 51
225.1343437714596973
  0
ARC
  5
163CC
  8
0
 10
3514.8474936071879711
 20
160.0687851872220051
 30
0.0
 40
0.5334533296843283
 50
226.6537752529098952
 51
236.1602374457582982
  0
ARC
  5
163CD
  8
0
 10
3514.4651023087481008
 20
159.5929205689110972
 30
0.0
 40
0.0833743402070088
 50
37.7757922760058307
 51
64.8153370720584405
  0
ARC
  5
163CE
  8
0
 10
3514.564507010979014
 20
159.7169782374018894
 30
0.0
 40
0.0803077091202812
 50
217.2491365971989978
 51
245.3419927508782905
  0
ARC
  5
163CF
  8
0
 10
3514.516863061739059
 20
159.8882294097570878
 30
0.0
 40
0.2260946284825964
 50
226.8550410908785011
 51
236.7505527926161903
  0
ARC
  5
163D0
  8
0
 10
3514.2378694811618516
 20
159.5336561946776897
 30
0.0
 40
0.2267636227915962
 50
46.8696741090811173
 51
56.7359197744066108
  0
LINE
  5
163D1
  8
0
 10
3514.082509853558804
 20
159.949258995393194
 30
0.0
 11
3514.1009832169770561
 21
159.9739687810725002
 31
0.0
  0
ARC
  5
163D2
  8
0
 10
3514.1216858630459683
 20
159.8007100837753001
 30
0.0
 40
0.119801091439456
 50
41.2051499679213507
 51
59.9398519198028268
  0
ARC
  5
163D3
  8
0
 10
3514.2729096756202125
 20
159.9846388298905993
 30
0.0
 40
0.1214852479268087
 50
221.3379482887683878
 51
239.8106432468125888
  0
ARC
  5
163D4
  8
0
 10
3513.9966101572731532
 20
160.0420715422087028
 30
0.0
 40
0.0156531838879993
 50
157.2795097285446957
 51
218.7316842361632894
  0
ARC
  5
163D5
  8
0
 10
3513.8793536612752177
 20
159.8442443695145982
 30
0.0
 40
0.215072076376647
 50
44.3177912731042412
 51
54.7217093232882519
  0
ARC
  5
163D6
  8
0
 10
3514.1571386799428183
 20
160.1697159533705985
 30
0.0
 40
0.2145990171357385
 50
224.3062924258269959
 51
234.7332081705600046
  0
LINE
  5
163D7
  8
0
 10
3514.1756491405421912
 20
160.0629939849810057
 30
0.0
 11
3514.1536885170121423
 21
160.0384171397539887
 31
0.0
  0
LINE
  5
163D8
  8
0
 10
3514.0861219166549745
 20
160.13574890587401
 30
0.0
 11
3514.0671538938981939
 21
160.1079245193234897
 31
0.0
  0
ARC
  5
163D9
  8
0
 10
3513.7102635768010259
 20
159.5817828728771133
 30
0.0
 40
0.6694384642012043
 50
44.5697324987079213
 51
58.1649518242978871
  0
ARC
  5
163DA
  8
0
 10
3514.1943824660561404
 20
160.0863106845322932
 30
0.0
 40
0.0354725121586557
 50
230.749341309566006
 51
258.267590557509493
  0
ARC
  5
163DB
  8
0
 10
3514.1747652947888128
 20
160.2356156697462097
 30
0.0
 40
0.1401756456301691
 50
217.3786668252724894
 51
228.7554035970682946
  0
ARC
  5
163DC
  8
0
 10
3513.827406919430814
 20
159.7208264492923036
 30
0.0
 40
0.4553279341178575
 50
44.2266757405833175
 51
58.2282333551059494
  0
ARC
  5
163DD
  8
0
 10
3514.1456278905839099
 20
160.0461864835629058
 30
0.0
 40
0.0111953741174429
 50
234.7168158139843968
 51
316.0541637957700232
  0
ARC
  5
163DE
  8
0
 10
3514.0799817429578979
 20
160.1021624831678878
 30
0.0
 40
0.0140625307876807
 50
155.8112522212468036
 51
225.1343437714596973
  0
ARC
  5
163DF
  8
0
 10
3514.4362265557911087
 20
160.4801329987645886
 30
0.0
 40
0.5334533296843283
 50
226.6537752529098952
 51
236.1602374457582982
  0
ARC
  5
163E0
  8
0
 10
3514.0538352573521479
 20
160.0042683804537091
 30
0.0
 40
0.0833743402070088
 50
37.7757922760058307
 51
64.8153370720584405
  0
ARC
  5
163E1
  8
0
 10
3514.1532399595830611
 20
160.1283260489445013
 30
0.0
 40
0.0803077091202812
 50
217.2491365971989978
 51
245.3419927508782905
  0
LINE
  5
163E2
  8
0
 10
3513.9228482473981785
 20
160.3162962556492062
 30
0.0
 11
3513.9008876238672201
 21
160.2917194104221892
 31
0.0
  0
LINE
  5
163E3
  8
0
 10
3513.8333210235091428
 20
160.3890511765422104
 30
0.0
 11
3513.814353000752817
 21
160.3612267899916901
 31
0.0
  0
ARC
  5
163E4
  8
0
 10
3513.4574626836561038
 20
159.835085143545399
 30
0.0
 40
0.6694384642012043
 50
44.5697324987079213
 51
58.1649518242978871
  0
ARC
  5
163E5
  8
0
 10
3513.941581572909854
 20
160.3396129552004936
 30
0.0
 40
0.0354725121586557
 50
230.749341309566006
 51
258.267590557509493
  0
ARC
  5
163E6
  8
0
 10
3513.9219644016438906
 20
160.4889179404142965
 30
0.0
 40
0.1401756456301691
 50
217.3786668252724894
 51
228.7554035970682946
  0
ARC
  5
163E7
  8
0
 10
3513.5746060262849824
 20
159.9741287199605893
 30
0.0
 40
0.4553279341178575
 50
44.2266757405833175
 51
58.2282333551059494
  0
ARC
  5
163E8
  8
0
 10
3513.8928269974398972
 20
160.2994887542311062
 30
0.0
 40
0.0111953741174429
 50
234.7168158139843968
 51
316.0541637957700232
  0
ARC
  5
163E9
  8
0
 10
3513.8271808498120663
 20
160.3554647538360882
 30
0.0
 40
0.0140625307876807
 50
155.8112522212468036
 51
225.1343437714596973
  0
ARC
  5
163EA
  8
0
 10
3514.1834256626461865
 20
160.733435269432789
 30
0.0
 40
0.5334533296843283
 50
226.6537752529098952
 51
236.1602374457582982
  0
ARC
  5
163EB
  8
0
 10
3513.8010343642058615
 20
160.2575706511219948
 30
0.0
 40
0.0833743402070088
 50
37.7757922760058307
 51
64.8153370720584405
  0
ARC
  5
163EC
  8
0
 10
3513.900439066438139
 20
160.3816283196127017
 30
0.0
 40
0.0803077091202812
 50
217.2491365971989978
 51
245.3419927508782905
  0
LINE
  5
163ED
  8
0
 10
3513.6512730952258607
 20
160.58199387478669
 30
0.0
 11
3513.6259972937968996
 21
160.5608414713944967
 31
0.0
  0
LINE
  5
163EE
  8
0
 10
3513.5731756964769374
 20
160.6669008747327041
 30
0.0
 11
3513.5503927998511244
 21
160.6421032539693101
 31
0.0
  0
ARC
  5
163EF
  8
0
 10
3513.1213469733988859
 20
160.172938667317311
 30
0.0
 40
0.6694384642012043
 50
36.2768350190892903
 51
49.8720543446781619
  0
ARC
  5
163F0
  8
0
 10
3513.6731735890439268
 20
160.6023647935990937
 30
0.0
 40
0.0354725121586557
 50
222.4564438299613869
 51
249.9746930778863998
  0
ARC
  5
163F1
  8
0
 10
3513.6752963272210764
 20
160.7529380515198056
 30
0.0
 40
0.1401756456301691
 50
209.085769345656189
 51
220.4625061174625955
  0
ARC
  5
163F2
  8
0
 10
3513.2573201739842261
 20
160.2936323605568134
 30
0.0
 40
0.4553279341178575
 50
35.9337782609636065
 51
49.9353358754976711
  0
ARC
  5
163F3
  8
0
 10
3513.6191415518178474
 20
160.5696921890803139
 30
0.0
 40
0.0111953741174429
 50
226.4239183343906063
 51
307.7612663161510795
  0
ARC
  5
163F4
  8
0
 10
3513.5622554379178837
 20
160.6345512615012012
 30
0.0
 40
0.0140625307876807
 50
147.5183547416316969
 51
216.8414462918574088
  0
ARC
  5
163F5
  8
0
 10
3513.9692912635800894
 20
160.9571871459878025
 30
0.0
 40
0.5334533296843283
 50
218.360877773295698
 51
227.8673399661489043
  0
ARC
  5
163F6
  8
0
 10
3513.5222627358498357
 20
160.5414519712940944
 30
0.0
 40
0.0833743402070088
 50
29.4828947964015491
 51
56.5224395924516401
  0
ARC
  5
163F7
  8
0
 10
3513.638521306513212
 20
160.6498749609422987
 30
0.0
 40
0.0803077091202812
 50
208.9562391175896039
 51
237.049095271270005
  0
LINE
  5
163F8
  8
0
 10
3513.6487032902591636
 20
160.4950121972102011
 30
0.0
 11
3513.6234274888288382
 21
160.4738597938180078
 31
0.0
  0
LINE
  5
163F9
  8
0
 10
3513.5706058915088761
 20
160.5799191971561868
 30
0.0
 11
3513.5478229948821536
 21
160.5551215763927928
 31
0.0
  0
ARC
  5
163FA
  8
0
 10
3513.1187771684321888
 20
160.0859569897407937
 30
0.0
 40
0.6694384642012043
 50
36.2768350190892903
 51
49.8720543446781619
  0
ARC
  5
163FB
  8
0
 10
3513.6706037840767749
 20
160.5153831160226048
 30
0.0
 40
0.0354725121586557
 50
222.4564438299613869
 51
249.9746930778863998
  0
ARC
  5
163FC
  8
0
 10
3513.6727265222539245
 20
160.6659563739432883
 30
0.0
 40
0.1401756456301691
 50
209.085769345656189
 51
220.4625061174625955
  0
ARC
  5
163FD
  8
0
 10
3513.2547503690170743
 20
160.2066506829802961
 30
0.0
 40
0.4553279341178575
 50
35.9337782609636065
 51
49.9353358754976711
  0
ARC
  5
163FE
  8
0
 10
3513.616571746849786
 20
160.4827105115037966
 30
0.0
 40
0.0111953741174429
 50
226.4239183343906063
 51
307.7612663161510795
  0
ARC
  5
163FF
  8
0
 10
3513.5596856329511866
 20
160.5475695839247123
 30
0.0
 40
0.0140625307876807
 50
147.5183547416316969
 51
216.8414462918574088
  0
ARC
  5
16400
  8
0
 10
3513.9667214586120281
 20
160.8702054684113136
 30
0.0
 40
0.5334533296843283
 50
218.360877773295698
 51
227.8673399661489043
  0
ARC
  5
16401
  8
0
 10
3513.5196929308831386
 20
160.4544702937176055
 30
0.0
 40
0.0833743402070088
 50
29.4828947964015491
 51
56.5224395924516401
  0
ARC
  5
16402
  8
0
 10
3513.6359515015451507
 20
160.5628932833658098
 30
0.0
 40
0.0803077091202812
 50
208.9562391175896039
 51
237.049095271270005
  0
ARC
  5
16403
  8
0
 10
3513.6609710262691806
 20
160.1920593369736991
 30
0.0
 40
0.1236712123030921
 50
38.542216598284412
 51
56.6858292444758405
  0
ARC
  5
16404
  8
0
 10
3513.8259968663801374
 20
160.3728356517480051
 30
0.0
 40
0.1241845801291117
 50
218.5679497345259961
 51
236.6357638940683898
  0
ARC
  5
16405
  8
0
 10
3513.6270468620459724
 20
160.915476697456711
 30
0.0
 40
0.3697318238321059
 50
224.7667101223248949
 51
230.8099119774888095
  0
ARC
  5
16406
  8
0
 10
3513.4698557299097956
 20
160.6780448458173964
 30
0.0
 40
0.0565729807391883
 50
223.717781226434397
 51
250.6683777286577879
  0
ARC
  5
16407
  8
0
 10
3513.3811241485859682
 20
160.5940805901327906
 30
0.0
 40
0.0763920474586799
 50
23.5979278195671682
 51
42.8298274352337813
  0
ARC
  5
16408
  8
0
 10
3510.2349384798221763
 20
157.7313471487213974
 30
0.0
 40
4.3300610102950667
 50
42.3086107861363132
 51
43.0736021528359885
  0
ARC
  5
16409
  8
0
 10
3513.4060228849511986
 20
160.6342213377205894
 30
0.0
 40
0.0114417820566882
 50
236.9182544327071867
 51
310.1355998696255938
  0
ARC
  5
1640A
  8
0
 10
3513.5410983018659863
 20
160.8415709821626081
 30
0.0
 40
0.2589074227121183
 50
235.2212232238140928
 51
236.9182544327071867
  0
ARC
  5
1640B
  8
0
 10
3513.3234895977398082
 20
160.6088665688440926
 30
0.0
 40
0.0677773770626961
 50
31.488444725761159
 51
48.0989884720342715
  0
ARC
  5
1640C
  8
0
 10
3513.4281902021871247
 20
160.7158265419517988
 30
0.0
 40
0.0855600125116639
 50
223.6160142500843051
 51
236.7565867184760009
  0
ARC
  5
1640D
  8
0
 10
3513.2316402147939698
 20
160.5098375113095983
 30
0.0
 40
0.215537933680585
 50
32.4742276666945315
 51
47.3242094845128776
  0
LINE
  5
1640E
  8
0
 10
3513.4134751379538102
 20
160.6255641788268065
 30
0.0
 11
3513.4371482471228774
 21
160.6460136749439869
 31
0.0
  0
ARC
  5
1640F
  8
0
 10
3513.4382762604659547
 20
160.2598949000193898
 30
0.0
 40
0.2022843615761198
 50
41.0673487773438808
 51
52.1307525213701979
  0
ARC
  5
16410
  8
0
 10
3513.7124297685768397
 20
160.5497944843538107
 30
0.0
 40
0.1986183272102578
 50
220.9649190225356961
 51
232.2331822761701972
  0
ARC
  5
16411
  8
0
 10
3514.4105142248658922
 20
159.6841860176197088
 30
0.0
 40
0.0099999999985095
 50
156.6524231355143968
 51
228.5594957098369946
  0
ENDSEC
  0
EOF
