  0
SECTION
  2
HEADER
  9
$ACADVER
  1
AC1009
  9
$INSBASE
 10
3512.3393869625338084
 20
167.9207806597381136
 30
0.0
  9
$EXTMIN
 10
3509.2414355397140753
 20
163.6092036262521106
 30
-0.0000000000112498
  9
$EXTMAX
 10
3515.3953666814709322
 20
168.5847000254391048
 30
0.0000000000002956
  9
$LIMMIN
 10
0.0
 20
0.0
  9
$LIMMAX
 10
11.6929133858000007
 20
8.2677165353999982
  9
$ORTHOMODE
 70
     0
  9
$REGENMODE
 70
     1
  9
$FILLMODE
 70
     1
  9
$QTEXTMODE
 70
     0
  9
$MIRRTEXT
 70
     0
  9
$DRAGMODE
 70
     2
  9
$LTSCALE
 40
0.6431102362
  9
$OSMODE
 70
  4095
  9
$ATTMODE
 70
     1
  9
$TEXTSIZE
 40
0.2
  9
$TRACEWID
 40
0.05
  9
$TEXTSTYLE
  7
STANDARD
  9
$CLAYER
  8
0
  9
$CELTYPE
  6
BYLAYER
  9
$CECOLOR
 62
   256
  9
$DIMSCALE
 40
1.0
  9
$DIMASZ
 40
0.1875
  9
$DIMEXO
 40
0.0625
  9
$DIMDLI
 40
0.4443307087
  9
$DIMRND
 40
0.0
  9
$DIMDLE
 40
0.0
  9
$DIMEXE
 40
0.125
  9
$DIMTP
 40
0.01
  9
$DIMTM
 40
0.01
  9
$DIMTXT
 40
2.0
  9
$DIMCEN
 40
0.1052362205
  9
$DIMTSZ
 40
0.0
  9
$DIMTOL
 70
     1
  9
$DIMLIM
 70
     0
  9
$DIMTIH
 70
     1
  9
$DIMTOH
 70
     1
  9
$DIMSE1
 70
     0
  9
$DIMSE2
 70
     0
  9
$DIMTAD
 70
     0
  9
$DIMZIN
 70
     0
  9
$DIMBLK
  1

  9
$DIMASO
 70
     1
  9
$DIMSHO
 70
     1
  9
$DIMPOST
  1
\X
  9
$DIMAPOST
  1

  9
$DIMALT
 70
     1
  9
$DIMALTD
 70
     2
  9
$DIMALTF
 40
25.3999999999999986
  9
$DIMLFAC
 40
1.0
  9
$DIMTOFL
 70
     0
  9
$DIMTVP
 40
0.0
  9
$DIMTIX
 70
     0
  9
$DIMSOXD
 70
     0
  9
$DIMSAH
 70
     0
  9
$DIMBLK1
  1

  9
$DIMBLK2
  1

  9
$DIMSTYLE
  2
STANDARD
  9
$DIMCLRD
 70
     0
  9
$DIMCLRE
 70
     0
  9
$DIMCLRT
 70
     0
  9
$DIMTFAC
 40
1.0
  9
$DIMGAP
 40
0.09
  9
$LUNITS
 70
     2
  9
$LUPREC
 70
     4
  9
$SKETCHINC
 40
0.1
  9
$FILLETRAD
 40
0.0
  9
$AUNITS
 70
     0
  9
$AUPREC
 70
     0
  9
$MENU
  1
.
  9
$ELEVATION
 40
0.0
  9
$PELEVATION
 40
0.0
  9
$THICKNESS
 40
0.0
  9
$LIMCHECK
 70
     0
  9
$BLIPMODE
 70
     0
  9
$CHAMFERA
 40
0.0
  9
$CHAMFERB
 40
0.0
  9
$SKPOLY
 70
     0
  9
$TDCREATE
 40
2458060.468368056230247
  9
$TDUPDATE
 40
2459595.0290162041783333
  9
$TDINDWG
 40
0.5953079861
  9
$TDUSRTIMER
 40
0.5953079861
  9
$USRTIMER
 70
     1
  9
$ANGBASE
 50
0.0
  9
$ANGDIR
 70
     0
  9
$PDMODE
 70
     0
  9
$PDSIZE
 40
0.3125
  9
$PLINEWID
 40
0.0
  9
$COORDS
 70
     1
  9
$SPLFRAME
 70
     0
  9
$SPLINETYPE
 70
     6
  9
$SPLINESEGS
 70
     8
  9
$ATTDIA
 70
     1
  9
$ATTREQ
 70
     1
  9
$HANDLING
 70
     1
  9
$HANDSEED
  5
1597D
  9
$SURFTAB1
 70
     6
  9
$SURFTAB2
 70
     6
  9
$SURFTYPE
 70
     6
  9
$SURFU
 70
     6
  9
$SURFV
 70
     6
  9
$UCSNAME
  2

  9
$UCSORG
 10
0.0
 20
0.0
 30
0.0
  9
$UCSXDIR
 10
1.0
 20
0.0
 30
0.0
  9
$UCSYDIR
 10
0.0
 20
1.0
 30
0.0
  9
$PUCSNAME
  2

  9
$PUCSORG
 10
0.0
 20
0.0
 30
0.0
  9
$PUCSXDIR
 10
1.0
 20
0.0
 30
0.0
  9
$PUCSYDIR
 10
0.0
 20
1.0
 30
0.0
  9
$USERI1
 70
     0
  9
$USERI2
 70
     0
  9
$USERI3
 70
     0
  9
$USERI4
 70
     0
  9
$USERI5
 70
     0
  9
$USERR1
 40
0.0
  9
$USERR2
 40
0.0
  9
$USERR3
 40
0.0
  9
$USERR4
 40
0.0
  9
$USERR5
 40
0.0
  9
$WORLDVIEW
 70
     1
  9
$SHADEDGE
 70
     3
  9
$SHADEDIF
 70
    70
  9
$TILEMODE
 70
     1
  9
$MAXACTVP
 70
    64
  9
$PLIMCHECK
 70
     0
  9
$PEXTMIN
 10
1.0000000000000000E+20
 20
1.0000000000000000E+20
 30
1.0000000000000000E+20
  9
$PEXTMAX
 10
-1.0000000000000000E+20
 20
-1.0000000000000000E+20
 30
-1.0000000000000000E+20
  9
$PLIMMIN
 10
0.0
 20
0.0
  9
$PLIMMAX
 10
12.0
 20
9.0
  9
$UNITMODE
 70
     0
  9
$VISRETAIN
 70
     1
  9
$PLINEGEN
 70
     0
  9
$PSLTSCALE
 70
     1
  0
ENDSEC
  0
SECTION
  2
TABLES
  0
TABLE
  2
VPORT
 70
     1
  0
VPORT
  2
*ACTIVE
 70
     0
 10
0.0
 20
0.0
 11
1.0
 21
1.0
 12
18.6388356809047693
 22
3.7236989571932781
 13
0.0
 23
0.0
 14
1.0
 24
1.0
 15
0.0
 25
0.0
 16
0.0
 26
0.0
 36
52.9446869140630767
 17
3493.6795654296870453
 27
162.3732528686522869
 37
0.0
 40
5.0149323019546861
 41
1.67063492063492
 42
50.0
 43
0.0
 44
0.0
 50
0.0
 51
0.0
 71
     0
 72
   100
 73
     1
 74
     1
 75
     0
 76
     0
 77
     0
 78
     0
  0
ENDTAB
  0
TABLE
  2
LTYPE
 70
     2
  0
LTYPE
  2
CONTINUOUS
 70
     0
  3
Solid line
 72
    65
 73
     0
 40
0.0
  0
LTYPE
  2
PHANTOM2
 70
     0
  3
___ _ _ ___ _ _ ___ _ _ ___ _ _
 72
    65
 73
     6
 40
1.25
 49
0.625
 49
-0.125
 49
0.125
 49
-0.125
 49
0.125
 49
-0.125
  0
ENDTAB
  0
TABLE
  2
LAYER
 70
     2
  0
LAYER
  2
0
 70
     0
 62
   255
  6
CONTINUOUS
  0
LAYER
  2
DEFPOINTS
 70
     0
 62
     7
  6
CONTINUOUS
  0
ENDTAB
  0
TABLE
  2
STYLE
 70
     1
  0
STYLE
  2
STANDARD
 70
     0
 40
0.0
 41
0.8
 50
0.0
 71
     0
 42
0.2
  3
txt
  4

  0
ENDTAB
  0
TABLE
  2
VIEW
 70
     0
  0
ENDTAB
  0
TABLE
  2
UCS
 70
     0
  0
ENDTAB
  0
TABLE
  2
APPID
 70
     9
  0
APPID
  2
ACAD
 70
     0
  0
APPID
  2
ACAD_MLEADERVER
 70
     0
  0
APPID
  2
ACAD_EXEMPT_FROM_CAD_STANDARDS
 70
     0
  0
APPID
  2
ACAD_NAV_VCDISPLAY
 70
     0
  0
APPID
  2
ACAECLAYERSTANDARD
 70
     0
  0
APPID
  2
ACCMTRANSPARENCY
 70
     0
  0
APPID
  2
ACAD_DSTYLE_DIMJAG
 70
     0
  0
APPID
  2
ACAD_DSTYLE_DIMTALN
 70
     0
  0
APPID
  2
ACDBATTR
 70
     0
  0
ENDTAB
  0
TABLE
  2
DIMSTYLE
 70
     1
  0
DIMSTYLE
  2
STANDARD
 70
     0
  3

  4

  5

  6

  7

 40
1.0
 41
0.1875
 42
0.0625
 43
0.38
 44
0.125
 45
0.0
 46
0.0
 47
0.01
 48
0.01
140
0.15625
141
0.09
142
0.0
143
25.3999999999999986
144
1.0
145
0.0
146
1.0
147
0.09
 71
     1
 72
     0
 73
     1
 74
     1
 75
     0
 76
     0
 77
     0
 78
     4
170
     0
171
     2
172
     0
173
     0
174
     0
175
     0
176
     0
177
     0
178
     0
  0
ENDTAB
  0
ENDSEC
  0
SECTION
  2
BLOCKS
  0
BLOCK
  8
0
  2
$MODEL_SPACE
 70
     0
 10
0.0
 20
0.0
 30
0.0
  3
$MODEL_SPACE
  1

  0
ENDBLK
  5
21
  8
0
  0
BLOCK
 67
     1
  8
0
  2
$PAPER_SPACE
 70
     0
 10
0.0
 20
0.0
 30
0.0
  3
$PAPER_SPACE
  1

  0
ENDBLK
  5
1D
 67
     1
  8
0
  0
ENDSEC
  0
SECTION
  2
ENTITIES
  0
ATTDEF
  5
12BEB
  8
DEFPOINTS
 10
3512.3339282883689521
 20
167.9184437927276861
 30
0.0
 40
0.001
  1
K-72773
  3

  2
MODELNUMBER
 70
     0
1001
ACDBATTR
1070
     0
1070
     1
  0
ATTDEF
  5
12BEC
  8
DEFPOINTS
 10
3512.3339282883689521
 20
167.9167771260609925
 30
0.0
 40
0.001
  1
ARTIFACTS
  3

  2
TRADENAME
 70
     0
1001
ACDBATTR
1070
     0
1070
     1
  0
ATTDEF
  5
12BED
  8
DEFPOINTS
 10
3512.3339282883689521
 20
167.9151104593944126
 30
0.0
 40
0.001
  1
SHOWERHEAD
  3

  2
PRODUCT
 70
     0
1001
ACDBATTR
1070
     0
1070
     1
  0
ARC
  5
1587E
  8
0
 10
3512.3350348861431485
 20
168.4896103422748013
 30
0.0
 40
0.5688463309108635
 50
241.4505823590606042
 51
259.3340805853940196
  0
ARC
  5
1587F
  8
0
 10
3512.1493052301648277
 20
168.2209654549440927
 30
0.0
 40
0.2379171457902181
 50
132.4979079928241958
 51
193.9849731315669885
  0
ARC
  5
15880
  8
0
 10
3512.2061010605088995
 20
168.2562618105914112
 30
0.0
 40
0.3022571277707835
 50
197.8785765820306892
 51
241.779473960518402
  0
ARC
  5
15881
  8
0
 10
3512.1539171143631393
 20
168.2339099582337099
 30
0.0
 40
0.3097518535578387
 50
182.0245717560821959
 51
237.9117191103894982
  0
ARC
  5
15882
  8
0
 10
3512.146331736682896
 20
168.2110763800963014
 30
0.0
 40
0.3022071339136082
 50
124.9922129583186035
 51
177.7450591749999944
  0
ARC
  5
15883
  8
0
 10
3512.1776187178897999
 20
168.1586882732738104
 30
0.0
 40
0.2609807247278668
 50
121.3854108278352015
 51
177.492648847297005
  0
ARC
  5
15884
  8
0
 10
3512.1812481209940415
 20
168.1394625292375906
 30
0.0
 40
0.2418428812322803
 50
130.1875907086964048
 51
186.785401019099794
  0
ARC
  5
15885
  8
0
 10
3512.1847689028190871
 20
168.1186406165253118
 30
0.0
 40
0.2051356076255828
 50
128.2809283338438888
 51
202.7247528840842108
  0
ARC
  5
15886
  8
0
 10
3512.2211857385609619
 20
168.0471218098905126
 30
0.0
 40
0.2428869677149463
 50
132.4531330511198064
 51
170.1835506626499921
  0
ARC
  5
15887
  8
0
 10
3512.2268669441878046
 20
167.9886175061367908
 30
0.0
 40
0.2504177902439408
 50
123.3742176428641955
 51
162.8932382442654045
  0
ARC
  5
15888
  8
0
 10
3512.2413101314159576
 20
167.9282227757088037
 30
0.0
 40
0.2647227450594857
 50
121.0829105775176942
 51
156.0391067168800134
  0
ARC
  5
15889
  8
0
 10
3512.3433892343459775
 20
167.7290241112021931
 30
0.0
 40
0.4357353399237562
 50
90.5262765823052149
 51
138.2240395028480862
  0
ARC
  5
1588A
  8
0
 10
3512.3318810276068689
 20
167.6691807889621089
 30
0.0
 40
0.4374581078424406
 50
89.0168688351991335
 51
130.8544502342246005
  0
ARC
  5
1588B
  8
0
 10
3512.3476471189151198
 20
167.7084721835034031
 30
0.0
 40
0.30540540833332
 50
91.5498435970839068
 51
128.1396622616773016
  0
ARC
  5
1588C
  8
0
 10
3512.3379588411098666
 20
167.6431007121393861
 30
0.0
 40
0.3071807420088803
 50
89.7336264414625759
 51
110.6255582270718065
  0
LINE
  5
1588D
  8
0
 10
3511.8843862122539576
 20
167.9736184176381073
 30
0.0
 11
3511.8844026357169241
 21
167.5376161093840039
 31
0.0
  0
ARC
  5
1588E
  8
0
 10
3512.6443798639897977
 20
168.2235062615075947
 30
0.0
 40
0.8000214279583573
 50
180.0386195267344078
 51
198.2009963760654045
  0
ARC
  5
1588F
  8
0
 10
3512.3409030939401418
 20
167.8199310356881995
 30
0.0
 40
0.5367442463329938
 50
211.7340123537811962
 51
269.8381559849207747
  0
ARC
  5
15890
  8
0
 10
3512.114546635150873
 20
167.4369377996034132
 30
0.0
 40
0.2964661790321848
 50
140.9232133329821863
 51
229.9680852575658889
  0
ARC
  5
15891
  8
0
 10
3512.3209167056370461
 20
167.6839323216944138
 30
0.0
 40
0.6183272498335485
 50
230.0473724316705955
 51
237.4009398922090099
  0
ARC
  5
15892
  8
0
 10
3512.1031507367210907
 20
167.3733089452904039
 30
0.0
 40
0.2735828500940551
 50
143.0888722127411086
 51
184.3632521498086021
  0
ARC
  5
15893
  8
0
 10
3512.1025616858041758
 20
167.3813709614283027
 30
0.0
 40
0.2629768507316075
 50
144.8709125348298983
 51
199.0650562977727134
  0
ARC
  5
15894
  8
0
 10
3512.1266747680060689
 20
167.3777509296315031
 30
0.0
 40
0.255735485649991
 50
149.8779474875408937
 51
237.1060855246215908
  0
ARC
  5
15895
  8
0
 10
3512.1329332132950185
 20
167.3436791980520866
 30
0.0
 40
0.264059820748293
 50
145.5520019264832001
 51
172.8242601647220056
  0
ARC
  5
15896
  8
0
 10
3512.340729800707777
 20
167.6229475582366035
 30
0.0
 40
0.392385146829652
 50
218.0214046689031875
 51
269.8039173795966121
  0
ARC
  5
15897
  8
0
 10
3512.5574545511458382
 20
166.7589178000216918
 30
0.0
 40
1.222517413053535
 50
123.4049816169321048
 51
136.812094159772812
  0
LINE
  5
15898
  8
0
 10
3511.6591130859528676
 20
167.5774321647380987
 30
0.0
 11
3511.6561049678039126
 21
167.4532097502381021
 31
0.0
  0
ARC
  5
15899
  8
0
 10
3511.5143924166368379
 20
167.4526214085636866
 30
0.0
 40
0.1417137724572323
 50
343.4841292626343261
 51
0.2378709641977246
  0
ARC
  5
1589A
  8
0
 10
3511.6152938675568294
 20
167.4250591329187898
 30
0.0
 40
0.0372086364225822
 50
294.9798635436009135
 51
340.0030424697304738
  0
ARC
  5
1589B
  8
0
 10
3511.9805854028668364
 20
167.1685616939450085
 30
0.0
 40
0.4145253155396537
 50
147.4926005772433939
 51
210.48964926419481
  0
LINE
  5
1589C
  8
0
 10
3511.6591130859528676
 20
167.5774321647380987
 30
0.0
 11
3511.6614997865390251
 21
167.1873698702073057
 31
0.0
  0
ARC
  5
1589D
  8
0
 10
3511.6870943128551517
 20
167.5770978575220909
 30
0.0
 40
0.0279832239067335
 50
138.6083773959684038
 51
179.3154881560874117
  0
ARC
  5
1589E
  8
0
 10
3512.0821382922490557
 20
167.1621503715751942
 30
0.0
 40
0.5020347150537008
 50
203.9644924166696001
 51
265.5066998982885025
  0
ARC
  5
1589F
  8
0
 10
3512.339388109761785
 20
167.2618017550719003
 30
0.0
 40
0.6694264095347277
 50
243.7022029034017976
 51
269.9999006179389198
  0
ARC
  5
158A0
  8
0
 10
3511.1263307454428286
 20
166.0077788373538112
 30
0.0
 40
1.295314983830971
 50
43.9513272651522016
 51
65.5966639210183757
  0
ARC
  5
158A1
  8
0
 10
3512.3393869487508709
 20
165.5541546574106064
 30
0.0
 40
1.3814158424517591
 50
90.0000000057581815
 51
101.7163903938743061
  0
LINE
  5
158A2
  8
0
 10
3511.6614997865390251
 20
167.1873698702073057
 30
0.0
 11
3511.6579624364471783
 21
167.0375758013263976
 31
0.0
  0
LINE
  5
158A3
  8
0
 10
3512.0588664118049564
 20
166.9067883691704992
 30
0.0
 11
3512.052721004857176
 21
166.7226169395071054
 31
0.0
  0
ARC
  5
158A4
  8
0
 10
3511.5192787993491947
 20
167.0508209076427875
 30
0.0
 40
0.1393146942721455
 50
318.3518543557315184
 51
354.5444618924757947
  0
ARC
  5
158A5
  8
0
 10
3511.8460555163119352
 20
166.7249408161580959
 30
0.0
 40
0.2066785536976255
 50
342.1704468178476759
 51
359.3557573945307126
  0
ARC
  5
158A6
  8
0
 10
3512.0438632804580266
 20
167.1076876482555917
 30
0.0
 40
0.4816653813842368
 50
172.7394044599869005
 51
236.8942207163474905
  0
ARC
  5
158A7
  8
0
 10
3512.3344735719488199
 20
167.5175031043517038
 30
0.0
 40
0.9838754966109517
 50
235.752858760708591
 51
248.007950549045205
  0
ARC
  5
158A8
  8
0
 10
3512.1068307857340187
 20
165.6048702448221093
 30
0.0
 40
2.5429416075681979
 50
95.812502571018257
 51
145.5117687140464966
  0
ARC
  5
158A9
  8
0
 10
3511.2454809054638645
 20
166.220130533445797
 30
0.0
 40
1.4847240019264121
 50
146.2602683108497956
 51
228.5951741682656859
  0
ARC
  5
158AA
  8
0
 10
3511.1068155542548084
 20
166.0706576536206001
 30
0.0
 40
1.466319822658636
 50
138.3690632389370023
 51
230.5596776277504034
  0
ARC
  5
158AB
  8
0
 10
3512.2923051174070679
 20
167.4682222725876954
 30
0.0
 40
3.113465893730762
 50
229.3364616359081083
 51
263.9847266307053815
  0
ARC
  5
158AC
  8
0
 10
3512.3207250571899749
 20
167.4657685696795113
 30
0.0
 40
3.3153062685534569
 50
229.6746519689652928
 51
263.8584030504911198
  0
ARC
  5
158AD
  8
0
 10
3511.153744919572091
 20
165.7678773893885875
 30
0.0
 40
1.816877312840165
 50
147.2101285558574091
 51
179.6116930849256903
  0
ARC
  5
158AE
  8
0
 10
3511.1856890021849722
 20
165.8323932448668927
 30
0.0
 40
1.849516524621357
 50
181.6173864018385018
 51
233.7440119572760011
  0
ARC
  5
158AF
  8
0
 10
3512.3607903514362079
 20
167.5562342012646013
 30
0.0
 40
3.9351966965588239
 50
234.7907404865140109
 51
264.2427313634358939
  0
ARC
  5
158B0
  8
0
 10
3511.5968091088789151
 20
165.4796049424332978
 30
0.0
 40
2.3454626318218632
 50
120.0530975460049063
 51
147.1516440505160972
  0
ARC
  5
158B1
  8
0
 10
3512.3066173715810692
 20
167.4817698958460994
 30
0.0
 40
3.7379324852663491
 50
235.3545143307972864
 51
264.7722177376463151
  0
ARC
  5
158B2
  8
0
 10
3511.1199181732181387
 20
165.8878175535687944
 30
0.0
 40
1.7533791018604861
 50
166.8535850509026091
 51
237.6465535149174002
  0
ARC
  5
158B3
  8
0
 10
3512.343739011082107
 20
168.4896103422748013
 30
0.0
 40
0.5688463309108635
 50
280.6659194146059804
 51
298.5494176409393958
  0
ARC
  5
158B4
  8
0
 10
3512.5294686670599731
 20
168.2209654549440927
 30
0.0
 40
0.2379171457902181
 50
346.0150268684329262
 51
47.5020920071757331
  0
ARC
  5
158B5
  8
0
 10
3512.4726728367159012
 20
168.2562618105914112
 30
0.0
 40
0.3022571277707835
 50
298.2205260394816264
 51
342.1214234179693108
  0
ARC
  5
158B6
  8
0
 10
3512.5248566944351296
 20
168.2339100434934949
 30
0.0
 40
0.3097519727669354
 50
302.0882863695337051
 51
357.9754132427904096
  0
ARC
  5
158B7
  8
0
 10
3512.5324420584038307
 20
168.2110762886622979
 30
0.0
 40
0.3022072673917791
 50
2.254957177030942
 51
55.0077811187809331
  0
ARC
  5
158B8
  8
0
 10
3512.5011551793350009
 20
168.1586882732738104
 30
0.0
 40
0.2609807247278668
 50
2.5073511527029888
 51
58.6145891721647416
  0
ARC
  5
158B9
  8
0
 10
3512.4975257762298497
 20
168.1394625292375906
 30
0.0
 40
0.2418428812322803
 50
353.2145989809001208
 51
49.812409291303517
  0
ARC
  5
158BA
  8
0
 10
3512.4940049944061684
 20
168.1186406165253118
 30
0.0
 40
0.2051356076255828
 50
337.2752471159142829
 51
51.7190716661561112
  0
ARC
  5
158BB
  8
0
 10
3512.4575881586638388
 20
168.0471218098905126
 30
0.0
 40
0.2428869677149463
 50
9.8164493373500274
 51
47.5468669488801368
  0
ARC
  5
158BC
  8
0
 10
3512.4519069530369961
 20
167.9886175061367908
 30
0.0
 40
0.2504177902439408
 50
17.1067617557346097
 51
56.6257823571357335
  0
ARC
  5
158BD
  8
0
 10
3512.4374637658088432
 20
167.9282227757088037
 30
0.0
 40
0.2647227450594857
 50
23.9608932831199901
 51
58.9170894224822987
  0
ARC
  5
158BE
  8
0
 10
3512.3353846628779138
 20
167.7290241112021931
 30
0.0
 40
0.4357353399237562
 50
41.7759604971519067
 51
89.4737234176947851
  0
ARC
  5
158BF
  8
0
 10
3512.3468928696179319
 20
167.6691807889621089
 30
0.0
 40
0.4374581078424406
 50
49.1455497657753568
 51
90.9831311648008523
  0
ARC
  5
158C0
  8
0
 10
3512.3311267783101357
 20
167.7084721835034031
 30
0.0
 40
0.30540540833332
 50
51.86033773832267
 51
88.4501564029160932
  0
ARC
  5
158C1
  8
0
 10
3512.3408150561149341
 20
167.6431007121393861
 30
0.0
 40
0.3071807420088803
 50
69.3744417729281651
 51
90.2663735585374241
  0
LINE
  5
158C2
  8
0
 10
3512.7943876849708431
 20
167.9736184176381073
 30
0.0
 11
3512.7943712615078766
 21
167.5376161093840039
 31
0.0
  0
ARC
  5
158C3
  8
0
 10
3512.0977453258469723
 20
168.2133366461640094
 30
0.0
 40
0.7367329269239117
 50
341.0113955875225997
 51
0.7489760355258319
  0
ARC
  5
158C4
  8
0
 10
3512.3378708032851137
 20
167.8199310356881995
 30
0.0
 40
0.5367442463329938
 50
270.1618440150791116
 51
328.2659876462187754
  0
ARC
  5
158C5
  8
0
 10
3512.5642272620739277
 20
167.4369377996034132
 30
0.0
 40
0.2964661790321848
 50
310.0319147424340258
 51
39.0767866670178208
  0
ARC
  5
158C6
  8
0
 10
3512.3578571915882094
 20
167.6839323216944138
 30
0.0
 40
0.6183272498335485
 50
302.5990601077900806
 51
309.9526275683293193
  0
ARC
  5
158C7
  8
0
 10
3512.5756231605028006
 20
167.3733089452904039
 30
0.0
 40
0.2735828500940551
 50
355.6367478501912842
 51
36.9111277872588417
  0
ARC
  5
158C8
  8
0
 10
3512.5762122114210797
 20
167.3813709614283027
 30
0.0
 40
0.2629768507316075
 50
340.9349437022257234
 51
35.1290874651700307
  0
ARC
  5
158C9
  8
0
 10
3512.5520991292178223
 20
167.3777509296315031
 30
0.0
 40
0.255735485649991
 50
302.8939144753783808
 51
30.1220525124590317
  0
ARC
  5
158CA
  8
0
 10
3512.5458406839288727
 20
167.3436791980520866
 30
0.0
 40
0.264059820748293
 50
7.1757398352779553
 51
34.4479980735167928
  0
ARC
  5
158CB
  8
0
 10
3512.3380440965161142
 20
167.6229475582366035
 30
0.0
 40
0.392385146829652
 50
270.1960826204035016
 51
321.9785953310969262
  0
ARC
  5
158CC
  8
0
 10
3512.1213193460780531
 20
166.7589178000216918
 30
0.0
 40
1.222517413053535
 50
43.1879058402271596
 51
56.5950183830679094
  0
LINE
  5
158CD
  8
0
 10
3513.0196608112710237
 20
167.5774321647380987
 30
0.0
 11
3513.0226689294208882
 21
167.4532097502381021
 31
0.0
  0
ARC
  5
158CE
  8
0
 10
3513.1643814805879629
 20
167.4526214085636866
 30
0.0
 40
0.1417137724572323
 50
179.7621290358023032
 51
196.5158707373655886
  0
ARC
  5
158CF
  8
0
 10
3513.0634800296679714
 20
167.4250591329187898
 30
0.0
 40
0.0372086364225822
 50
199.9969575302694977
 51
245.0201364563992001
  0
ARC
  5
158D0
  8
0
 10
3512.6981884943579644
 20
167.1685616939450085
 30
0.0
 40
0.4145253155396537
 50
329.5103507358052184
 51
32.5073994227565066
  0
LINE
  5
158D1
  8
0
 10
3513.0196608112710237
 20
167.5774321647380987
 30
0.0
 11
3513.0172741106857757
 21
167.1873698702073057
 31
0.0
  0
ARC
  5
158D2
  8
0
 10
3512.9916795843701038
 20
167.5770978575220909
 30
0.0
 40
0.0279832239067335
 50
0.6845118439125656
 51
41.3916226040315678
  0
ARC
  5
158D3
  8
0
 10
3512.5966356049761998
 20
167.1621503715751942
 30
0.0
 40
0.5020347150537008
 50
274.4933001017113838
 51
336.035507583328922
  0
ARC
  5
158D4
  8
0
 10
3512.3393857874630157
 20
167.2618017550719003
 30
0.0
 40
0.6694264095347277
 50
270.0000993820610802
 51
296.2977970965981172
  0
ARC
  5
158D5
  8
0
 10
3513.5524431517828816
 20
166.0077788373538112
 30
0.0
 40
1.295314983830971
 50
114.4033360789815958
 51
136.0486727348477984
  0
ARC
  5
158D6
  8
0
 10
3512.3393869484739298
 20
165.5541546574106064
 30
0.0
 40
1.3814158424517591
 50
78.2836096061257223
 51
89.9999999942418043
  0
LINE
  5
158D7
  8
0
 10
3513.0172741106857757
 20
167.1873698702073057
 30
0.0
 11
3513.0208114607780772
 21
167.0375758013263976
 31
0.0
  0
LINE
  5
158D8
  8
0
 10
3512.6199074854189348
 20
166.9067883691704992
 30
0.0
 11
3512.62605289236717
 21
166.7226169395071054
 31
0.0
  0
ARC
  5
158D9
  8
0
 10
3513.1594950978760608
 20
167.0508209076427875
 30
0.0
 40
0.1393146942721455
 50
185.4555381075242053
 51
221.6481456442685101
  0
ARC
  5
158DA
  8
0
 10
3512.8327183809128655
 20
166.7249408161580959
 30
0.0
 40
0.2066785536976255
 50
180.6442426054692021
 51
197.8295531821507041
  0
ARC
  5
158DB
  8
0
 10
3512.6349106167667742
 20
167.1076876482555917
 30
0.0
 40
0.4816653813842368
 50
303.1057792836523959
 51
7.2605955400130666
  0
ARC
  5
158DC
  8
0
 10
3512.3443003252759809
 20
167.5175031043517038
 30
0.0
 40
0.9838754966109517
 50
291.9920494509548803
 51
304.2471412392912953
  0
ARC
  5
158DD
  8
0
 10
3512.571943111490782
 20
165.6048702448221093
 30
0.0
 40
2.5429416075681979
 50
34.4882312859534608
 51
84.1696170433098558
  0
ARC
  5
158DE
  8
0
 10
3513.4332929917609363
 20
166.220130533445797
 30
0.0
 40
1.4847240019264121
 50
311.4048258317342857
 51
33.7397316891501973
  0
ARC
  5
158DF
  8
0
 10
3513.5719583429699924
 20
166.0706576536206001
 30
0.0
 40
1.466319822658636
 50
309.4403223722495113
 51
41.6309367610630332
  0
ARC
  5
158E0
  8
0
 10
3512.3864687798181876
 20
167.4682222725876954
 30
0.0
 40
3.113465893730762
 50
276.0152733692945048
 51
310.663538364091778
  0
ARC
  5
158E1
  8
0
 10
3512.3580488400339163
 20
167.4657685696795113
 30
0.0
 40
3.3153062685534569
 50
276.1415969495088802
 51
310.3253480310347072
  0
ARC
  5
158E2
  8
0
 10
3513.5250289776518002
 20
165.7678773893885875
 30
0.0
 40
1.816877312840165
 50
0.3883069150742697
 51
32.7898714441426122
  0
ARC
  5
158E3
  8
0
 10
3513.4930848950398286
 20
165.8323932448668927
 30
0.0
 40
1.849516524621357
 50
306.2559880427240842
 51
358.3826135981615266
  0
ARC
  5
158E4
  8
0
 10
3512.3179835457890476
 20
167.5562342012646013
 30
0.0
 40
3.9351966965588239
 50
275.7572686365642198
 51
305.2092595134860176
  0
ARC
  5
158E5
  8
0
 10
3513.0819647883467951
 20
165.4796049424332978
 30
0.0
 40
2.3454626318218632
 50
32.8483559494838531
 51
59.9469024539950865
  0
ARC
  5
158E6
  8
0
 10
3512.3721565256441863
 20
167.4817698958460994
 30
0.0
 40
3.7379324852663491
 50
275.2277822623536849
 51
304.6454856692026851
  0
ARC
  5
158E7
  8
0
 10
3513.5588557240062073
 20
165.8878175535687944
 30
0.0
 40
1.7533791018604861
 50
302.3534464850825998
 51
13.1464149490973696
  0
ARC
  5
158E8
  8
0
 10
3512.3393869486130825
 20
167.8901399243493131
 30
0.0
 40
0.8076702366618921
 50
244.1940784524898902
 51
295.8059215474233952
  0
ARC
  5
158E9
  8
0
 10
3512.3393869486130825
 20
167.1651763052526007
 30
0.0
 40
3.5440096805144909
 50
263.9528043615587194
 51
276.0471956384412806
  0
ARC
  5
158EA
  8
0
 10
3512.3393869486130825
 20
167.2836748415039949
 30
0.0
 40
3.5440096805144909
 50
263.9528043615587194
 51
276.0471956384412806
  0
ARC
  5
158EB
  8
0
 10
3512.3393869486130825
 20
167.6937792710479869
 30
0.0
 40
3.5440096805144909
 50
263.9528043615587194
 51
276.0471956384412806
  0
ARC
  5
158EC
  8
0
 10
3512.3393869486130825
 20
167.8961880173285124
 30
0.0
 40
3.5440096805144909
 50
263.9528043615587194
 51
276.0471956384412806
  0
ARC
  5
158ED
  8
0
 10
3512.3393869486130825
 20
167.5431312059862989
 30
0.0
 40
1.009491329711101
 50
248.2940811794935883
 51
291.7059188205063833
  0
ARC
  5
158EE
  8
0
 10
3512.3393869486130825
 20
168.4917216211169944
 30
0.0
 40
0.6270288547022957
 50
236.0674533065757998
 51
303.9325466934241717
  0
ARC
  5
158EF
  8
0
 10
3512.3393869486130825
 20
168.5382421298238
 30
0.0
 40
0.617461470085642
 50
259.7724366667839035
 51
280.2275633332162101
  0
ARC
  5
158F0
  8
0
 10
3512.3393869486130825
 20
167.939832988272002
 30
0.0
 40
0.635133636466126
 50
54.7725171079262481
 51
125.2274828920736951
  0
ARC
  5
158F1
  8
0
 10
3512.3393869486130825
 20
167.7002964212881011
 30
0.0
 40
0.5116681458719138
 50
62.6910582281889717
 51
117.308941771811007
  0
ARC
  5
158F2
  8
0
 10
3512.3393869486130825
 20
167.7583182230067109
 30
0.0
 40
0.5056973969669444
 50
60.3360032591056026
 51
119.6639967408944045
  0
ARC
  5
158F3
  8
0
 10
3512.3393869486130825
 20
167.8277232504046879
 30
0.0
 40
0.4883594384560047
 50
54.7079769582876523
 51
125.292023041712298
  0
ARC
  5
158F4
  8
0
 10
3512.3393869486130825
 20
167.8754265930537031
 30
0.0
 40
0.492715147705752
 50
55.1285985453232925
 51
124.8714014546767004
  0
ARC
  5
158F5
  8
0
 10
3512.3393869486130825
 20
167.9212939866345096
 30
0.0
 40
0.5109459869004408
 50
52.0528603788830182
 51
127.9471396211170031
  0
ARC
  5
158F6
  8
0
 10
3512.3393869486130825
 20
167.914105472427309
 30
0.0
 40
0.5541283969108545
 50
57.5058838036329405
 51
122.4941161963670027
  0
ARC
  5
158F7
  8
0
 10
3512.3393869486130825
 20
167.9738608051349047
 30
0.0
 40
0.5491738220032513
 50
50.2979328950805282
 51
129.7020671049193936
  0
ENDSEC
  0
EOF
