  0
SECTION
  2
HEADER
  9
$ACADVER
  1
AC1009
  9
$INSBASE
 10
3513.5154323982751521
 20
161.129750223256508
 30
0.0
  9
$EXTMIN
 10
3510.3954361185078596
 20
156.1707137820422986
 30
-0.0000000349181948
  9
$EXTMAX
 10
3516.5542084134981451
 20
161.1368650842017018
 30
0.0000000814935746
  9
$LIMMIN
 10
0.0
 20
0.0
  9
$LIMMAX
 10
11.6929133858000007
 20
8.2677165353999982
  9
$ORTHOMODE
 70
     0
  9
$REGENMODE
 70
     1
  9
$FILLMODE
 70
     1
  9
$QTEXTMODE
 70
     0
  9
$MIRRTEXT
 70
     0
  9
$DRAGMODE
 70
     2
  9
$LTSCALE
 40
0.6431102362
  9
$OSMODE
 70
  4095
  9
$ATTMODE
 70
     1
  9
$TEXTSIZE
 40
0.2
  9
$TRACEWID
 40
0.05
  9
$TEXTSTYLE
  7
STANDARD
  9
$CLAYER
  8
0
  9
$CELTYPE
  6
BYLAYER
  9
$CECOLOR
 62
   256
  9
$DIMSCALE
 40
1.0
  9
$DIMASZ
 40
0.1875
  9
$DIMEXO
 40
0.0625
  9
$DIMDLI
 40
0.4443307087
  9
$DIMRND
 40
0.0
  9
$DIMDLE
 40
0.0
  9
$DIMEXE
 40
0.125
  9
$DIMTP
 40
0.01
  9
$DIMTM
 40
0.01
  9
$DIMTXT
 40
2.0
  9
$DIMCEN
 40
0.1052362205
  9
$DIMTSZ
 40
0.0
  9
$DIMTOL
 70
     1
  9
$DIMLIM
 70
     0
  9
$DIMTIH
 70
     1
  9
$DIMTOH
 70
     1
  9
$DIMSE1
 70
     0
  9
$DIMSE2
 70
     0
  9
$DIMTAD
 70
     0
  9
$DIMZIN
 70
     0
  9
$DIMBLK
  1

  9
$DIMASO
 70
     1
  9
$DIMSHO
 70
     1
  9
$DIMPOST
  1
\X
  9
$DIMAPOST
  1

  9
$DIMALT
 70
     1
  9
$DIMALTD
 70
     2
  9
$DIMALTF
 40
25.3999999999999986
  9
$DIMLFAC
 40
1.0
  9
$DIMTOFL
 70
     0
  9
$DIMTVP
 40
0.0
  9
$DIMTIX
 70
     0
  9
$DIMSOXD
 70
     0
  9
$DIMSAH
 70
     0
  9
$DIMBLK1
  1

  9
$DIMBLK2
  1

  9
$DIMSTYLE
  2
STANDARD
  9
$DIMCLRD
 70
     0
  9
$DIMCLRE
 70
     0
  9
$DIMCLRT
 70
     0
  9
$DIMTFAC
 40
1.0
  9
$DIMGAP
 40
0.09
  9
$LUNITS
 70
     2
  9
$LUPREC
 70
     4
  9
$SKETCHINC
 40
0.1
  9
$FILLETRAD
 40
0.0
  9
$AUNITS
 70
     0
  9
$AUPREC
 70
     0
  9
$MENU
  1
.
  9
$ELEVATION
 40
0.0
  9
$PELEVATION
 40
0.0
  9
$THICKNESS
 40
0.0
  9
$LIMCHECK
 70
     0
  9
$BLIPMODE
 70
     0
  9
$CHAMFERA
 40
0.0
  9
$CHAMFERB
 40
0.0
  9
$SKPOLY
 70
     0
  9
$TDCREATE
 40
2458060.468368056230247
  9
$TDUPDATE
 40
2459595.0295254630036652
  9
$TDINDWG
 40
0.6025070602
  9
$TDUSRTIMER
 40
0.6025070602
  9
$USRTIMER
 70
     1
  9
$ANGBASE
 50
0.0
  9
$ANGDIR
 70
     0
  9
$PDMODE
 70
     0
  9
$PDSIZE
 40
0.3125
  9
$PLINEWID
 40
0.0
  9
$COORDS
 70
     1
  9
$SPLFRAME
 70
     0
  9
$SPLINETYPE
 70
     6
  9
$SPLINESEGS
 70
     8
  9
$ATTDIA
 70
     1
  9
$ATTREQ
 70
     1
  9
$HANDLING
 70
     1
  9
$HANDSEED
  5
16AF3
  9
$SURFTAB1
 70
     6
  9
$SURFTAB2
 70
     6
  9
$SURFTYPE
 70
     6
  9
$SURFU
 70
     6
  9
$SURFV
 70
     6
  9
$UCSNAME
  2

  9
$UCSORG
 10
0.0
 20
0.0
 30
0.0
  9
$UCSXDIR
 10
1.0
 20
0.0
 30
0.0
  9
$UCSYDIR
 10
0.0
 20
1.0
 30
0.0
  9
$PUCSNAME
  2

  9
$PUCSORG
 10
0.0
 20
0.0
 30
0.0
  9
$PUCSXDIR
 10
1.0
 20
0.0
 30
0.0
  9
$PUCSYDIR
 10
0.0
 20
1.0
 30
0.0
  9
$USERI1
 70
     0
  9
$USERI2
 70
     0
  9
$USERI3
 70
     0
  9
$USERI4
 70
     0
  9
$USERI5
 70
     0
  9
$USERR1
 40
0.0
  9
$USERR2
 40
0.0
  9
$USERR3
 40
0.0
  9
$USERR4
 40
0.0
  9
$USERR5
 40
0.0
  9
$WORLDVIEW
 70
     1
  9
$SHADEDGE
 70
     3
  9
$SHADEDIF
 70
    70
  9
$TILEMODE
 70
     1
  9
$MAXACTVP
 70
    64
  9
$PLIMCHECK
 70
     0
  9
$PEXTMIN
 10
1.0000000000000000E+20
 20
1.0000000000000000E+20
 30
1.0000000000000000E+20
  9
$PEXTMAX
 10
-1.0000000000000000E+20
 20
-1.0000000000000000E+20
 30
-1.0000000000000000E+20
  9
$PLIMMIN
 10
0.0
 20
0.0
  9
$PLIMMAX
 10
12.0
 20
9.0
  9
$UNITMODE
 70
     0
  9
$VISRETAIN
 70
     1
  9
$PLINEGEN
 70
     0
  9
$PSLTSCALE
 70
     1
  0
ENDSEC
  0
SECTION
  2
TABLES
  0
TABLE
  2
VPORT
 70
     1
  0
VPORT
  2
*ACTIVE
 70
     0
 10
0.0
 20
0.0
 11
1.0
 21
1.0
 12
16.5329277347527714
 22
-0.2811623491045338
 13
0.0
 23
0.0
 14
1.0
 24
1.0
 15
0.0
 25
0.0
 16
0.0
 26
0.0
 36
23.9171622400512689
 17
3496.94189453125
 27
158.9349517822265057
 37
0.0
 40
5.00551313546576
 41
1.67063492063492
 42
50.0
 43
0.0
 44
0.0
 50
0.0
 51
0.0
 71
     0
 72
   100
 73
     1
 74
     1
 75
     0
 76
     0
 77
     0
 78
     0
  0
ENDTAB
  0
TABLE
  2
LTYPE
 70
     2
  0
LTYPE
  2
CONTINUOUS
 70
     0
  3
Solid line
 72
    65
 73
     0
 40
0.0
  0
LTYPE
  2
PHANTOM2
 70
     0
  3
___ _ _ ___ _ _ ___ _ _ ___ _ _
 72
    65
 73
     6
 40
1.25
 49
0.625
 49
-0.125
 49
0.125
 49
-0.125
 49
0.125
 49
-0.125
  0
ENDTAB
  0
TABLE
  2
LAYER
 70
     2
  0
LAYER
  2
0
 70
     0
 62
   255
  6
CONTINUOUS
  0
LAYER
  2
DEFPOINTS
 70
     0
 62
     7
  6
CONTINUOUS
  0
ENDTAB
  0
TABLE
  2
STYLE
 70
     1
  0
STYLE
  2
STANDARD
 70
     0
 40
0.0
 41
0.8
 50
0.0
 71
     0
 42
0.2
  3
txt
  4

  0
ENDTAB
  0
TABLE
  2
VIEW
 70
     0
  0
ENDTAB
  0
TABLE
  2
UCS
 70
     0
  0
ENDTAB
  0
TABLE
  2
APPID
 70
     9
  0
APPID
  2
ACAD
 70
     0
  0
APPID
  2
ACAD_MLEADERVER
 70
     0
  0
APPID
  2
ACAD_EXEMPT_FROM_CAD_STANDARDS
 70
     0
  0
APPID
  2
ACAD_NAV_VCDISPLAY
 70
     0
  0
APPID
  2
ACAECLAYERSTANDARD
 70
     0
  0
APPID
  2
ACCMTRANSPARENCY
 70
     0
  0
APPID
  2
ACAD_DSTYLE_DIMJAG
 70
     0
  0
APPID
  2
ACAD_DSTYLE_DIMTALN
 70
     0
  0
APPID
  2
ACDBATTR
 70
     0
  0
ENDTAB
  0
TABLE
  2
DIMSTYLE
 70
     1
  0
DIMSTYLE
  2
STANDARD
 70
     0
  3

  4

  5

  6

  7

 40
1.0
 41
0.1875
 42
0.0625
 43
0.38
 44
0.125
 45
0.0
 46
0.0
 47
0.01
 48
0.01
140
0.15625
141
0.09
142
0.0
143
25.3999999999999986
144
1.0
145
0.0
146
1.0
147
0.09
 71
     1
 72
     0
 73
     1
 74
     1
 75
     0
 76
     0
 77
     0
 78
     4
170
     0
171
     2
172
     0
173
     0
174
     0
175
     0
176
     0
177
     0
178
     0
  0
ENDTAB
  0
ENDSEC
  0
SECTION
  2
BLOCKS
  0
BLOCK
  8
0
  2
$MODEL_SPACE
 70
     0
 10
0.0
 20
0.0
 30
0.0
  3
$MODEL_SPACE
  1

  0
ENDBLK
  5
21
  8
0
  0
BLOCK
 67
     1
  8
0
  2
$PAPER_SPACE
 70
     0
 10
0.0
 20
0.0
 30
0.0
  3
$PAPER_SPACE
  1

  0
ENDBLK
  5
1D
 67
     1
  8
0
  0
ENDSEC
  0
SECTION
  2
ENTITIES
  0
ATTDEF
  5
12BEB
  8
DEFPOINTS
 10
3513.5121209958870168
 20
161.1340748674570875
 30
0.0
 40
0.001
  1
K-72773
  3

  2
MODELNUMBER
 70
     0
1001
ACDBATTR
1070
     0
1070
     1
  0
ATTDEF
  5
12BEC
  8
DEFPOINTS
 10
3513.5121209958870168
 20
161.1324082007905076
 30
0.0
 40
0.001
  1
ARTIFACTS
  3

  2
TRADENAME
 70
     0
1001
ACDBATTR
1070
     0
1070
     1
  0
ATTDEF
  5
12BED
  8
DEFPOINTS
 10
3513.5121209958870168
 20
161.1307415341238141
 30
0.0
 40
0.001
  1
SHOWERHEAD
  3

  2
PRODUCT
 70
     0
1001
ACDBATTR
1070
     0
1070
     1
  0
ARC
  5
167B3
  8
0
 10
3513.3820150776959963
 20
160.7119187231392061
 30
0.0
 40
0.3781439599155825
 50
121.8000506585092069
 51
150.4353634144428895
  0
ARC
  5
167B4
  8
0
 10
3513.2792664235548727
 20
160.7725303645835027
 30
0.0
 40
0.2588750315696128
 50
150.8831706809718014
 51
180.5666792092877984
  0
LINE
  5
167B5
  8
0
 10
3513.0204040535081731
 20
160.7699700240530092
 30
0.0
 11
3513.0206501180218766
 21
160.6933676694218889
 31
0.0
  0
LINE
  5
167B6
  8
0
 10
3513.0590521679619087
 20
160.6992328348842989
 30
0.0
 11
3513.0588002217627945
 21
160.8067220114062081
 31
0.0
  0
ARC
  5
167B7
  8
0
 10
3513.1882019647091511
 20
160.6998992988675923
 30
0.0
 40
0.1677972079378179
 50
140.4599125306370979
 51
177.2149719463745896
  0
ARC
  5
167B8
  8
0
 10
3513.5096148864909082
 20
157.6205318268862072
 30
0.0
 40
3.1114958878288692
 50
96.7837192463711631
 51
128.3751389635795022
  0
ARC
  5
167B9
  8
0
 10
3513.4688473810401774
 20
156.9060677508448975
 30
0.0
 40
3.6771744440229059
 50
95.0820766727005378
 51
120.9452669908138063
  0
ARC
  5
167BA
  8
0
 10
3512.5955799190041944
 20
158.2407667026440095
 30
0.0
 40
2.084348662604671
 50
119.2231770351906022
 51
177.6698107133134954
  0
ARC
  5
167BB
  8
0
 10
3513.4154418561829516
 20
156.8623129318885105
 30
0.0
 40
3.6473456372664899
 50
96.1674370069164439
 51
120.4782897256937986
  0
ARC
  5
167BC
  8
0
 10
3512.7423805974099196
 20
157.9871120633112014
 30
0.0
 40
2.3366045245499811
 50
120.2441834249134018
 51
148.7793515913589886
  0
ARC
  5
167BD
  8
0
 10
3513.583221941813008
 20
156.3929417278033895
 30
0.0
 40
4.0630966037087441
 50
96.2330617057409654
 51
121.4925952837946994
  0
ARC
  5
167BE
  8
0
 10
3512.5526757943989651
 20
158.0840555697301966
 30
0.0
 40
2.0827307387218261
 50
121.6208902149901974
 51
163.0244861282266982
  0
ARC
  5
167BF
  8
0
 10
3512.3343027744531355
 20
158.3817701556448014
 30
0.0
 40
1.8222166204707531
 50
181.769178729991097
 51
233.6394729698625099
  0
ARC
  5
167C0
  8
0
 10
3513.4887353131898635
 20
159.92703877858429
 30
0.0
 40
3.7510713681171088
 50
233.4327649716466908
 51
264.6974338140435066
  0
ARC
  5
167C1
  8
0
 10
3513.5131550415449055
 20
156.649219189814886
 30
0.0
 40
3.715387792337062
 50
95.7319929939803558
 51
124.058972456950201
  0
ARC
  5
167C2
  8
0
 10
3512.5323771409548499
 20
158.1039957535784879
 30
0.0
 40
1.960881899027705
 50
124.1233969009630016
 51
159.4745166815000061
  0
ARC
  5
167C3
  8
0
 10
3512.247888989068997
 20
158.2995772228921112
 30
0.0
 40
1.6280170260834641
 50
162.4115431174319895
 51
234.8746501173299919
  0
ARC
  5
167C4
  8
0
 10
3513.4939716967960521
 20
159.8796433727314081
 30
0.0
 40
3.6389650466383241
 50
233.1416890600440013
 51
264.4507569666153017
  0
ARC
  5
167C5
  8
0
 10
3513.511412585151902
 20
156.8485858215981068
 30
0.0
 40
3.304853301152348
 50
96.4164820683379418
 51
126.6477008149548027
  0
ARC
  5
167C6
  8
0
 10
3512.425556457832954
 20
158.2798698686470118
 30
0.0
 40
1.5084588105685051
 50
126.0064780618504017
 51
238.3980838852349109
  0
ARC
  5
167C7
  8
0
 10
3513.5422290276001149
 20
159.844113083055305
 30
0.0
 40
3.428410759340593
 50
236.201672848808613
 51
263.2974009715356942
  0
ARC
  5
167C8
  8
0
 10
3513.5072744261160551
 20
156.9530207640135018
 30
0.0
 40
2.8171082525388611
 50
97.4484852139152338
 51
124.2243138663811948
  0
ARC
  5
167C9
  8
0
 10
3513.5078392815257757
 20
159.6429099108970036
 30
0.0
 40
3.0044948759150949
 50
252.5272633096236916
 51
263.0076064144708994
  0
ARC
  5
167CA
  8
0
 10
3512.7693682667882058
 20
158.0577031537050914
 30
0.0
 40
1.4887287214915419
 50
124.6545758206112993
 51
162.9383292750603971
  0
ARC
  5
167CB
  8
0
 10
3512.4833173672668636
 20
158.1994666832067935
 30
0.0
 40
1.1748071214515341
 50
165.4555372966395907
 51
219.230518268277109
  0
ARC
  5
167CC
  8
0
 10
3513.1918360997187847
 20
158.7917965371817104
 30
0.0
 40
2.0982728935402468
 50
219.5234134336670024
 51
253.7800147134992983
  0
ARC
  5
167CD
  8
0
 10
3513.5425908846050334
 20
156.7820257888519961
 30
0.0
 40
3.0378793257723342
 50
97.5758845144957974
 51
122.0655859971016071
  0
ARC
  5
167CE
  8
0
 10
3513.5131121324320702
 20
159.5700432944128124
 30
0.0
 40
3.0100962246564729
 50
238.3990100808219097
 51
262.9195565426770145
  0
ARC
  5
167CF
  8
0
 10
3512.6341200873998787
 20
158.1466733867306971
 30
0.0
 40
1.399859644081578
 50
120.2071338299553958
 51
176.0162944478744862
  0
ARC
  5
167D0
  8
0
 10
3512.6552566408618077
 20
158.2278866738568013
 30
0.0
 40
1.4177046525797239
 50
179.3517848765440874
 51
239.5048168860375029
  0
ARC
  5
167D1
  8
0
 10
3513.3425582097688675
 20
158.0601397329924112
 30
0.0
 40
0.2554009447552701
 50
117.6919430599743066
 51
191.682732365715907
  0
ARC
  5
167D2
  8
0
 10
3513.4214762422429885
 20
158.1136414018922949
 30
0.0
 40
0.3454422793352099
 50
197.7335158847891989
 51
249.4539896769422
  0
ARC
  5
167D3
  8
0
 10
3513.3385746206099611
 20
158.0561181339730865
 30
0.0
 40
0.2746924811090501
 50
122.5441044404134061
 51
192.3896813239223889
  0
ARC
  5
167D4
  8
0
 10
3513.4143302612969819
 20
158.1164021793547079
 30
0.0
 40
0.3641219711840215
 50
199.1124364059436118
 51
246.8482204513952922
  0
ARC
  5
167D5
  8
0
 10
3513.0127169070951823
 20
159.0591428337341995
 30
0.0
 40
0.0635795499398992
 50
38.7992010303379971
 51
132.6295914654305932
  0
ARC
  5
167D6
  8
0
 10
3513.013666599663793
 20
159.09264636834979
 30
0.0
 40
0.0613312430871379
 50
220.3187725682589928
 51
320.3278503494714755
  0
ARC
  5
167D7
  8
0
 10
3512.9976806751019467
 20
159.0779136108241971
 30
0.0
 40
0.0396199826435593
 50
135.0160453278436989
 51
219.0322446353052896
  0
ARC
  5
167D8
  8
0
 10
3513.0300434786090591
 20
159.0772029522833009
 30
0.0
 40
0.0388931891544295
 50
322.4379677858581204
 51
34.0525845333901174
  0
ARC
  5
167D9
  8
0
 10
3513.0132425337919813
 20
159.0684359774558914
 30
0.0
 40
0.0198995940836989
 50
10.20807155264988
 51
167.1897374691261859
  0
ARC
  5
167DA
  8
0
 10
3513.0134261959219657
 20
159.0765224369737894
 30
0.0
 40
0.0199295735563837
 50
190.6239456019173133
 51
346.7738634198504997
  0
LINE
  5
167DB
  8
0
 10
3512.9581141199669219
 20
159.0799704869660047
 30
0.0
 11
3512.9552125263480775
 21
159.1183106952811954
 31
0.0
  0
LINE
  5
167DC
  8
0
 10
3513.0689184295661107
 20
159.0760120070021912
 30
0.0
 11
3513.073475379888805
 21
159.1156096110485123
 31
0.0
  0
ARC
  5
167DD
  8
0
 10
3513.0134692845958853
 20
159.0786641258852114
 30
0.0
 40
0.0704677255653748
 50
31.6204217650694304
 51
145.7628000988244139
  0
ARC
  5
167DE
  8
0
 10
3511.6429972546711724
 20
158.2615085322024981
 30
0.0
 40
0.0635795499398992
 50
27.7692574005491188
 51
121.5996478356496056
  0
ARC
  5
167DF
  8
0
 10
3511.6503393665398107
 20
158.2942114700067009
 30
0.0
 40
0.0613312430871379
 50
209.2888289384787868
 51
309.2979067196932874
  0
ARC
  5
167E0
  8
0
 10
3511.6318300443158478
 20
158.2828093246288006
 30
0.0
 40
0.0396199826435593
 50
123.9861016980623987
 51
208.0023010055242025
  0
ARC
  5
167E1
  8
0
 10
3511.6634590558251148
 20
158.2759200781285074
 30
0.0
 40
0.0388931891544295
 50
311.4080241560733953
 51
23.0226409036124409
  0
ARC
  5
167E2
  8
0
 10
3511.6452911543187838
 20
158.2705294428031948
 30
0.0
 40
0.0198995940836989
 50
359.1781279228683275
 51
156.1597938393518064
  0
ARC
  5
167E3
  8
0
 10
3511.6470185411840248
 20
158.2784313852183971
 30
0.0
 40
0.0199295735563837
 50
179.594001972138301
 51
335.743919790073619
  0
LINE
  5
167E4
  8
0
 10
3511.5933879147278276
 20
158.2923981565377005
 30
0.0
 11
3511.5978752459482166
 21
158.3305852574711139
 31
0.0
  0
LINE
  5
167E5
  8
0
 10
3511.7013880286208405
 20
158.2673135001072922
 30
0.0
 11
3511.7134366920049615
 21
158.3053077859028122
 31
0.0
  0
ARC
  5
167E6
  8
0
 10
3511.6474705860618997
 20
158.2805252676062082
 30
0.0
 40
0.0704677255653748
 50
20.5904781352904109
 51
134.7328564690471069
  0
ARC
  5
167E7
  8
0
 10
3512.5697712431119726
 20
158.8833804152374114
 30
0.0
 40
0.0635795499398992
 50
40.100296078699273
 51
133.9306865138055116
  0
ARC
  5
167E8
  8
0
 10
3512.5699599448012123
 20
158.9168968759603047
 30
0.0
 40
0.0613312430871379
 50
221.6198676166229973
 51
321.6289453978445181
  0
ARC
  5
167E9
  8
0
 10
3512.5543126702891641
 20
158.9018049334495117
 30
0.0
 40
0.0396199826435593
 50
136.3171403762119951
 51
220.3333396836648035
  0
ARC
  5
167EA
  8
0
 10
3512.5866832663991772
 20
158.9018293022174078
 30
0.0
 40
0.0388931891544295
 50
323.7390628342187142
 51
35.3536795817500433
  0
ARC
  5
167EB
  8
0
 10
3512.5700857200708924
 20
158.8926830980707905
 30
0.0
 40
0.0198995940836989
 50
11.5091666010148508
 51
168.4908325174949084
  0
ARC
  5
167EC
  8
0
 10
3512.5700857201341023
 20
158.900771643014906
 30
0.0
 40
0.0199295735563837
 50
191.9250406502808062
 51
348.0749584682197906
  0
LINE
  5
167ED
  8
0
 10
3512.5147096120431343
 20
158.902962863634599
 30
0.0
 11
3512.5109381968541129
 21
158.9412273020421935
 31
0.0
  0
LINE
  5
167EE
  8
0
 10
3512.6255752365709668
 20
158.9015213757654976
 30
0.0
 11
3512.6292318913469899
 21
158.9412122427036138
 31
0.0
  0
ARC
  5
167EF
  8
0
 10
3512.5700801675661751
 20
158.9029137581370037
 30
0.0
 40
0.0704677255653748
 50
32.9215168134341312
 51
147.0638951471929943
  0
ARC
  5
167F0
  8
0
 10
3512.984610979511217
 20
158.6998965184214114
 30
0.0
 40
0.0635795499398992
 50
29.4626652469419916
 51
123.2930556820444963
  0
ARC
  5
167F1
  8
0
 10
3512.9909834724790016
 20
158.7328021422731865
 30
0.0
 40
0.0613312430871379
 50
210.9822367848663021
 51
310.991314566090125
  0
ARC
  5
167F2
  8
0
 10
3512.9728191814238016
 20
158.7208580031727934
 30
0.0
 40
0.0396199826435593
 50
125.6795095444639969
 51
209.6957088519122863
  0
ARC
  5
167F3
  8
0
 10
3513.0046379652671931
 20
158.7149064419375861
 30
0.0
 40
0.0388931891544295
 50
313.1014320024597168
 51
24.7160487499980412
  0
ARC
  5
167F4
  8
0
 10
3512.9866372982442044
 20
158.7089812768687977
 30
0.0
 40
0.0198995940836989
 50
0.8715357692580528
 51
157.8532016857367068
  0
ARC
  5
167F5
  8
0
 10
3512.9881304185059889
 20
158.716930814666398
 30
0.0
 40
0.0199295735563837
 50
181.2874098185264984
 51
337.4373276364647722
  0
LINE
  5
167F6
  8
0
 10
3512.9341104789218662
 20
158.7293066347322963
 30
0.0
 11
3512.9374673741999686
 21
158.7676096642894947
 31
0.0
  0
LINE
  5
167F7
  8
0
 10
3513.0428047082700687
 20
158.7074244708634865
 30
0.0
 11
3513.0537253313527799
 21
158.7457582162311098
 31
0.0
  0
ARC
  5
167F8
  8
0
 10
3512.9885203891421952
 20
158.7190371410727892
 30
0.0
 40
0.0704677255653748
 50
22.2838859816722703
 51
136.4262643154339969
  0
ARC
  5
167F9
  8
0
 10
3512.9490151007748864
 20
158.2556300901931934
 30
0.0
 40
0.0635795499398992
 50
32.5106452000763113
 51
126.3410356351788977
  0
ARC
  5
167FA
  8
0
 10
3512.9536289145908086
 20
158.288828003829309
 30
0.0
 40
0.0613312430871379
 50
214.030216738003304
 51
314.0392945192293723
  0
ARC
  5
167FB
  8
0
 10
3512.9361254156369796
 20
158.275934926122801
 30
0.0
 40
0.0396199826435593
 50
128.7274894975959967
 51
212.7436888050476966
  0
ARC
  5
167FC
  8
0
 10
3512.968215644888005
 20
158.2716836589002014
 30
0.0
 40
0.0388931891544295
 50
316.1494119556052738
 51
27.7640287031265593
  0
ARC
  5
167FD
  8
0
 10
3512.9505554964148359
 20
158.2648097407818
 30
0.0
 40
0.0198995940836989
 50
3.9195157223905071
 51
160.9011816388722025
  0
ARC
  5
167FE
  8
0
 10
3512.9516238100468399
 20
158.2728274253165068
 30
0.0
 40
0.0199295735563837
 50
184.3353897716606866
 51
340.4853075895931056
  0
LINE
  5
167FF
  8
0
 10
3512.8970222397751968
 20
158.2823133790876966
 30
0.0
 11
3512.8983377299659878
 21
158.3207407170743011
 31
0.0
  0
LINE
  5
16800
  8
0
 10
3513.0067262284651406
 20
158.266241681764086
 30
0.0
 11
3513.0155931132658225
 21
158.3051018721440926
 31
0.0
  0
ARC
  5
16801
  8
0
 10
3512.9519012310088328
 20
158.2749515076210969
 30
0.0
 40
0.0704677255653748
 50
25.3318659348146298
 51
139.4742442685738979
  0
ARC
  5
16802
  8
0
 10
3513.5135051126080725
 20
159.4479206098914972
 30
0.0
 40
0.0635795499398992
 50
40.100296078699273
 51
133.9306865138055116
  0
ARC
  5
16803
  8
0
 10
3513.513693814295948
 20
159.4814370706143904
 30
0.0
 40
0.0613312430871379
 50
221.6198676166229973
 51
321.6289453978445181
  0
ARC
  5
16804
  8
0
 10
3513.4980465397838998
 20
159.4663451281035975
 30
0.0
 40
0.0396199826435593
 50
136.3171403762119951
 51
220.3333396836648035
  0
ARC
  5
16805
  8
0
 10
3513.5304171358948224
 20
159.4663694968714083
 30
0.0
 40
0.0388931891544295
 50
323.7390628342187142
 51
35.3536795817500433
  0
ARC
  5
16806
  8
0
 10
3513.5138195895669924
 20
159.4572232927249047
 30
0.0
 40
0.0198995940836989
 50
11.5091666010148508
 51
168.4908325174949084
  0
ARC
  5
16807
  8
0
 10
3513.5138195896302022
 20
159.4653118376689918
 30
0.0
 40
0.0199295735563837
 50
191.9250406502808062
 51
348.0749584682197906
  0
LINE
  5
16808
  8
0
 10
3513.4584434815387795
 20
159.4675030582887132
 30
0.0
 11
3513.4546720663488486
 21
159.5057674966963077
 31
0.0
  0
LINE
  5
16809
  8
0
 10
3513.5693091060670668
 20
159.4660615704196118
 30
0.0
 11
3513.5729657608430898
 21
159.5057524373576996
 31
0.0
  0
ARC
  5
1680A
  8
0
 10
3513.5138140422450306
 20
159.4674946688436137
 30
0.0
 40
0.0704456007478399
 50
32.8937212301715718
 51
147.0916907304444976
  0
ARC
  5
1680B
  8
0
 10
3513.5135051126080725
 20
159.117720941291509
 30
0.0
 40
0.0635795499398992
 50
40.100296078699273
 51
133.9306865138055116
  0
ARC
  5
1680C
  8
0
 10
3513.513693814295948
 20
159.1512374020144023
 30
0.0
 40
0.0613312430871379
 50
221.6198676166229973
 51
321.6289453978445181
  0
ARC
  5
1680D
  8
0
 10
3513.4980465397838998
 20
159.1361454595036093
 30
0.0
 40
0.0396199826435593
 50
136.3171403762119951
 51
220.3333396836648035
  0
ARC
  5
1680E
  8
0
 10
3513.5304171358948224
 20
159.1361698282713917
 30
0.0
 40
0.0388931891544295
 50
323.7390628342187142
 51
35.3536795817500433
  0
ARC
  5
1680F
  8
0
 10
3513.5138195895669924
 20
159.1270236241248881
 30
0.0
 40
0.0198995940836989
 50
11.5091666010148508
 51
168.4908325174949084
  0
ARC
  5
16810
  8
0
 10
3513.5138195896302022
 20
159.1351121690690036
 30
0.0
 40
0.0199295735563837
 50
191.9250406502808062
 51
348.0749584682197906
  0
LINE
  5
16811
  8
0
 10
3513.4584434815387795
 20
159.1373033896886966
 30
0.0
 11
3513.4546720663488486
 21
159.1755678280962059
 31
0.0
  0
LINE
  5
16812
  8
0
 10
3513.5693091060670668
 20
159.1358619018195952
 30
0.0
 11
3513.5729657608430898
 21
159.1755527687577114
 31
0.0
  0
ARC
  5
16813
  8
0
 10
3513.5138140370618203
 20
159.1372542841909876
 30
0.0
 40
0.0704677255653748
 50
32.9215168134341312
 51
147.0638951471929943
  0
ARC
  5
16814
  8
0
 10
3513.5135051126080725
 20
158.7963632682914863
 30
0.0
 40
0.0635795499398992
 50
40.100296078699273
 51
133.9306865138055116
  0
ARC
  5
16815
  8
0
 10
3513.513693814295948
 20
158.829879729014408
 30
0.0
 40
0.0613312430871379
 50
221.6198676166229973
 51
321.6289453978445181
  0
ARC
  5
16816
  8
0
 10
3513.4980465397838998
 20
158.8147877865035866
 30
0.0
 40
0.0396199826435593
 50
136.3171403762119951
 51
220.3333396836648035
  0
ARC
  5
16817
  8
0
 10
3513.5304171358948224
 20
158.8148121552713974
 30
0.0
 40
0.0388931891544295
 50
323.7390628342187142
 51
35.3536795817500433
  0
ARC
  5
16818
  8
0
 10
3513.5138195895669924
 20
158.8056659511248938
 30
0.0
 40
0.0198995940836989
 50
11.5091666010148508
 51
168.4908325174949084
  0
ARC
  5
16819
  8
0
 10
3513.5138195896302022
 20
158.8137544960690093
 30
0.0
 40
0.0199295735563837
 50
191.9250406502808062
 51
348.0749584682197906
  0
LINE
  5
1681A
  8
0
 10
3513.4584434815387795
 20
158.8159457166887023
 30
0.0
 11
3513.4546720663488486
 21
158.8542101550962116
 31
0.0
  0
LINE
  5
1681B
  8
0
 10
3513.5693091060670668
 20
158.8145042288196009
 30
0.0
 11
3513.5729657608430898
 21
158.8541950957576887
 31
0.0
  0
ARC
  5
1681C
  8
0
 10
3513.5138140370618203
 20
158.8158966111909933
 30
0.0
 40
0.0704677255653748
 50
32.9215168134341312
 51
147.0638951471929943
  0
ARC
  5
1681D
  8
0
 10
3513.5135051126080725
 20
158.4842402258915115
 30
0.0
 40
0.0635795499398992
 50
40.100296078699273
 51
133.9306865138055116
  0
ARC
  5
1681E
  8
0
 10
3513.513693814295948
 20
158.5177566866144048
 30
0.0
 40
0.0613312430871379
 50
221.6198676166229973
 51
321.6289453978445181
  0
ARC
  5
1681F
  8
0
 10
3513.4980465397838998
 20
158.5026647441036118
 30
0.0
 40
0.0396199826435593
 50
136.3171403762119951
 51
220.3333396836648035
  0
ARC
  5
16820
  8
0
 10
3513.5304171358948224
 20
158.5026891128713942
 30
0.0
 40
0.0388931891544295
 50
323.7390628342187142
 51
35.3536795817500433
  0
ARC
  5
16821
  8
0
 10
3513.5154323983661016
 20
158.4935429087248906
 30
0.0
 40
0.0198995940836989
 50
11.5091666010148508
 51
168.4908325174949084
  0
ARC
  5
16822
  8
0
 10
3513.5154323984279472
 20
158.5016314536690061
 30
0.0
 40
0.0199295735563837
 50
191.9250406502808062
 51
348.0749584682197906
  0
LINE
  5
16823
  8
0
 10
3513.4584434815387795
 20
158.5038226742886991
 30
0.0
 11
3513.4546720663488486
 21
158.5420871126962084
 31
0.0
  0
LINE
  5
16824
  8
0
 10
3513.5693091060670668
 20
158.5023811864195977
 30
0.0
 11
3513.5729657608430898
 21
158.5420720533577139
 31
0.0
  0
ARC
  5
16825
  8
0
 10
3513.5138140370618203
 20
158.5037735687909901
 30
0.0
 40
0.0704677255653748
 50
32.9215168134341312
 51
147.0638951471929943
  0
ARC
  5
16826
  8
0
 10
3512.0614583869009948
 20
157.8963689995530899
 30
0.0
 40
0.0635795499398992
 50
25.1784614891706298
 51
119.0088519242870007
  0
ARC
  5
16827
  8
0
 10
3512.0702712489019177
 20
157.9287066279615885
 30
0.0
 40
0.0613312430871379
 50
206.6980330270953914
 51
306.7071108083122226
  0
ARC
  5
16828
  8
0
 10
3512.0512654404860768
 20
157.9181528052002932
 30
0.0
 40
0.0396199826435593
 50
121.3953057866946068
 51
205.4115050941398977
  0
ARC
  5
16829
  8
0
 10
3512.0825507109711907
 20
157.9098408898350954
 30
0.0
 40
0.0388931891544295
 50
308.817228244701198
 51
20.4318449922281893
  0
ARC
  5
1682A
  8
0
 10
3512.0641577096380388
 20
157.9052769993519973
 30
0.0
 40
0.0198995940836989
 50
356.5873320114869216
 51
153.5689979279609929
  0
ARC
  5
1682B
  8
0
 10
3512.0662405184848467
 20
157.9130927825258084
 30
0.0
 40
0.0199295735563837
 50
177.0032060607555877
 51
333.153123878692611
  0
LINE
  5
1682C
  8
0
 10
3512.0132960440300849
 20
157.9294695166236977
 30
0.0
 11
3512.019504941357809
 21
157.9674147457459981
 31
0.0
  0
LINE
  5
1682D
  8
0
 10
3512.1200518755031226
 20
157.8995286242584086
 30
0.0
 11
3512.1338056604067788
 21
157.9369394441276881
 31
0.0
  0
ARC
  5
1682E
  8
0
 10
3512.0667867500469583
 20
157.91516409107561
 30
0.0
 40
0.0704677255653748
 50
17.9996822239049301
 51
132.1420605576732896
  0
ARC
  5
1682F
  8
0
 10
3511.7222744447080913
 20
157.7110059473120032
 30
0.0
 40
0.0635795499398992
 50
21.6768966239708405
 51
115.5072870590693981
  0
ARC
  5
16830
  8
0
 10
3511.7330459007907848
 20
157.7427449529920125
 30
0.0
 40
0.0613312430871379
 50
203.196468161899702
 51
303.2055459431157942
  0
ARC
  5
16831
  8
0
 10
3511.7134309905618466
 20
157.7333716278039901
 30
0.0
 40
0.0396199826435593
 50
117.8937409214902061
 51
201.9099402289369038
  0
ARC
  5
16832
  8
0
 10
3511.7441501986500043
 20
157.7231644567559954
 30
0.0
 40
0.0388931891544295
 50
305.3156633794840786
 51
16.9302801270256182
  0
ARC
  5
16833
  8
0
 10
3511.7255127913817887
 20
157.7197324537422105
 30
0.0
 40
0.0198995940836989
 50
353.0857671462865142
 51
150.0674330627693109
  0
ARC
  5
16834
  8
0
 10
3511.7280690671118464
 20
157.7274064366523874
 30
0.0
 40
0.0199295735563837
 50
173.5016411955556066
 51
329.6515590134861213
  0
LINE
  5
16835
  8
0
 10
3511.6762236552171998
 20
157.7469862236937104
 30
0.0
 11
3511.6847384965940364
 21
157.7844814006570004
 31
0.0
  0
LINE
  5
16836
  8
0
 10
3511.7809515235321669
 20
157.7105810291836008
 30
0.0
 11
3511.7969645276921256
 21
157.7470819845167114
 31
0.0
  0
ARC
  5
16837
  8
0
 10
3511.7287407857579637
 20
157.7294405168100013
 30
0.0
 40
0.0704677255653748
 50
14.49811735870618
 51
128.6404956924704095
  0
ARC
  5
16838
  8
0
 10
3512.4115416149611519
 20
157.0481013261216106
 30
0.0
 40
0.0635795499398992
 50
40.100296078699273
 51
133.9306865138055116
  0
ARC
  5
16839
  8
0
 10
3512.4117303166490274
 20
157.0816177868445038
 30
0.0
 40
0.0613312430871379
 50
221.6198676166229973
 51
321.6289453978445181
  0
ARC
  5
1683A
  8
0
 10
3512.3960830421369792
 20
157.0665258443337109
 30
0.0
 40
0.0396199826435593
 50
136.3171403762119951
 51
220.3333396836648035
  0
ARC
  5
1683B
  8
0
 10
3512.4284536382488113
 20
157.0665502131014932
 30
0.0
 40
0.0388931891544295
 50
323.7390628342187142
 51
35.3536795817500433
  0
ARC
  5
1683C
  8
0
 10
3512.4118560919209813
 20
157.0574040089549896
 30
0.0
 40
0.0198995940836989
 50
11.5091666010148508
 51
168.4908325174949084
  0
ARC
  5
1683D
  8
0
 10
3512.4118560919828269
 20
157.0654925538991051
 30
0.0
 40
0.0199295735563837
 50
191.9250406502808062
 51
348.0749584682197906
  0
LINE
  5
1683E
  8
0
 10
3512.3564799838932231
 20
157.0676837745187981
 30
0.0
 11
3512.3527085687042018
 21
157.1059482129263927
 31
0.0
  0
LINE
  5
1683F
  8
0
 10
3512.4673456084210557
 20
157.0662422866496968
 30
0.0
 11
3512.4710022631970787
 21
157.105933153587813
 31
0.0
  0
ARC
  5
16840
  8
0
 10
3512.4118505394158092
 20
157.0676346690212029
 30
0.0
 40
0.0704677255653748
 50
32.9215168134341312
 51
147.0638951471929943
  0
ARC
  5
16841
  8
0
 10
3512.7485447747080798
 20
156.9107420761127969
 30
0.0
 40
0.0635795499398992
 50
40.100296078699273
 51
133.9306865138055116
  0
ARC
  5
16842
  8
0
 10
3512.7487334763959552
 20
156.9442585368356902
 30
0.0
 40
0.0613312430871379
 50
221.6198676166229973
 51
321.6289453978445181
  0
ARC
  5
16843
  8
0
 10
3512.7330862018839071
 20
156.9291665943248972
 30
0.0
 40
0.0396199826435593
 50
136.3171403762119951
 51
220.3333396836648035
  0
ARC
  5
16844
  8
0
 10
3512.7654567979939202
 20
156.929190963092708
 30
0.0
 40
0.0388931891544295
 50
323.7390628342187142
 51
35.3536795817500433
  0
ARC
  5
16845
  8
0
 10
3512.7488592516669996
 20
156.9200447589462044
 30
0.0
 40
0.0198995940836989
 50
11.5091666010148508
 51
168.4908325174949084
  0
ARC
  5
16846
  8
0
 10
3512.7488592517288453
 20
156.9281333038902915
 30
0.0
 40
0.0199295735563837
 50
191.9250406502808062
 51
348.0749584682197906
  0
LINE
  5
16847
  8
0
 10
3512.6934831436387867
 20
156.9303245245100129
 30
0.0
 11
3512.6897117284488559
 21
156.9685889629176074
 31
0.0
  0
LINE
  5
16848
  8
0
 10
3512.804348768167074
 20
156.9288830366409115
 30
0.0
 11
3512.8080054229430971
 21
156.9685739035789993
 31
0.0
  0
ARC
  5
16849
  8
0
 10
3512.7488536991618275
 20
156.9302754190123039
 30
0.0
 40
0.0704677255653748
 50
32.9215168134341312
 51
147.0638951471929943
  0
ARC
  5
1684A
  8
0
 10
3513.5135051007318907
 20
156.8026947536970113
 30
0.0
 40
0.0635795499398992
 50
40.100296078699273
 51
133.9306865138055116
  0
ARC
  5
1684B
  8
0
 10
3513.5136938024202209
 20
156.8362112144199045
 30
0.0
 40
0.0613312430871379
 50
221.6198676166229973
 51
321.6289453978445181
  0
ARC
  5
1684C
  8
0
 10
3513.4980465279090822
 20
156.8211192719091116
 30
0.0
 40
0.0396199826435593
 50
136.3171403762119951
 51
220.3333396836648035
  0
ARC
  5
1684D
  8
0
 10
3513.5304171240190954
 20
156.8211436406768939
 30
0.0
 40
0.0388931891544295
 50
323.7390628342187142
 51
35.3536795817500433
  0
ARC
  5
1684E
  8
0
 10
3513.5154323982128517
 20
156.8035257825978874
 30
0.0
 40
0.0198995940836989
 50
11.5091666010148508
 51
168.4908325174949084
  0
ARC
  5
1684F
  8
0
 10
3513.5154323982751521
 20
156.8116143275418892
 30
0.0
 40
0.0199295735563837
 50
191.9250406502808062
 51
348.0749584682197906
  0
LINE
  5
16850
  8
0
 10
3513.4584434696639619
 20
156.8222772020941989
 30
0.0
 11
3513.454672054474031
 21
156.8605416405017081
 31
0.0
  0
LINE
  5
16851
  8
0
 10
3513.5693090941908849
 20
156.8208357142250975
 30
0.0
 11
3513.5729657489678175
 21
156.8605265811632137
 31
0.0
  0
ARC
  5
16852
  8
0
 10
3513.5138140251870027
 20
156.8222280965964899
 30
0.0
 40
0.0704677255653748
 50
32.9215168134341312
 51
147.0638951471929943
  0
ARC
  5
16853
  8
0
 10
3512.9511080090251198
 20
157.7963926061420068
 30
0.0
 40
0.0635795499398992
 50
40.100296078699273
 51
133.9306865138055116
  0
ARC
  5
16854
  8
0
 10
3512.9512967107129953
 20
157.8299090668647864
 30
0.0
 40
0.0613312430871379
 50
221.6198676166229973
 51
321.6289453978445181
  0
ARC
  5
16855
  8
0
 10
3512.9356494362018566
 20
157.8148171243541071
 30
0.0
 40
0.0396199826435593
 50
136.3171403762119951
 51
220.3333396836648035
  0
ARC
  5
16856
  8
0
 10
3512.9680200323127792
 20
157.8148414931218895
 30
0.0
 40
0.0388931891544295
 50
323.7390628342187142
 51
35.3536795817500433
  0
ARC
  5
16857
  8
0
 10
3512.9514224859849492
 20
157.8056952889753859
 30
0.0
 40
0.0198995940836989
 50
11.5091666010148508
 51
168.4908325174949084
  0
ARC
  5
16858
  8
0
 10
3512.9514224860467948
 20
157.8137838339195014
 30
0.0
 40
0.0199295735563837
 50
191.9250406502808062
 51
348.0749584682197906
  0
LINE
  5
16859
  8
0
 10
3512.896046377957191
 20
157.8159750545391091
 30
0.0
 11
3512.8922749627681696
 21
157.8542394929467036
 31
0.0
  0
LINE
  5
1685A
  8
0
 10
3513.0069120024850235
 20
157.8145335666700078
 30
0.0
 11
3513.0105686572610466
 21
157.8542244336082092
 31
0.0
  0
ARC
  5
1685B
  8
0
 10
3512.9514169334797771
 20
157.8159259490415138
 30
0.0
 40
0.0704677255653748
 50
32.9215168134341312
 51
147.0638951471929943
  0
ARC
  5
1685C
  8
0
 10
3513.0137544041372166
 20
157.1033248517306902
 30
0.0
 40
0.0635795499398992
 50
40.100296078699273
 51
133.9306865138055116
  0
ARC
  5
1685D
  8
0
 10
3513.0139431058250921
 20
157.1368413124536119
 30
0.0
 40
0.0613312430871379
 50
221.6198676166229973
 51
321.6289453978445181
  0
ARC
  5
1685E
  8
0
 10
3512.9982958313130439
 20
157.1217493699429042
 30
0.0
 40
0.0396199826435593
 50
136.3171403762119951
 51
220.3333396836648035
  0
ARC
  5
1685F
  8
0
 10
3513.030666427423057
 20
157.1217737387106013
 30
0.0
 40
0.0388931891544295
 50
323.7390628342187142
 51
35.3536795817500433
  0
ARC
  5
16860
  8
0
 10
3513.0140688810961365
 20
157.1126275345642114
 30
0.0
 40
0.0198995940836989
 50
11.5091666010148508
 51
168.4908325174949084
  0
ARC
  5
16861
  8
0
 10
3513.0140688811579821
 20
157.1207160795082984
 30
0.0
 40
0.0199295735563837
 50
191.9250406502808062
 51
348.0749584682197906
  0
LINE
  5
16862
  8
0
 10
3512.9586927730679236
 20
157.1229073001279062
 30
0.0
 11
3512.9549213578789022
 21
157.1611717385355007
 31
0.0
  0
LINE
  5
16863
  8
0
 10
3513.0695583975962109
 20
157.1214658122588048
 30
0.0
 11
3513.0732150523717792
 21
157.1611566791970063
 31
0.0
  0
ARC
  5
16864
  8
0
 10
3513.0140633285900549
 20
157.1228581946303109
 30
0.0
 40
0.0704677255653748
 50
32.9215168134341312
 51
147.0638951471929943
  0
ARC
  5
16865
  8
0
 10
3512.5728504675398653
 20
157.2823522343554998
 30
0.0
 40
0.0635795499398992
 50
40.100296078699273
 51
133.9306865138055116
  0
ARC
  5
16866
  8
0
 10
3512.5730391692281955
 20
157.3158686950783078
 30
0.0
 40
0.0613312430871379
 50
221.6198676166229973
 51
321.6289453978445181
  0
ARC
  5
16867
  8
0
 10
3512.5573918947161474
 20
157.3007767525676002
 30
0.0
 40
0.0396199826435593
 50
136.3171403762119951
 51
220.3333396836648035
  0
ARC
  5
16868
  8
0
 10
3512.58976249082707
 20
157.3008011213354109
 30
0.0
 40
0.0388931891544295
 50
323.7390628342187142
 51
35.3536795817500433
  0
ARC
  5
16869
  8
0
 10
3512.5731649445001494
 20
157.2916549171889073
 30
0.0
 40
0.0198995940836989
 50
11.5091666010148508
 51
168.4908325174949084
  0
ARC
  5
1686A
  8
0
 10
3512.5731649445619951
 20
157.2997434621329944
 30
0.0
 40
0.0199295735563837
 50
191.9250406502808062
 51
348.0749584682197906
  0
LINE
  5
1686B
  8
0
 10
3512.517788836471027
 20
157.3019346827526022
 30
0.0
 11
3512.5140174212820057
 21
157.3401991211601967
 31
0.0
  0
LINE
  5
1686C
  8
0
 10
3512.6286544610002238
 20
157.3004931948835008
 30
0.0
 11
3512.6323111157748826
 21
157.3401840618217022
 31
0.0
  0
ARC
  5
1686D
  8
0
 10
3512.5731593919940678
 20
157.3018855772550069
 30
0.0
 40
0.0704677255653748
 50
32.9215168134341312
 51
147.0638951471929943
  0
ARC
  5
1686E
  8
0
 10
3512.9840055001741348
 20
157.3955440196035056
 30
0.0
 40
0.0635795499398992
 50
40.100296078699273
 51
133.9306865138055116
  0
ARC
  5
1686F
  8
0
 10
3512.9841942018620102
 20
157.4290604803263989
 30
0.0
 40
0.0613312430871379
 50
221.6198676166229973
 51
321.6289453978445181
  0
ARC
  5
16870
  8
0
 10
3512.9685469273499621
 20
157.4139685378156059
 30
0.0
 40
0.0396199826435593
 50
136.3171403762119951
 51
220.3333396836648035
  0
ARC
  5
16871
  8
0
 10
3513.0009175234608847
 20
157.4139929065833883
 30
0.0
 40
0.0388931891544295
 50
323.7390628342187142
 51
35.3536795817500433
  0
ARC
  5
16872
  8
0
 10
3512.9843199771339641
 20
157.4048467024369131
 30
0.0
 40
0.0198995940836989
 50
11.5091666010148508
 51
168.4908325174949084
  0
ARC
  5
16873
  8
0
 10
3512.9843199771958098
 20
157.4129352473810002
 30
0.0
 40
0.0199295735563837
 50
191.9250406502808062
 51
348.0749584682197906
  0
LINE
  5
16874
  8
0
 10
3512.928943869106206
 20
157.4151264680006932
 30
0.0
 11
3512.9251724539158204
 21
157.4533909064082877
 31
0.0
  0
LINE
  5
16875
  8
0
 10
3513.0398094936340385
 20
157.4136849801315918
 30
0.0
 11
3513.0434661484100616
 21
157.453375847069708
 31
0.0
  0
ARC
  5
16876
  8
0
 10
3512.984314424628792
 20
157.4150773625030126
 30
0.0
 40
0.0704677255653748
 50
32.9215168134341312
 51
147.0638951471929943
  0
ARC
  5
16877
  8
0
 10
3512.5925703188408988
 20
157.6754497319651875
 30
0.0
 40
0.0635795499398992
 50
27.1141235400178005
 51
120.9445139751091034
  0
ARC
  5
16878
  8
0
 10
3512.6002858759411538
 20
157.7080665823091863
 30
0.0
 40
0.0613312430871379
 50
208.6336950779351014
 51
308.6427728591598907
  0
ARC
  5
16879
  8
0
 10
3512.5816473916161158
 20
157.6968768177669915
 30
0.0
 40
0.0396199826435593
 50
123.3309678375320999
 51
207.3471671449804887
  0
ARC
  5
1687A
  8
0
 10
3512.6131955639280022
 20
157.6896263756983956
 30
0.0
 40
0.0388931891544295
 50
310.7528902955324952
 51
22.3675070430621403
  0
ARC
  5
1687B
  8
0
 10
3512.5949672135711808
 20
157.684443824432492
 30
0.0
 40
0.0198995940836989
 50
358.5229940623299854
 51
155.5046599788117021
  0
ARC
  5
1687C
  8
0
 10
3512.5967848382761076
 20
157.6923254993652108
 30
0.0
 40
0.0199295735563837
 50
178.9388681115983104
 51
335.0887859295335147
  0
LINE
  5
1687D
  8
0
 10
3512.5433174136442176
 20
157.7069045699211074
 30
0.0
 11
3512.5482410825998159
 21
157.7450378664372863
 31
0.0
  0
LINE
  5
1687E
  8
0
 10
3512.6510236497379083
 20
157.6805866806531071
 30
0.0
 11
3512.6635059519257993
 21
157.7184407184111024
 31
0.0
  0
ARC
  5
1687F
  8
0
 10
3512.5972607950429847
 20
157.6944140761970061
 30
0.0
 40
0.0704677255653748
 50
19.9353442747448
 51
134.077722608499613
  0
ARC
  5
16880
  8
0
 10
3512.8624693126921557
 20
158.0225000335958896
 30
0.0
 40
0.0635795499398992
 50
40.100296078699273
 51
133.9306865138055116
  0
ARC
  5
16881
  8
0
 10
3512.8626580143800311
 20
158.0560164943188113
 30
0.0
 40
0.0613312430871379
 50
221.6198676166229973
 51
321.6289453978445181
  0
ARC
  5
16882
  8
0
 10
3512.8470107398670734
 20
158.0409245518079899
 30
0.0
 40
0.0396199826435593
 50
136.3171403762119951
 51
220.3333396836648035
  0
ARC
  5
16883
  8
0
 10
3512.8793813359779961
 20
158.0409489205758007
 30
0.0
 40
0.0388931891544295
 50
323.7390628342187142
 51
35.3536795817500433
  0
ARC
  5
16884
  8
0
 10
3512.8627837896510755
 20
158.0318027164292971
 30
0.0
 40
0.0198995940836989
 50
11.5091666010148508
 51
168.4908325174949084
  0
ARC
  5
16885
  8
0
 10
3512.8627837897129211
 20
158.0398912613734126
 30
0.0
 40
0.0199295735563837
 50
191.9250406502808062
 51
348.0749584682197906
  0
LINE
  5
16886
  8
0
 10
3512.8074076816219531
 20
158.0420824819931056
 30
0.0
 11
3512.8036362664329317
 21
158.0803469204007001
 31
0.0
  0
LINE
  5
16887
  8
0
 10
3512.9182733061497856
 20
158.0406409941240042
 30
0.0
 11
3512.9219299609258087
 21
158.080331861062092
 31
0.0
  0
ARC
  5
16888
  8
0
 10
3512.8627782371449939
 20
158.0420333764955103
 30
0.0
 40
0.0704677255653748
 50
32.9215168134341312
 51
147.0638951471929943
  0
ARC
  5
16889
  8
0
 10
3512.4507074552948325
 20
158.040283241814393
 30
0.0
 40
0.0635795499398992
 50
40.100296078699273
 51
133.9306865138055116
  0
ARC
  5
1688A
  8
0
 10
3512.4508961569831627
 20
158.073799702537201
 30
0.0
 40
0.0613312430871379
 50
221.6198676166229973
 51
321.6289453978445181
  0
ARC
  5
1688B
  8
0
 10
3512.4352488824711145
 20
158.0587077600264934
 30
0.0
 40
0.0396199826435593
 50
136.3171403762119951
 51
220.3333396836648035
  0
ARC
  5
1688C
  8
0
 10
3512.4676194785811276
 20
158.0587321287943041
 30
0.0
 40
0.0388931891544295
 50
323.7390628342187142
 51
35.3536795817500433
  0
ARC
  5
1688D
  8
0
 10
3512.4510219322551166
 20
158.0495859246476869
 30
0.0
 40
0.0198995940836989
 50
11.5091666010148508
 51
168.4908325174949084
  0
ARC
  5
1688E
  8
0
 10
3512.4510219323160527
 20
158.0576744695918876
 30
0.0
 40
0.0199295735563837
 50
191.9250406502808062
 51
348.0749584682197906
  0
LINE
  5
1688F
  8
0
 10
3512.3956458242259941
 20
158.0598656902114953
 30
0.0
 11
3512.3918744090360633
 21
158.0981301286190899
 31
0.0
  0
LINE
  5
16890
  8
0
 10
3512.5065114487538267
 20
158.058424202342394
 30
0.0
 11
3512.5101681035298498
 21
158.0981150692805954
 31
0.0
  0
ARC
  5
16891
  8
0
 10
3512.451016379749035
 20
158.0598165847139001
 30
0.0
 40
0.0704677255653748
 50
32.9215168134341312
 51
147.0638951471929943
  0
ARC
  5
16892
  8
0
 10
3513.6488497188529436
 20
160.7119187231392061
 30
0.0
 40
0.3781439599155825
 50
29.5646365855570714
 51
58.1999493414907434
  0
ARC
  5
16893
  8
0
 10
3513.7515983729949767
 20
160.7725303645835027
 30
0.0
 40
0.2588750315696128
 50
359.4333207907121164
 51
29.1168293190281489
  0
LINE
  5
16894
  8
0
 10
3514.0104607430421311
 20
160.7699700240530092
 30
0.0
 11
3514.0102146785279729
 21
160.6933676694218889
 31
0.0
  0
LINE
  5
16895
  8
0
 10
3513.9718126285870312
 20
160.6992328348842989
 30
0.0
 11
3513.9720645747870549
 21
160.8067220114062081
 31
0.0
  0
ARC
  5
16896
  8
0
 10
3513.8426628318397889
 20
160.6998992988675923
 30
0.0
 40
0.1677972079378179
 50
2.7850280536253349
 51
39.5400874693628523
  0
ARC
  5
16897
  8
0
 10
3513.5212499100589412
 20
157.6205318268862072
 30
0.0
 40
3.1114958878288692
 50
51.624861036420441
 51
83.2162807536288369
  0
ARC
  5
16898
  8
0
 10
3514.4352848775461098
 20
158.2407667026440095
 30
0.0
 40
2.084348662604671
 50
2.3301892866864402
 51
60.776822964809341
  0
ARC
  5
16899
  8
0
 10
3513.4476428547368414
 20
156.3929417278033895
 30
0.0
 40
4.0630966037087441
 50
58.5074047162053077
 51
83.766938294259063
  0
ARC
  5
1689A
  8
0
 10
3514.4781890021508843
 20
158.0840555697301966
 30
0.0
 40
2.0827307387218261
 50
16.9755138717732983
 51
58.3791097850098097
  0
ARC
  5
1689B
  8
0
 10
3514.6965620220980782
 20
158.3817701556448014
 30
0.0
 40
1.8222166204707531
 50
306.3605270301374048
 51
358.2308212700087893
  0
ARC
  5
1689C
  8
0
 10
3513.5421294833599859
 20
159.92703877858429
 30
0.0
 40
3.7510713681171088
 50
275.3025661859564934
 51
306.5672350283534229
  0
ARC
  5
1689D
  8
0
 10
3513.5177097550049439
 20
156.649219189814886
 30
0.0
 40
3.715387792337062
 50
55.9410275430497279
 51
84.2680070060196442
  0
ARC
  5
1689E
  8
0
 10
3514.4984876555949995
 20
158.1039957535784879
 30
0.0
 40
1.960881899027705
 50
20.5254833185000507
 51
55.8766030990369487
  0
ARC
  5
1689F
  8
0
 10
3514.7829758074808524
 20
158.2995772228921112
 30
0.0
 40
1.6280170260834641
 50
305.1253498826699229
 51
17.5884568825679501
  0
ARC
  5
168A0
  8
0
 10
3513.5368930997528878
 20
159.8796433727314081
 30
0.0
 40
3.6389650466383241
 50
275.5492430333846983
 51
306.8583109399560271
  0
ARC
  5
168A1
  8
0
 10
3513.5194522113979474
 20
156.8485858215981068
 30
0.0
 40
3.304853301152348
 50
53.3522991850451334
 51
83.5835179316620724
  0
ARC
  5
168A2
  8
0
 10
3514.6053083387168954
 20
158.2798698686470118
 30
0.0
 40
1.5084588105685051
 50
301.6019161147651175
 51
53.9935219381495486
  0
ARC
  5
168A3
  8
0
 10
3513.4886357689501892
 20
159.844113083055305
 30
0.0
 40
3.428410759340593
 50
276.7025990284643058
 51
303.7983271511914154
  0
ARC
  5
168A4
  8
0
 10
3513.5235903704337943
 20
156.9530207640135018
 30
0.0
 40
2.8171082525388611
 50
55.7756861336187981
 51
82.5515147860847947
  0
ARC
  5
168A5
  8
0
 10
3513.5230255150240737
 20
159.6429099108970036
 30
0.0
 40
3.0044948759150949
 50
276.9923935855291006
 51
287.4727366903762231
  0
ARC
  5
168A6
  8
0
 10
3514.2614965297620984
 20
158.0577031537050914
 30
0.0
 40
1.4887287214915419
 50
17.0616707249396384
 51
55.3454241793887221
  0
ARC
  5
168A7
  8
0
 10
3514.5475474292829858
 20
158.1994666832067935
 30
0.0
 40
1.1748071214515341
 50
320.7694817317229194
 51
14.5444627033603702
  0
ARC
  5
168A8
  8
0
 10
3513.8390286968310647
 20
158.7917965371817104
 30
0.0
 40
2.0982728935402468
 50
286.2199852864737863
 51
320.4765865663329123
  0
ARC
  5
168A9
  8
0
 10
3513.4882739119448161
 20
156.7820257888519961
 30
0.0
 40
3.0378793257723342
 50
57.9344140028983929
 51
82.4241154855041884
  0
ARC
  5
168AA
  8
0
 10
3513.5177526641168697
 20
159.5700432944128124
 30
0.0
 40
3.0100962246564729
 50
277.0804434573229855
 51
301.600989919178005
  0
ARC
  5
168AB
  8
0
 10
3514.3967447091490612
 20
158.1466733867306971
 30
0.0
 40
1.399859644081578
 50
3.9837055521254578
 51
59.7928661700445687
  0
ARC
  5
168AC
  8
0
 10
3514.3756081556880417
 20
158.2278866738568013
 30
0.0
 40
1.4177046525797239
 50
300.4951831139625256
 51
0.6482151234558735
  0
ARC
  5
168AD
  8
0
 10
3513.6883065867809819
 20
158.0601397329924112
 30
0.0
 40
0.2554009447552701
 50
348.3172676342841214
 51
62.3080569400256508
  0
ARC
  5
168AE
  8
0
 10
3513.6093885543059514
 20
158.1136414018922949
 30
0.0
 40
0.3454422793352099
 50
290.5460103230578284
 51
342.2664841152109148
  0
ARC
  5
168AF
  8
0
 10
3513.6922901759398883
 20
158.0561181339730865
 30
0.0
 40
0.2746924811090501
 50
347.6103186760760195
 51
57.4558955595866223
  0
ARC
  5
168B0
  8
0
 10
3513.6165345352528675
 20
158.1164021793547079
 30
0.0
 40
0.3641219711840215
 50
293.151779548604793
 51
340.8875635940564166
  0
ARC
  5
168B1
  8
0
 10
3513.5154323982751521
 20
160.5516636162485895
 30
0.0
 40
4.3756012004389024
 50
265.1052221776263877
 51
274.8947778223734986
  0
ARC
  5
168B2
  8
0
 10
3513.5154323982751521
 20
160.3512148479410087
 30
0.0
 40
4.1104732393284227
 50
264.7886592927633274
 51
275.2113407072366726
  0
ARC
  5
168B3
  8
0
 10
3513.5154323982751521
 20
161.0937807211192876
 30
0.0
 40
4.669595901843997
 50
265.4140762961907853
 51
274.5859237038092147
  0
ARC
  5
168B4
  8
0
 10
3513.5154323982751521
 20
159.9884145420087975
 30
0.0
 40
3.4259172691338899
 50
263.7435372722899842
 51
276.2564627277100158
  0
ARC
  5
168B5
  8
0
 10
3513.5154323982751521
 20
159.7698305485133119
 30
0.0
 40
3.1314058877756299
 50
263.1524169061303837
 51
276.8475830938696163
  0
ARC
  5
168B6
  8
0
 10
3513.5154323982751521
 20
158.3576685759151985
 30
0.0
 40
0.6257113809573269
 50
247.0220412494255129
 51
292.9779587505744871
  0
ARC
  5
168B7
  8
0
 10
3513.5154323982751521
 20
158.3580234061890906
 30
0.0
 40
0.6072581328747689
 50
249.2453311911918092
 51
290.7546688088082192
  0
ARC
  5
168B8
  8
0
 10
3513.5154323982751521
 20
157.7769230725631076
 30
0.0
 40
0.5869077160832382
 50
60.2128652787528083
 51
119.7871347212471989
  0
ARC
  5
168B9
  8
0
 10
3513.5154323982751521
 20
157.7793675376398994
 30
0.0
 40
0.6031274763448903
 50
57.4359905525148235
 51
122.5640094474852049
  0
ARC
  5
168BA
  8
0
 10
3513.5154323982751521
 20
157.1005459127534891
 30
0.0
 40
2.6720240875846129
 50
81.9679696762316041
 51
98.0320303237684243
  0
ARC
  5
168BB
  8
0
 10
3513.5154323982751521
 20
156.2085081776124866
 30
0.0
 40
3.604268938682448
 50
84.054274184299075
 51
95.9457258157009392
  0
ARC
  5
168BC
  8
0
 10
3513.5154323982751521
 20
156.8271757197591114
 30
0.0
 40
3.3265789052270849
 50
83.5559265190703115
 51
96.4440734809297027
  0
ARC
  5
168BD
  8
0
 10
3513.5154323982751521
 20
156.3594320141743879
 30
0.0
 40
4.0040423377590546
 50
84.6497386043238151
 51
95.3502613956761849
  0
ARC
  5
168BE
  8
0
 10
3513.5154323982751521
 20
156.5037437347957052
 30
0.0
 40
3.9459778278506641
 50
84.5707755061923052
 51
95.4292244938076948
  0
ARC
  5
168BF
  8
0
 10
3513.5154323982751521
 20
156.305798587683114
 30
0.0
 40
4.2115677892492469
 50
83.2935076528066105
 51
96.7064923471934037
  0
ARC
  5
168C0
  8
0
 10
3513.5154323982751521
 20
156.5331797641605931
 30
0.0
 40
4.0527452250908418
 50
84.7288978667848767
 51
95.2711021332151518
  0
ARC
  5
168C1
  8
0
 10
3513.5154323982751521
 20
156.9173956446092859
 30
0.0
 40
3.8111802373494221
 50
84.3781413772500457
 51
95.6218586227499685
  0
ARC
  5
168C2
  8
0
 10
3513.5154323982751521
 20
160.5077671415766929
 30
0.0
 40
0.6219830816798039
 50
57.6646138828521799
 51
122.3353861171478059
  0
ARC
  5
168C3
  8
0
 10
3513.5620174155101267
 20
156.9060677508448975
 30
0.0
 40
3.6771744440229059
 50
59.0547330091861866
 51
84.9179233272994622
  0
ARC
  5
168C4
  8
0
 10
3513.6154229403668978
 20
156.8623129318885105
 30
0.0
 40
3.6473456372664899
 50
59.5217102743062085
 51
83.8325629930835703
  0
ARC
  5
168C5
  8
0
 10
3514.2884841991399298
 20
157.9871120633112014
 30
0.0
 40
2.3366045245499811
 50
31.2206484086409795
 51
59.7558165750865982
  0
ARC
  5
168C6
  8
0
 10
3511.8878588173879507
 20
157.462796743492504
 30
0.0
 40
0.0635795499398992
 50
21.6768966239708405
 51
115.5072870590693981
  0
ARC
  5
168C7
  8
0
 10
3511.8986302734710989
 20
157.4945357491725133
 30
0.0
 40
0.0613312430871379
 50
203.196468161899702
 51
303.2055459431157942
  0
ARC
  5
168C8
  8
0
 10
3511.8790153632407964
 20
157.4851624239844057
 30
0.0
 40
0.0396199826435593
 50
117.8937409214902061
 51
201.9099402289369038
  0
ARC
  5
168C9
  8
0
 10
3511.9097345713289542
 20
157.4749552529364109
 30
0.0
 40
0.0388931891544295
 50
305.3156633794840786
 51
16.9302801270256182
  0
ARC
  5
168CA
  8
0
 10
3511.8910971640611933
 20
157.4715232499225976
 30
0.0
 40
0.0198995940836989
 50
353.0857671462865142
 51
150.0674330627693109
  0
ARC
  5
168CB
  8
0
 10
3511.8936534397907963
 20
157.4791972328328029
 30
0.0
 40
0.0199295735563837
 50
173.5016411955556066
 51
329.6515590134861213
  0
LINE
  5
168CC
  8
0
 10
3511.8418080278970592
 20
157.4987770198742112
 30
0.0
 11
3511.8503228692738958
 21
157.5362721968375013
 31
0.0
  0
LINE
  5
168CD
  8
0
 10
3511.9465358962129358
 20
157.4623718253639879
 30
0.0
 11
3511.9625489003728944
 21
157.4988727806972122
 31
0.0
  0
ARC
  5
168CE
  8
0
 10
3511.8943251584378231
 20
157.4812313129903885
 30
0.0
 40
0.0704677255653748
 50
14.49811735870618
 51
128.6404956924704095
  0
ARC
  5
168CF
  8
0
 10
3512.118494125711095
 20
157.2323167201207923
 30
0.0
 40
0.0635795499398992
 50
21.6768966239708405
 51
115.5072870590693981
  0
ARC
  5
168D0
  8
0
 10
3512.1292655817937884
 20
157.2640557258008016
 30
0.0
 40
0.0613312430871379
 50
203.196468161899702
 51
303.2055459431157942
  0
ARC
  5
168D1
  8
0
 10
3512.1096506715648502
 20
157.2546824006128077
 30
0.0
 40
0.0396199826435593
 50
117.8937409214902061
 51
201.9099402289369038
  0
ARC
  5
168D2
  8
0
 10
3512.140369879653008
 20
157.2444752295648129
 30
0.0
 40
0.0388931891544295
 50
305.3156633794840786
 51
16.9302801270256182
  0
ARC
  5
168D3
  8
0
 10
3512.1217324723847923
 20
157.2410432265508859
 30
0.0
 40
0.0198995940836989
 50
353.0857671462865142
 51
150.0674330627693109
  0
ARC
  5
168D4
  8
0
 10
3512.12428874811485
 20
157.2487172094612049
 30
0.0
 40
0.0199295735563837
 50
173.5016411955556066
 51
329.6515590134861213
  0
LINE
  5
168D5
  8
0
 10
3512.0724433362202035
 20
157.2682969965024995
 30
0.0
 11
3512.08095817759704
 21
157.3057921734657896
 31
0.0
  0
LINE
  5
168D6
  8
0
 10
3512.1771712045351705
 20
157.2318918019923899
 30
0.0
 11
3512.1931842086951292
 21
157.2683927573255005
 31
0.0
  0
ARC
  5
168D7
  8
0
 10
3512.1249604667600579
 20
157.2507512896187052
 30
0.0
 40
0.0704677255653748
 50
14.49811735870618
 51
128.6404956924704095
  0
ARC
  5
168D8
  8
0
 10
3511.6412246030840834
 20
157.9850826312188019
 30
0.0
 40
0.0635795499398992
 50
21.6768966239708405
 51
115.5072870590693981
  0
ARC
  5
168D9
  8
0
 10
3511.6519960591681411
 20
158.0168216368988965
 30
0.0
 40
0.0613312430871379
 50
203.196468161899702
 51
303.2055459431157942
  0
ARC
  5
168DA
  8
0
 10
3511.6323811489369291
 20
158.0074483117107889
 30
0.0
 40
0.0396199826435593
 50
117.8937409214902061
 51
201.9099402289369038
  0
ARC
  5
168DB
  8
0
 10
3511.6631003570259963
 20
157.9972411406627941
 30
0.0
 40
0.0388931891544295
 50
305.3156633794840786
 51
16.9302801270256182
  0
ARC
  5
168DC
  8
0
 10
3511.6444629497577807
 20
157.9938091376490092
 30
0.0
 40
0.0198995940836989
 50
353.0857671462865142
 51
150.0674330627693109
  0
ARC
  5
168DD
  8
0
 10
3511.6470192254869289
 20
158.0014831205591861
 30
0.0
 40
0.0199295735563837
 50
173.5016411955556066
 51
329.6515590134861213
  0
LINE
  5
168DE
  8
0
 10
3511.5951738135931919
 20
158.0210629076005944
 30
0.0
 11
3511.6036886549691189
 21
158.0585580845637992
 31
0.0
  0
LINE
  5
168DF
  8
0
 10
3511.6999016819081589
 20
157.9846577130903995
 30
0.0
 11
3511.7159146860681176
 21
158.0211586684235101
 31
0.0
  0
ARC
  5
168E0
  8
0
 10
3511.6476909441339558
 20
158.0035172007168001
 30
0.0
 40
0.0704677255653748
 50
14.49811735870618
 51
128.6404956924704095
  0
ARC
  5
168E1
  8
0
 10
3511.7283450931217885
 20
158.5380880835053006
 30
0.0
 40
0.0635795499398992
 50
27.7692574005491188
 51
121.5996478356496056
  0
ARC
  5
168E2
  8
0
 10
3511.7356872049899721
 20
158.5707910213095033
 30
0.0
 40
0.0613312430871379
 50
209.2888289384787868
 51
309.2979067196932874
  0
ARC
  5
168E3
  8
0
 10
3511.7171778827669186
 20
158.559388875931603
 30
0.0
 40
0.0396199826435593
 50
123.9861016980623987
 51
208.0023010055242025
  0
ARC
  5
168E4
  8
0
 10
3511.7488068942761856
 20
158.5524996294313098
 30
0.0
 40
0.0388931891544295
 50
311.4080241560733953
 51
23.0226409036124409
  0
ARC
  5
168E5
  8
0
 10
3511.7306389927689452
 20
158.5471089941059972
 30
0.0
 40
0.0198995940836989
 50
359.1781279228683275
 51
156.1597938393518064
  0
ARC
  5
168E6
  8
0
 10
3511.7323663796341862
 20
158.5550109365211995
 30
0.0
 40
0.0199295735563837
 50
179.594001972138301
 51
335.743919790073619
  0
LINE
  5
168E7
  8
0
 10
3511.6787357531788984
 20
158.5689777078405029
 30
0.0
 11
3511.6832230843988327
 21
158.6071648087738879
 31
0.0
  0
LINE
  5
168E8
  8
0
 10
3511.7867358670719113
 20
158.5438930514100946
 30
0.0
 11
3511.7987845304551229
 21
158.5818873372055009
 31
0.0
  0
ARC
  5
168E9
  8
0
 10
3511.7328184245129705
 20
158.5571048189090106
 30
0.0
 40
0.0704677255653748
 50
20.5904781352904109
 51
134.7328564690471069
  0
ARC
  5
168EA
  8
0
 10
3511.8842603558241535
 20
158.7886931019193071
 30
0.0
 40
0.0635795499398992
 50
27.7692574005491188
 51
121.5996478356496056
  0
ARC
  5
168EB
  8
0
 10
3511.8916024676918823
 20
158.8213960397235098
 30
0.0
 40
0.0613312430871379
 50
209.2888289384787868
 51
309.2979067196932874
  0
ARC
  5
168EC
  8
0
 10
3511.8730931454679194
 20
158.8099938943456095
 30
0.0
 40
0.0396199826435593
 50
123.9861016980623987
 51
208.0023010055242025
  0
ARC
  5
168ED
  8
0
 10
3511.9047221569771864
 20
158.8031046478452879
 30
0.0
 40
0.0388931891544295
 50
311.4080241560733953
 51
23.0226409036124409
  0
ARC
  5
168EE
  8
0
 10
3511.8865542554708554
 20
158.7977140125200037
 30
0.0
 40
0.0198995940836989
 50
359.1781279228683275
 51
156.1597938393518064
  0
ARC
  5
168EF
  8
0
 10
3511.8882816423351869
 20
158.805615954935206
 30
0.0
 40
0.0199295735563837
 50
179.594001972138301
 51
335.743919790073619
  0
LINE
  5
168F0
  8
0
 10
3511.8346510158798992
 20
158.8195827262545947
 30
0.0
 11
3511.8391383470998335
 21
158.8577698271880081
 31
0.0
  0
LINE
  5
168F1
  8
0
 10
3511.9426511297729121
 20
158.7944980698241011
 30
0.0
 11
3511.9546997931570331
 21
158.8324923556195927
 31
0.0
  0
ARC
  5
168F2
  8
0
 10
3511.8887336872139713
 20
158.8077098373231024
 30
0.0
 40
0.0704677255653748
 50
20.5904781352904109
 51
134.7328564690471069
  0
ARC
  5
168F3
  8
0
 10
3512.4088636773999497
 20
159.200612717663887
 30
0.0
 40
0.0635795499398992
 50
27.7692574005491188
 51
121.5996478356496056
  0
ARC
  5
168F4
  8
0
 10
3512.4162057892681332
 20
159.2333156554680897
 30
0.0
 40
0.0613312430871379
 50
209.2888289384787868
 51
309.2979067196932874
  0
ARC
  5
168F5
  8
0
 10
3512.3976964670441703
 20
159.2219135100901894
 30
0.0
 40
0.0396199826435593
 50
123.9861016980623987
 51
208.0023010055242025
  0
ARC
  5
168F6
  8
0
 10
3512.4293254785529825
 20
159.2150242635898962
 30
0.0
 40
0.0388931891544295
 50
311.4080241560733953
 51
23.0226409036124409
  0
ARC
  5
168F7
  8
0
 10
3512.4111575770471063
 20
159.2096336282646121
 30
0.0
 40
0.0198995940836989
 50
359.1781279228683275
 51
156.1597938393518064
  0
ARC
  5
168F8
  8
0
 10
3512.4128849639109831
 20
159.2175355706797859
 30
0.0
 40
0.0199295735563837
 50
179.594001972138301
 51
335.743919790073619
  0
LINE
  5
168F9
  8
0
 10
3512.3592543374561501
 20
159.2315023419990894
 30
0.0
 11
3512.3637416686760844
 21
159.2696894429325027
 31
0.0
  0
LINE
  5
168FA
  8
0
 10
3512.4672544513500725
 20
159.2064176855687094
 30
0.0
 11
3512.4793031147341935
 21
159.244411971364201
 31
0.0
  0
ARC
  5
168FB
  8
0
 10
3512.4133370087911317
 20
159.2196294530675971
 30
0.0
 40
0.0704677255653748
 50
20.5904781352904109
 51
134.7328564690471069
  0
ARC
  5
168FC
  8
0
 10
3512.1134479596980782
 20
159.0099318599606875
 30
0.0
 40
0.0635795499398992
 50
27.7692574005491188
 51
121.5996478356496056
  0
ARC
  5
168FD
  8
0
 10
3512.120790071565807
 20
159.0426347977648902
 30
0.0
 40
0.0613312430871379
 50
209.2888289384787868
 51
309.2979067196932874
  0
ARC
  5
168FE
  8
0
 10
3512.1022807493418441
 20
159.0312326523869899
 30
0.0
 40
0.0396199826435593
 50
123.9861016980623987
 51
208.0023010055242025
  0
ARC
  5
168FF
  8
0
 10
3512.1339097608511111
 20
159.0243434058866967
 30
0.0
 40
0.0388931891544295
 50
311.4080241560733953
 51
23.0226409036124409
  0
ARC
  5
16900
  8
0
 10
3512.1157418593438706
 20
159.0189527705614125
 30
0.0
 40
0.0198995940836989
 50
359.1781279228683275
 51
156.1597938393518064
  0
ARC
  5
16901
  8
0
 10
3512.1174692462091116
 20
159.0268547129765864
 30
0.0
 40
0.0199295735563837
 50
179.594001972138301
 51
335.743919790073619
  0
LINE
  5
16902
  8
0
 10
3512.0638386197538239
 20
159.0408214842958898
 30
0.0
 11
3512.0683259509742129
 21
159.0790085852293032
 31
0.0
  0
LINE
  5
16903
  8
0
 10
3512.1718387336468368
 20
159.0157368278655099
 30
0.0
 11
3512.1838873970309578
 21
159.0537311136608878
 31
0.0
  0
ARC
  5
16904
  8
0
 10
3512.117921291087896
 20
159.0289485953645112
 30
0.0
 40
0.0704677255653748
 50
20.5904781352904109
 51
134.7328564690471069
  0
ARC
  5
16905
  8
0
 10
3513.1223781686230723
 20
159.4216858995764028
 30
0.0
 40
0.0635795499398992
 50
27.7692574005491188
 51
121.5996478356496056
  0
ARC
  5
16906
  8
0
 10
3513.1297202804908011
 20
159.4543888373806055
 30
0.0
 40
0.0613312430871379
 50
209.2888289384787868
 51
309.2979067196932874
  0
ARC
  5
16907
  8
0
 10
3513.1112109582668381
 20
159.4429866920027052
 30
0.0
 40
0.0396199826435593
 50
123.9861016980623987
 51
208.0023010055242025
  0
ARC
  5
16908
  8
0
 10
3513.1428399697761051
 20
159.4360974455024973
 30
0.0
 40
0.0388931891544295
 50
311.4080241560733953
 51
23.0226409036124409
  0
ARC
  5
16909
  8
0
 10
3513.1246720682697742
 20
159.4307068101770994
 30
0.0
 40
0.0198995940836989
 50
359.1781279228683275
 51
156.1597938393518064
  0
ARC
  5
1690A
  8
0
 10
3513.1263994551341057
 20
159.4386087525923017
 30
0.0
 40
0.0199295735563837
 50
179.594001972138301
 51
335.743919790073619
  0
LINE
  5
1690B
  8
0
 10
3513.0727688286779085
 20
159.4525755239116904
 30
0.0
 11
3513.077256159899207
 21
159.4907626248451038
 31
0.0
  0
LINE
  5
1690C
  8
0
 10
3513.1807689425718308
 20
159.4274908674811968
 30
0.0
 11
3513.1928176059568614
 21
159.4654851532766884
 31
0.0
  0
ARC
  5
1690D
  8
0
 10
3513.1268515000137995
 20
159.4407026349801981
 30
0.0
 40
0.0704677255653748
 50
20.5904781352904109
 51
134.7328564690471069
  0
ARC
  5
1690E
  8
0
 10
3512.7476522746778755
 20
159.3341466048559028
 30
0.0
 40
0.0635795499398992
 50
27.7692574005491188
 51
121.5996478356496056
  0
ARC
  5
1690F
  8
0
 10
3512.7549943865469686
 20
159.3668495426601055
 30
0.0
 40
0.0613312430871379
 50
209.2888289384787868
 51
309.2979067196932874
  0
ARC
  5
16910
  8
0
 10
3512.7364850643230056
 20
159.3554473972822052
 30
0.0
 40
0.0396199826435593
 50
123.9861016980623987
 51
208.0023010055242025
  0
ARC
  5
16911
  8
0
 10
3512.7681140758331821
 20
159.348558150781912
 30
0.0
 40
0.0388931891544295
 50
311.4080241560733953
 51
23.0226409036124409
  0
ARC
  5
16912
  8
0
 10
3512.7499461743259417
 20
159.3431675154565994
 30
0.0
 40
0.0198995940836989
 50
359.1781279228683275
 51
156.1597938393518064
  0
ARC
  5
16913
  8
0
 10
3512.7516735611911827
 20
159.3510694578718017
 30
0.0
 40
0.0199295735563837
 50
179.594001972138301
 51
335.743919790073619
  0
LINE
  5
16914
  8
0
 10
3512.6980429347349855
 20
159.3650362291911051
 30
0.0
 11
3512.7025302659549197
 21
159.4032233301244901
 31
0.0
  0
LINE
  5
16915
  8
0
 10
3512.8060430486279984
 20
159.3399515727606968
 30
0.0
 11
3512.8180917120121194
 21
159.3779458585561031
 31
0.0
  0
ARC
  5
16916
  8
0
 10
3512.7521256060690575
 20
159.3531633402596128
 30
0.0
 40
0.0704677255653748
 50
20.5904781352904109
 51
134.7328564690471069
  0
ARC
  5
16917
  8
0
 10
3512.2406583517281433
 20
158.6039907317154132
 30
0.0
 40
0.0635795499398992
 50
31.1335143858176302
 51
124.9639048209222949
  0
ARC
  5
16918
  8
0
 10
3512.2460686834301669
 20
158.6370681720424898
 30
0.0
 40
0.0613312430871379
 50
212.6530859237498987
 51
312.6621637049710216
  0
ARC
  5
16919
  8
0
 10
3512.2282603788439701
 20
158.6245994826103072
 30
0.0
 40
0.0396199826435593
 50
127.3503586833387971
 51
211.3665579907840026
  0
ARC
  5
1691A
  8
0
 10
3512.2602391678638014
 20
158.6195782139328117
 30
0.0
 40
0.0388931891544295
 50
314.7722811413497084
 51
26.3868978888821601
  0
ARC
  5
1691B
  8
0
 10
3512.2424189183880117
 20
158.613130710309008
 30
0.0
 40
0.0198995940836989
 50
2.5423849081393639
 51
159.5240508246160971
  0
ARC
  5
1691C
  8
0
 10
3512.243679613688073
 20
158.6211204040874918
 30
0.0
 40
0.0199295735563837
 50
182.9582589574077076
 51
339.1081767753440204
  0
LINE
  5
1691D
  8
0
 10
3512.1893217917968286
 20
158.6319158658357082
 30
0.0
 11
3512.1915604321079627
 21
158.6703004891728028
 31
0.0
  0
LINE
  5
1691E
  8
0
 10
3512.2986078402559542
 20
158.6132122779073939
 30
0.0
 11
3512.3084060968571976
 21
158.651848144793405
 31
0.0
  0
ARC
  5
1691F
  8
0
 10
3512.2440080029150522
 20
158.6232372055762028
 30
0.0
 40
0.0704677255653748
 50
23.9547351205582402
 51
138.0971134543171104
  0
ARC
  5
16920
  8
0
 10
3512.0628693551761899
 20
158.2581766443350091
 30
0.0
 40
0.0635795499398992
 50
31.1335143858176302
 51
124.9639048209222949
  0
ARC
  5
16921
  8
0
 10
3512.0682796868782134
 20
158.2912540846621994
 30
0.0
 40
0.0613312430871379
 50
212.6530859237498987
 51
312.6621637049710216
  0
ARC
  5
16922
  8
0
 10
3512.0504713822911071
 20
158.2787853952299884
 30
0.0
 40
0.0396199826435593
 50
127.3503586833387971
 51
211.3665579907840026
  0
ARC
  5
16923
  8
0
 10
3512.0824501713132122
 20
158.2737641265524928
 30
0.0
 40
0.0388931891544295
 50
314.7722811413497084
 51
26.3868978888821601
  0
ARC
  5
16924
  8
0
 10
3512.0646299218360582
 20
158.2673166229286039
 30
0.0
 40
0.0198995940836989
 50
2.5423849081393639
 51
159.5240508246160971
  0
ARC
  5
16925
  8
0
 10
3512.065890617137029
 20
158.2753063167072014
 30
0.0
 40
0.0199295735563837
 50
182.9582589574077076
 51
339.1081767753440204
  0
LINE
  5
16926
  8
0
 10
3512.0115327952448752
 20
158.2861017784553894
 30
0.0
 11
3512.0137714355569187
 21
158.3244864017925124
 31
0.0
  0
LINE
  5
16927
  8
0
 10
3512.1208188437049103
 20
158.2673981905271035
 30
0.0
 11
3512.1306171003061536
 21
158.3060340574130862
 31
0.0
  0
ARC
  5
16928
  8
0
 10
3512.0662190063630987
 20
158.2774231181959124
 30
0.0
 40
0.0704677255653748
 50
23.9547351205582402
 51
138.0971134543171104
  0
ARC
  5
16929
  8
0
 10
3513.1254883199530923
 20
156.8222644123216867
 30
0.0
 40
0.0635795499398992
 50
40.100296078699273
 51
133.9306865138055116
  0
ARC
  5
1692A
  8
0
 10
3513.1256770216409677
 20
156.8557808730446084
 30
0.0
 40
0.0613312430871379
 50
221.6198676166229973
 51
321.6289453978445181
  0
ARC
  5
1692B
  8
0
 10
3513.1100297471289196
 20
156.840688930533787
 30
0.0
 40
0.0396199826435593
 50
136.3171403762119951
 51
220.3333396836648035
  0
ARC
  5
1692C
  8
0
 10
3513.1424003432398422
 20
156.8407132993015978
 30
0.0
 40
0.0388931891544295
 50
323.7390628342187142
 51
35.3536795817500433
  0
ARC
  5
1692D
  8
0
 10
3513.1258027969120121
 20
156.8315670951550942
 30
0.0
 40
0.0198995940836989
 50
11.5091666010148508
 51
168.4908325174949084
  0
ARC
  5
1692E
  8
0
 10
3513.1258027969738578
 20
156.8396556400992097
 30
0.0
 40
0.0199295735563837
 50
191.9250406502808062
 51
348.0749584682197906
  0
LINE
  5
1692F
  8
0
 10
3513.0704266888837992
 20
156.841846860718789
 30
0.0
 11
3513.0666552736947779
 21
156.880111299126412
 31
0.0
  0
LINE
  5
16930
  8
0
 10
3513.1812923134120865
 20
156.8404053728498013
 30
0.0
 11
3513.1849489681881096
 21
156.8800962397878891
 31
0.0
  0
ARC
  5
16931
  8
0
 10
3513.12579724440684
 20
156.8417977552211937
 30
0.0
 40
0.0704677255653748
 50
32.9215168134341312
 51
147.0638951471929943
  0
ARC
  5
16932
  8
0
 10
3512.5922108182107877
 20
158.4233488966330015
 30
0.0
 40
0.0635795499398992
 50
29.4626652469419916
 51
123.2930556820444963
  0
ARC
  5
16933
  8
0
 10
3512.5985833111790271
 20
158.456254520484805
 30
0.0
 40
0.0613312430871379
 50
210.9822367848663021
 51
310.991314566090125
  0
ARC
  5
16934
  8
0
 10
3512.5804190201238271
 20
158.4443103813844118
 30
0.0
 40
0.0396199826435593
 50
125.6795095444639969
 51
209.6957088519122863
  0
ARC
  5
16935
  8
0
 10
3512.6122378039658543
 20
158.4383588201492046
 30
0.0
 40
0.0388931891544295
 50
313.1014320024597168
 51
24.7160487499980412
  0
ARC
  5
16936
  8
0
 10
3512.5942371369428656
 20
158.4324336550803878
 30
0.0
 40
0.0198995940836989
 50
0.8715357692580528
 51
157.8532016857367068
  0
ARC
  5
16937
  8
0
 10
3512.5957302572060144
 20
158.440383192877988
 30
0.0
 40
0.0199295735563837
 50
181.2874098185264984
 51
337.4373276364647722
  0
LINE
  5
16938
  8
0
 10
3512.5417103176200726
 20
158.4527590129438863
 30
0.0
 11
3512.545067212899994
 21
158.4910620425011132
 31
0.0
  0
LINE
  5
16939
  8
0
 10
3512.6504045469691846
 20
158.4308768490751049
 30
0.0
 11
3512.6613251700528053
 21
158.4692105944426999
 31
0.0
  0
ARC
  5
1693A
  8
0
 10
3512.5961202278422206
 20
158.4424895192844076
 30
0.0
 40
0.0704677255653748
 50
22.2838859816722703
 51
136.4262643154339969
  0
ARC
  5
1693B
  8
0
 10
3512.2375417242110416
 20
157.5596847525991109
 30
0.0
 40
0.0635795499398992
 50
29.4626652469419916
 51
123.2930556820444963
  0
ARC
  5
1693C
  8
0
 10
3512.2439142171788262
 20
157.592590376450886
 30
0.0
 40
0.0613312430871379
 50
210.9822367848663021
 51
310.991314566090125
  0
ARC
  5
1693D
  8
0
 10
3512.225749926124081
 20
157.5806462373504928
 30
0.0
 40
0.0396199826435593
 50
125.6795095444639969
 51
209.6957088519122863
  0
ARC
  5
1693E
  8
0
 10
3512.2575687099670176
 20
157.5746946761152003
 30
0.0
 40
0.0388931891544295
 50
313.1014320024597168
 51
24.7160487499980412
  0
ARC
  5
1693F
  8
0
 10
3512.2395680429431195
 20
157.5687695110464972
 30
0.0
 40
0.0198995940836989
 50
0.8715357692580528
 51
157.8532016857367068
  0
ARC
  5
16940
  8
0
 10
3512.2410611632058135
 20
157.5767190488440121
 30
0.0
 40
0.0199295735563837
 50
181.2874098185264984
 51
337.4373276364647722
  0
LINE
  5
16941
  8
0
 10
3512.1870412236207812
 20
157.5890948689099105
 30
0.0
 11
3512.1903981188988837
 21
157.6273978984671942
 31
0.0
  0
LINE
  5
16942
  8
0
 10
3512.2957354529689837
 20
157.5672127050411007
 30
0.0
 11
3512.3066560760539687
 21
157.6055464504088093
 31
0.0
  0
ARC
  5
16943
  8
0
 10
3512.2414511338420198
 20
157.5788253752504886
 30
0.0
 40
0.0704677255653748
 50
22.2838859816722703
 51
136.4262643154339969
  0
ARC
  5
16944
  8
0
 10
3513.5135051007318907
 20
157.0477675145970125
 30
0.0
 40
0.0635795499398992
 50
40.100296078699273
 51
133.9306865138055116
  0
ARC
  5
16945
  8
0
 10
3513.5136938024202209
 20
157.0812839753199057
 30
0.0
 40
0.0613312430871379
 50
221.6198676166229973
 51
321.6289453978445181
  0
ARC
  5
16946
  8
0
 10
3513.4980465279090822
 20
157.0661920328091128
 30
0.0
 40
0.0396199826435593
 50
136.3171403762119951
 51
220.3333396836648035
  0
ARC
  5
16947
  8
0
 10
3513.5304171240190954
 20
157.0662164015768951
 30
0.0
 40
0.0388931891544295
 50
323.7390628342187142
 51
35.3536795817500433
  0
ARC
  5
16948
  8
0
 10
3513.5154323982128517
 20
157.0485985434978886
 30
0.0
 40
0.0198995940836989
 50
11.5091666010148508
 51
168.4908325174949084
  0
ARC
  5
16949
  8
0
 10
3513.5154323982751521
 20
157.0566870884420041
 30
0.0
 40
0.0199295735563837
 50
191.9250406502808062
 51
348.0749584682197906
  0
LINE
  5
1694A
  8
0
 10
3513.4584434696639619
 20
157.0673499629942
 30
0.0
 11
3513.454672054474031
 21
157.1056144014017093
 31
0.0
  0
LINE
  5
1694B
  8
0
 10
3513.5693090941908849
 20
157.0659084751250987
 30
0.0
 11
3513.5729657489678175
 21
157.1055993420631864
 31
0.0
  0
ARC
  5
1694C
  8
0
 10
3513.5138140251870027
 20
157.0673008574964911
 30
0.0
 40
0.0704677255653748
 50
32.9215168134341312
 51
147.0638951471929943
  0
ARC
  5
1694D
  8
0
 10
3513.513505096641893
 20
157.3043508017969998
 30
0.0
 40
0.0635795499398992
 50
40.100296078699273
 51
133.9306865138055116
  0
ARC
  5
1694E
  8
0
 10
3513.5136937983302232
 20
157.3378672625198931
 30
0.0
 40
0.0613312430871379
 50
221.6198676166229973
 51
321.6289453978445181
  0
ARC
  5
1694F
  8
0
 10
3513.498046523818175
 20
157.3227753200091001
 30
0.0
 40
0.0396199826435593
 50
136.3171403762119951
 51
220.3333396836648035
  0
ARC
  5
16950
  8
0
 10
3513.5304171199281882
 20
157.3227996887769109
 30
0.0
 40
0.0388931891544295
 50
323.7390628342187142
 51
35.3536795817500433
  0
ARC
  5
16951
  8
0
 10
3513.5154323941219445
 20
157.3051818306979044
 30
0.0
 40
0.0198995940836989
 50
11.5091666010148508
 51
168.4908325174949084
  0
ARC
  5
16952
  8
0
 10
3513.5154323941837902
 20
157.3132703756419914
 30
0.0
 40
0.0199295735563837
 50
191.9250406502808062
 51
348.0749584682197906
  0
LINE
  5
16953
  8
0
 10
3513.4584434655730547
 20
157.3239332501941874
 30
0.0
 11
3513.4546720503840334
 21
157.3621976886018103
 31
0.0
  0
LINE
  5
16954
  8
0
 10
3513.5693090901008873
 20
157.322491762325086
 30
0.0
 11
3513.5729657448769103
 21
157.3621826292632022
 31
0.0
  0
ARC
  5
16955
  8
0
 10
3513.5138140210960955
 20
157.3238841446965068
 30
0.0
 40
0.0704677255653748
 50
32.9215168134341312
 51
147.0638951471929943
  0
ARC
  5
16956
  8
0
 10
3513.513505096641893
 20
157.5721256734969984
 30
0.0
 40
0.0635795499398992
 50
40.100296078699273
 51
133.9306865138055116
  0
ARC
  5
16957
  8
0
 10
3513.5136937983302232
 20
157.6056421342198917
 30
0.0
 40
0.0613312430871379
 50
221.6198676166229973
 51
321.6289453978445181
  0
ARC
  5
16958
  8
0
 10
3513.498046523818175
 20
157.5905501917090987
 30
0.0
 40
0.0396199826435593
 50
136.3171403762119951
 51
220.3333396836648035
  0
ARC
  5
16959
  8
0
 10
3513.5304171199281882
 20
157.5905745604769095
 30
0.0
 40
0.0388931891544295
 50
323.7390628342187142
 51
35.3536795817500433
  0
ARC
  5
1695A
  8
0
 10
3513.5154323941219445
 20
157.572956702397903
 30
0.0
 40
0.0198995940836989
 50
11.5091666010148508
 51
168.4908325174949084
  0
ARC
  5
1695B
  8
0
 10
3513.5154323941837902
 20
157.58104524734199
 30
0.0
 40
0.0199295735563837
 50
191.9250406502808062
 51
348.0749584682197906
  0
LINE
  5
1695C
  8
0
 10
3513.4584434655730547
 20
157.591708121894186
 30
0.0
 11
3513.4546720503840334
 21
157.6299725603018089
 31
0.0
  0
LINE
  5
1695D
  8
0
 10
3513.5693090901008873
 20
157.590266634025113
 30
0.0
 11
3513.5729657448769103
 21
157.6299575009632008
 31
0.0
  0
ARC
  5
1695E
  8
0
 10
3513.5138140210960955
 20
157.5916590163965054
 30
0.0
 40
0.0704677255653748
 50
32.9215168134341312
 51
147.0638951471929943
  0
ARC
  5
1695F
  8
0
 10
3513.6922901759398883
 20
158.0561181339730865
 30
0.0
 40
0.2746924811090501
 50
347.6103186760774975
 51
57.4558955595866223
  0
ARC
  5
16960
  8
0
 10
3514.0181478894551219
 20
159.0591428337341995
 30
0.0
 40
0.0635795499398992
 50
47.3704085345694068
 51
141.2007989696618893
  0
ARC
  5
16961
  8
0
 10
3514.0171981968860564
 20
159.09264636834979
 30
0.0
 40
0.0613312430871379
 50
219.6721496505284961
 51
319.6812274317397282
  0
ARC
  5
16962
  8
0
 10
3514.0331841214479027
 20
159.0779136108241971
 30
0.0
 40
0.0396199826435593
 50
320.967755364694824
 51
44.9839546721563011
  0
ARC
  5
16963
  8
0
 10
3514.0008213179407903
 20
159.0772029522833009
 30
0.0
 40
0.0388931891544295
 50
145.9474154666098116
 51
217.5620322141417944
  0
ARC
  5
16964
  8
0
 10
3514.0176222627578682
 20
159.0684359774558914
 30
0.0
 40
0.0198995940836989
 50
12.8102625308737892
 51
169.7919284473501023
  0
ARC
  5
16965
  8
0
 10
3514.0174386006287932
 20
159.0765224369737894
 30
0.0
 40
0.0199295735563837
 50
193.2261365801495003
 51
349.3760543980827151
  0
LINE
  5
16966
  8
0
 10
3514.0727506765829276
 20
159.0799704869660047
 30
0.0
 11
3514.0756522702008624
 21
159.1183106952811954
 31
0.0
  0
LINE
  5
16967
  8
0
 10
3513.9619463669828292
 20
159.0760120070021912
 30
0.0
 11
3513.9573894166601349
 21
159.1156096110485123
 31
0.0
  0
ARC
  5
16968
  8
0
 10
3514.0173955119548737
 20
159.0786641258852114
 30
0.0
 40
0.0704677255653748
 50
34.2371999011755506
 51
148.3795782349305057
  0
ARC
  5
16969
  8
0
 10
3515.3878675418782223
 20
158.2615085322024981
 30
0.0
 40
0.0635795499398992
 50
58.4003521643504087
 51
152.230742599450906
  0
ARC
  5
1696A
  8
0
 10
3515.3805254300100387
 20
158.2942114700067009
 30
0.0
 40
0.0613312430871379
 50
230.7020932803067126
 51
330.7111710615212132
  0
ARC
  5
1696B
  8
0
 10
3515.3990347522340016
 20
158.2828093246288006
 30
0.0
 40
0.0396199826435593
 50
331.9976989944756838
 51
56.0138983019376298
  0
ARC
  5
1696C
  8
0
 10
3515.3674057407238251
 20
158.2759200781285074
 30
0.0
 40
0.0388931891544295
 50
156.9773590963874881
 51
228.5919758439264911
  0
ARC
  5
1696D
  8
0
 10
3515.3855736422310656
 20
158.2705294428031948
 30
0.0
 40
0.0198995940836989
 50
23.8402061606481404
 51
180.8218720771315873
  0
ARC
  5
1696E
  8
0
 10
3515.3838462553671889
 20
158.2784313852183971
 30
0.0
 40
0.0199295735563837
 50
204.2560802099247894
 51
0.4059980278616808
  0
LINE
  5
1696F
  8
0
 10
3515.4374768818220218
 20
158.2923981565377005
 30
0.0
 11
3515.4329895506020875
 21
158.3305852574711139
 31
0.0
  0
LINE
  5
16970
  8
0
 10
3515.3294767679290089
 20
158.2673135001072922
 30
0.0
 11
3515.3174281045448879
 21
158.3053077859028122
 31
0.0
  0
ARC
  5
16971
  8
0
 10
3515.3833942104879497
 20
158.2805252676062082
 30
0.0
 40
0.0704677255653748
 50
45.2671435309528931
 51
159.4095218647096033
  0
ARC
  5
16972
  8
0
 10
3514.4610935534378768
 20
158.8833804152374114
 30
0.0
 40
0.0635795499398992
 50
46.0693134861945026
 51
139.8997039213006985
  0
ARC
  5
16973
  8
0
 10
3514.4609048517500014
 20
158.9168968759603047
 30
0.0
 40
0.0613312430871379
 50
218.3710546021555956
 51
318.3801323833769743
  0
ARC
  5
16974
  8
0
 10
3514.4765521262611401
 20
158.9018049334495117
 30
0.0
 40
0.0396199826435593
 50
319.6666603163351965
 51
43.682859623787941
  0
ARC
  5
16975
  8
0
 10
3514.4441815301511269
 20
158.9018293022174078
 30
0.0
 40
0.0388931891544295
 50
144.6463204182500135
 51
216.2609371657813142
  0
ARC
  5
16976
  8
0
 10
3514.4607790764780475
 20
158.8926830980707905
 30
0.0
 40
0.0198995940836989
 50
11.5091674825051005
 51
168.490833398985103
  0
ARC
  5
16977
  8
0
 10
3514.4607790764148376
 20
158.900771643014906
 30
0.0
 40
0.0199295735563837
 50
191.9250415317802094
 51
348.0749593497192222
  0
LINE
  5
16978
  8
0
 10
3514.5161551845058057
 20
158.902962863634599
 30
0.0
 11
3514.5199265996961913
 21
158.9412273020421935
 31
0.0
  0
LINE
  5
16979
  8
0
 10
3514.4052895599788826
 20
158.9015213757654976
 30
0.0
 11
3514.4016329052019501
 21
158.9412122427036138
 31
0.0
  0
ARC
  5
1697A
  8
0
 10
3514.4607846289832196
 20
158.9029137581370037
 30
0.0
 40
0.0704677255653748
 50
32.9361048528069489
 51
147.0784831865657907
  0
ARC
  5
1697B
  8
0
 10
3514.0462538170390872
 20
158.6998965184214114
 30
0.0
 40
0.0635795499398992
 50
56.7069443179554824
 51
150.5373347530579906
  0
ARC
  5
1697C
  8
0
 10
3514.0398813240699383
 20
158.7328021422731865
 30
0.0
 40
0.0613312430871379
 50
229.0086854339099034
 51
329.0177632151336979
  0
ARC
  5
1697D
  8
0
 10
3514.0580456151260478
 20
158.7208580031727934
 30
0.0
 40
0.0396199826435593
 50
330.3042911480877137
 51
54.3204904555360102
  0
ARC
  5
1697E
  8
0
 10
3514.0262268312822016
 20
158.7149064419375861
 30
0.0
 40
0.0388931891544295
 50
155.2839512500019055
 51
226.8985679975403116
  0
ARC
  5
1697F
  8
0
 10
3514.0442274983060997
 20
158.7089812768687977
 30
0.0
 40
0.0198995940836989
 50
22.1467983142632683
 51
179.1284642307419119
  0
ARC
  5
16980
  8
0
 10
3514.042734378042951
 20
158.716930814666398
 30
0.0
 40
0.0199295735563837
 50
202.5626723635351993
 51
358.7125901814735016
  0
LINE
  5
16981
  8
0
 10
3514.0967543176288927
 20
158.7293066347322963
 30
0.0
 11
3514.0933974223498808
 21
158.7676096642894947
 31
0.0
  0
LINE
  5
16982
  8
0
 10
3513.9880600882797808
 20
158.7074244708634865
 30
0.0
 11
3513.9771394651970695
 21
158.7457582162311098
 31
0.0
  0
ARC
  5
16983
  8
0
 10
3514.042344407408109
 20
158.7190371410727892
 30
0.0
 40
0.0704677255653748
 50
43.5737356845660102
 51
157.7161140183276871
  0
ARC
  5
16984
  8
0
 10
3514.0818496957740535
 20
158.2556300901931934
 30
0.0
 40
0.0635795499398992
 50
53.6589643648211165
 51
147.4893547999236887
  0
ARC
  5
16985
  8
0
 10
3514.0772358819590409
 20
158.288828003829309
 30
0.0
 40
0.0613312430871379
 50
225.9607054807705993
 51
325.9697832619967244
  0
ARC
  5
16986
  8
0
 10
3514.0947393809137793
 20
158.275934926122801
 30
0.0
 40
0.0396199826435593
 50
327.2563111949522749
 51
51.2725105024040104
  0
ARC
  5
16987
  8
0
 10
3514.0626491516618444
 20
158.2716836589002014
 30
0.0
 40
0.0388931891544295
 50
152.2359712968734016
 51
223.8505880443946978
  0
ARC
  5
16988
  8
0
 10
3514.0803093001350135
 20
158.2648097407818
 30
0.0
 40
0.0198995940836989
 50
19.0988183611277513
 51
176.0804842776094858
  0
ARC
  5
16989
  8
0
 10
3514.0792409865030095
 20
158.2728274253165068
 30
0.0
 40
0.0199295735563837
 50
199.5146924104068944
 51
355.6646102283393134
  0
LINE
  5
1698A
  8
0
 10
3514.1338425567751074
 20
158.2823133790876966
 30
0.0
 11
3514.1325270665852258
 21
158.3207407170743011
 31
0.0
  0
LINE
  5
1698B
  8
0
 10
3514.0241385680851636
 20
158.266241681764086
 30
0.0
 11
3514.0152716832840269
 21
158.3051018721440926
 31
0.0
  0
ARC
  5
1698C
  8
0
 10
3514.0789635655410166
 20
158.2749515076210969
 30
0.0
 40
0.0704677255653748
 50
40.5257557314261234
 51
154.6681340651853134
  0
ARC
  5
1698D
  8
0
 10
3514.9694064096488546
 20
157.8963689995530899
 30
0.0
 40
0.0635795499398992
 50
60.9911480757129496
 51
154.8215385108294129
  0
ARC
  5
1698E
  8
0
 10
3514.9605935476488412
 20
157.9287066279615885
 30
0.0
 40
0.0613312430871379
 50
233.2928891916878058
 51
333.3019669729046086
  0
ARC
  5
1698F
  8
0
 10
3514.9795993560651368
 20
157.9181528052002932
 30
0.0
 40
0.0396199826435593
 50
334.5884949058599886
 51
58.6046942133053292
  0
ARC
  5
16990
  8
0
 10
3514.9483140855791135
 20
157.9098408898350954
 30
0.0
 40
0.0388931891544295
 50
159.568155007771793
 51
231.1827717552988872
  0
ARC
  5
16991
  8
0
 10
3514.9667070869109011
 20
157.9052769993519973
 30
0.0
 40
0.0198995940836989
 50
26.4310020720390213
 51
183.4126679885129931
  0
ARC
  5
16992
  8
0
 10
3514.9646242780650027
 20
157.9130927825258084
 30
0.0
 40
0.0199295735563837
 50
206.846876121307389
 51
2.996793939244438
  0
LINE
  5
16993
  8
0
 10
3515.0175687525211288
 20
157.9294695166236977
 30
0.0
 11
3515.0113598551920404
 21
157.9674147457459981
 31
0.0
  0
LINE
  5
16994
  8
0
 10
3514.9108129210458173
 20
157.8995286242584086
 30
0.0
 11
3514.8970591361430706
 21
157.9369394441276881
 31
0.0
  0
ARC
  5
16995
  8
0
 10
3514.9640780465028911
 20
157.91516409107561
 30
0.0
 40
0.0704677255653748
 50
47.8579394423267033
 51
162.0003177760949882
  0
ARC
  5
16996
  8
0
 10
3515.3085903518422128
 20
157.7110059473120032
 30
0.0
 40
0.0635795499398992
 50
64.4927129409305735
 51
158.3231033760291098
  0
ARC
  5
16997
  8
0
 10
3515.2978188957590646
 20
157.7427449529920125
 30
0.0
 40
0.0613312430871379
 50
236.7944540568842058
 51
336.803531838100298
  0
ARC
  5
16998
  8
0
 10
3515.3174338059880029
 20
157.7333716278039901
 30
0.0
 40
0.0396199826435593
 50
338.0900597710631814
 51
62.1062590785097726
  0
ARC
  5
16999
  8
0
 10
3515.2867145978998451
 20
157.7231644567559954
 30
0.0
 40
0.0388931891544295
 50
163.0697198729743036
 51
234.6843366205160066
  0
ARC
  5
1699A
  8
0
 10
3515.3053520051680607
 20
157.7197324537422105
 30
0.0
 40
0.0198995940836989
 50
29.9325669372307388
 51
186.9142328537134858
  0
ARC
  5
1699B
  8
0
 10
3515.302795729438003
 20
157.7274064366523874
 30
0.0
 40
0.0199295735563837
 50
210.3484409865139071
 51
6.4983588044443827
  0
LINE
  5
1699C
  8
0
 10
3515.3546411413331043
 20
157.7469862236937104
 30
0.0
 11
3515.346126299955813
 21
157.7844814006570004
 31
0.0
  0
LINE
  5
1699D
  8
0
 10
3515.249913273016773
 20
157.7105810291836008
 30
0.0
 11
3515.2339002688568144
 21
157.7470819845167114
 31
0.0
  0
ARC
  5
1699E
  8
0
 10
3515.3021240107918857
 20
157.7294405168100013
 30
0.0
 40
0.0704677255653748
 50
51.3595043075295479
 51
165.501882641293804
  0
ARC
  5
1699F
  8
0
 10
3514.619323181587788
 20
157.0481013261216106
 30
0.0
 40
0.0635795499398992
 50
46.0693134861945026
 51
139.8997039213006985
  0
ARC
  5
169A0
  8
0
 10
3514.6191344798999125
 20
157.0816177868445038
 30
0.0
 40
0.0613312430871379
 50
218.3710546021555956
 51
318.3801323833769743
  0
ARC
  5
169A1
  8
0
 10
3514.6347817544119607
 20
157.0665258443337109
 30
0.0
 40
0.0396199826435593
 50
319.6666603163351965
 51
43.682859623787941
  0
ARC
  5
169A2
  8
0
 10
3514.6024111583019476
 20
157.0665502131014932
 30
0.0
 40
0.0388931891544295
 50
144.6463204182500135
 51
216.2609371657813142
  0
ARC
  5
169A3
  8
0
 10
3514.6190087046288681
 20
157.0574040089549896
 30
0.0
 40
0.0198995940836989
 50
11.5091674825051005
 51
168.490833398985103
  0
ARC
  5
169A4
  8
0
 10
3514.619008704566113
 20
157.0654925538991051
 30
0.0
 40
0.0199295735563837
 50
191.9250415317802094
 51
348.0749593497192222
  0
LINE
  5
169A5
  8
0
 10
3514.6743848126570811
 20
157.0676837745187981
 30
0.0
 11
3514.6781562278470119
 21
157.1059482129263927
 31
0.0
  0
LINE
  5
169A6
  8
0
 10
3514.5635191881287938
 20
157.0662422866496968
 30
0.0
 11
3514.5598625333532254
 21
157.105933153587813
 31
0.0
  0
ARC
  5
169A7
  8
0
 10
3514.6190142571340402
 20
157.0676346690212029
 30
0.0
 40
0.0704677255653748
 50
32.9361048528069489
 51
147.0784831865657907
  0
ARC
  5
169A8
  8
0
 10
3514.2823200218422244
 20
156.9107420761127969
 30
0.0
 40
0.0635795499398992
 50
46.0693134861945026
 51
139.8997039213006985
  0
ARC
  5
169A9
  8
0
 10
3514.2821313201538942
 20
156.9442585368356902
 30
0.0
 40
0.0613312430871379
 50
218.3710546021555956
 51
318.3801323833769743
  0
ARC
  5
169AA
  8
0
 10
3514.2977785946659424
 20
156.9291665943248972
 30
0.0
 40
0.0396199826435593
 50
319.6666603163351965
 51
43.682859623787941
  0
ARC
  5
169AB
  8
0
 10
3514.2654079985559292
 20
156.929190963092708
 30
0.0
 40
0.0388931891544295
 50
144.6463204182500135
 51
216.2609371657813142
  0
ARC
  5
169AC
  8
0
 10
3514.2820055448819403
 20
156.9200447589462044
 30
0.0
 40
0.0198995940836989
 50
11.5091674825051005
 51
168.490833398985103
  0
ARC
  5
169AD
  8
0
 10
3514.2820055448210042
 20
156.9281333038902915
 30
0.0
 40
0.0199295735563837
 50
191.9250415317802094
 51
348.0749593497192222
  0
LINE
  5
169AE
  8
0
 10
3514.3373816529110627
 20
156.9303245245100129
 30
0.0
 11
3514.3411530681000841
 21
156.9685889629176074
 31
0.0
  0
LINE
  5
169AF
  8
0
 10
3514.2265160283827754
 20
156.9288830366409115
 30
0.0
 11
3514.2228593736072071
 21
156.9685739035789993
 31
0.0
  0
ARC
  5
169B0
  8
0
 10
3514.2820110973880219
 20
156.9302754190123039
 30
0.0
 40
0.0704677255653748
 50
32.9361048528069489
 51
147.0784831865657907
  0
ARC
  5
169B1
  8
0
 10
3514.0797567875238201
 20
157.7963926061420068
 30
0.0
 40
0.0635795499398992
 50
46.0693134861945026
 51
139.8997039213006985
  0
ARC
  5
169B2
  8
0
 10
3514.0795680858359447
 20
157.8299090668647864
 30
0.0
 40
0.0613312430871379
 50
218.3710546021555956
 51
318.3801323833769743
  0
ARC
  5
169B3
  8
0
 10
3514.0952153603479928
 20
157.8148171243541071
 30
0.0
 40
0.0396199826435593
 50
319.6666603163351965
 51
43.682859623787941
  0
ARC
  5
169B4
  8
0
 10
3514.0628447642370702
 20
157.8148414931218895
 30
0.0
 40
0.0388931891544295
 50
144.6463204182500135
 51
216.2609371657813142
  0
ARC
  5
169B5
  8
0
 10
3514.0794423105649003
 20
157.8056952889753859
 30
0.0
 40
0.0198995940836989
 50
11.5091674825051005
 51
168.490833398985103
  0
ARC
  5
169B6
  8
0
 10
3514.0794423105021451
 20
157.8137838339195014
 30
0.0
 40
0.0199295735563837
 50
191.9250415317802094
 51
348.0749593497192222
  0
LINE
  5
169B7
  8
0
 10
3514.1348184185931132
 20
157.8159750545391091
 30
0.0
 11
3514.138589833783044
 21
157.8542394929467036
 31
0.0
  0
LINE
  5
169B8
  8
0
 10
3514.0239527940648259
 20
157.8145335666700078
 30
0.0
 11
3514.0202961392888028
 21
157.8542244336082092
 31
0.0
  0
ARC
  5
169B9
  8
0
 10
3514.0794478630700723
 20
157.8159259490415138
 30
0.0
 40
0.0704677255653748
 50
32.9361048528069489
 51
147.0784831865657907
  0
ARC
  5
169BA
  8
0
 10
3514.017110392412178
 20
157.1033248517306902
 30
0.0
 40
0.0635795499398992
 50
46.0693134861945026
 51
139.8997039213006985
  0
ARC
  5
169BB
  8
0
 10
3514.0169216907252121
 20
157.1368413124536119
 30
0.0
 40
0.0613312430871379
 50
218.3710546021555956
 51
318.3801323833769743
  0
ARC
  5
169BC
  8
0
 10
3514.0325689652368055
 20
157.1217493699429042
 30
0.0
 40
0.0396199826435593
 50
319.6666603163351965
 51
43.682859623787941
  0
ARC
  5
169BD
  8
0
 10
3514.0001983691267924
 20
157.1217737387106013
 30
0.0
 40
0.0388931891544295
 50
144.6463204182500135
 51
216.2609371657813142
  0
ARC
  5
169BE
  8
0
 10
3514.0167959154528035
 20
157.1126275345642114
 30
0.0
 40
0.0198995940836989
 50
11.5091674825051005
 51
168.490833398985103
  0
ARC
  5
169BF
  8
0
 10
3514.0167959153918673
 20
157.1207160795082984
 30
0.0
 40
0.0199295735563837
 50
191.9250415317802094
 51
348.0749593497192222
  0
LINE
  5
169C0
  8
0
 10
3514.0721720234819259
 20
157.1229073001279062
 30
0.0
 11
3514.0759434386718567
 21
157.1611717385355007
 31
0.0
  0
LINE
  5
169C1
  8
0
 10
3513.9613063989540933
 20
157.1214658122588048
 30
0.0
 11
3513.9576497441780703
 21
157.1611566791970063
 31
0.0
  0
ARC
  5
169C2
  8
0
 10
3514.016801467958885
 20
157.1228581946303109
 30
0.0
 40
0.0704677255653748
 50
32.9361048528069489
 51
147.0784831865657907
  0
ARC
  5
169C3
  8
0
 10
3514.4580143290090746
 20
157.2823522343554998
 30
0.0
 40
0.0635795499398992
 50
46.0693134861945026
 51
139.8997039213006985
  0
ARC
  5
169C4
  8
0
 10
3514.4578256273211991
 20
157.3158686950783078
 30
0.0
 40
0.0613312430871379
 50
218.3710546021555956
 51
318.3801323833769743
  0
ARC
  5
169C5
  8
0
 10
3514.4734729018327926
 20
157.3007767525676002
 30
0.0
 40
0.0396199826435593
 50
319.6666603163351965
 51
43.682859623787941
  0
ARC
  5
169C6
  8
0
 10
3514.4411023057227794
 20
157.3008011213354109
 30
0.0
 40
0.0388931891544295
 50
144.6463204182500135
 51
216.2609371657813142
  0
ARC
  5
169C7
  8
0
 10
3514.4576998520501547
 20
157.2916549171889073
 30
0.0
 40
0.0198995940836989
 50
11.5091674825051005
 51
168.490833398985103
  0
ARC
  5
169C8
  8
0
 10
3514.4576998519878543
 20
157.2997434621329944
 30
0.0
 40
0.0199295735563837
 50
191.9250415317802094
 51
348.0749593497192222
  0
LINE
  5
169C9
  8
0
 10
3514.5130759600779129
 20
157.3019346827526022
 30
0.0
 11
3514.5168473752678437
 21
157.3401991211601967
 31
0.0
  0
LINE
  5
169CA
  8
0
 10
3514.4022103355500803
 20
157.3004931948835008
 30
0.0
 11
3514.3985536807740573
 21
157.3401840618217022
 31
0.0
  0
ARC
  5
169CB
  8
0
 10
3514.4577054045548721
 20
157.3018855772550069
 30
0.0
 40
0.0704677255653748
 50
32.9361048528069489
 51
147.0784831865657907
  0
ARC
  5
169CC
  8
0
 10
3514.0468592963748051
 20
157.3955440196035056
 30
0.0
 40
0.0635795499398992
 50
46.0693134861945026
 51
139.8997039213006985
  0
ARC
  5
169CD
  8
0
 10
3514.0466705946869297
 20
157.4290604803263989
 30
0.0
 40
0.0613312430871379
 50
218.3710546021555956
 51
318.3801323833769743
  0
ARC
  5
169CE
  8
0
 10
3514.0623178691989779
 20
157.4139685378156059
 30
0.0
 40
0.0396199826435593
 50
319.6666603163351965
 51
43.682859623787941
  0
ARC
  5
169CF
  8
0
 10
3514.0299472730889647
 20
157.4139929065833883
 30
0.0
 40
0.0388931891544295
 50
144.6463204182500135
 51
216.2609371657813142
  0
ARC
  5
169D0
  8
0
 10
3514.0465448194158853
 20
157.4048467024369131
 30
0.0
 40
0.0198995940836989
 50
11.5091674825051005
 51
168.490833398985103
  0
ARC
  5
169D1
  8
0
 10
3514.0465448193531302
 20
157.4129352473810002
 30
0.0
 40
0.0199295735563837
 50
191.9250415317802094
 51
348.0749593497192222
  0
LINE
  5
169D2
  8
0
 10
3514.1019209274440982
 20
157.4151264680006932
 30
0.0
 11
3514.105692342634029
 21
157.4533909064082877
 31
0.0
  0
LINE
  5
169D3
  8
0
 10
3513.9910553029158109
 20
157.4136849801315918
 30
0.0
 11
3513.9873986481397878
 21
157.453375847069708
 31
0.0
  0
ARC
  5
169D4
  8
0
 10
3514.0465503719210574
 20
157.4150773625030126
 30
0.0
 40
0.0704677255653748
 50
32.9361048528069489
 51
147.0784831865657907
  0
ARC
  5
169D5
  8
0
 10
3514.4382944777089506
 20
157.6754497319651875
 30
0.0
 40
0.0635795499398992
 50
59.0554860248909392
 51
152.8858764599821995
  0
ARC
  5
169D6
  8
0
 10
3514.4305789206100599
 20
157.7080665823091863
 30
0.0
 40
0.0613312430871379
 50
231.3572271408399956
 51
331.3663049220648986
  0
ARC
  5
169D7
  8
0
 10
3514.4492174049328241
 20
157.6968768177669915
 30
0.0
 40
0.0396199826435593
 50
332.6528328550194828
 51
56.6690321624679214
  0
ARC
  5
169D8
  8
0
 10
3514.4176692326218472
 20
157.6896263756983956
 30
0.0
 40
0.0388931891544295
 50
157.6324929569377957
 51
229.2471097044675048
  0
ARC
  5
169D9
  8
0
 10
3514.4358975829791234
 20
157.684443824432492
 30
0.0
 40
0.0198995940836989
 50
24.4953400211882695
 51
181.4770059376699862
  0
ARC
  5
169DA
  8
0
 10
3514.4340799582741965
 20
157.6923254993652108
 30
0.0
 40
0.0199295735563837
 50
204.9112140704664
 51
1.0611318884016789
  0
LINE
  5
169DB
  8
0
 10
3514.4875473829060866
 20
157.7069045699211074
 30
0.0
 11
3514.4826237139500336
 21
157.7450378664372863
 31
0.0
  0
LINE
  5
169DC
  8
0
 10
3514.3798411468110316
 20
157.6805866806531071
 30
0.0
 11
3514.3673588446249596
 21
157.7184407184111024
 31
0.0
  0
ARC
  5
169DD
  8
0
 10
3514.4336040015059552
 20
157.6944140761970061
 30
0.0
 40
0.0704677255653748
 50
45.9222773915004083
 51
160.0646557252551929
  0
ARC
  5
169DE
  8
0
 10
3514.168395483859058
 20
158.0225000335958896
 30
0.0
 40
0.0635795499398992
 50
46.0693134861945026
 51
139.8997039213006985
  0
ARC
  5
169DF
  8
0
 10
3514.1682067821711826
 20
158.0560164943188113
 30
0.0
 40
0.0613312430871379
 50
218.3710546021555956
 51
318.3801323833769743
  0
ARC
  5
169E0
  8
0
 10
3514.1838540566818665
 20
158.0409245518079899
 30
0.0
 40
0.0396199826435593
 50
319.6666603163351965
 51
43.682859623787941
  0
ARC
  5
169E1
  8
0
 10
3514.1514834605718534
 20
158.0409489205758007
 30
0.0
 40
0.0388931891544295
 50
144.6463204182500135
 51
216.2609371657813142
  0
ARC
  5
169E2
  8
0
 10
3514.1680810068987739
 20
158.0318027164292971
 30
0.0
 40
0.0198995940836989
 50
11.5091674825051005
 51
168.490833398985103
  0
ARC
  5
169E3
  8
0
 10
3514.1680810068360188
 20
158.0398912613734126
 30
0.0
 40
0.0199295735563837
 50
191.9250415317802094
 51
348.0749593497192222
  0
LINE
  5
169E4
  8
0
 10
3514.2234571149278963
 20
158.0420824819931056
 30
0.0
 11
3514.2272285301169177
 21
158.0803469204007001
 31
0.0
  0
LINE
  5
169E5
  8
0
 10
3514.1125914904000638
 20
158.0406409941240042
 30
0.0
 11
3514.1089348356231312
 21
158.080331861062092
 31
0.0
  0
ARC
  5
169E6
  8
0
 10
3514.1680865594048555
 20
158.0420333764955103
 30
0.0
 40
0.0704677255653748
 50
32.9361048528069489
 51
147.0784831865657907
  0
ARC
  5
169E7
  8
0
 10
3514.5801573412550169
 20
158.040283241814393
 30
0.0
 40
0.0635795499398992
 50
46.0693134861945026
 51
139.8997039213006985
  0
ARC
  5
169E8
  8
0
 10
3514.5799686395671415
 20
158.073799702537201
 30
0.0
 40
0.0613312430871379
 50
218.3710546021555956
 51
318.3801323833769743
  0
ARC
  5
169E9
  8
0
 10
3514.5956159140791897
 20
158.0587077600264934
 30
0.0
 40
0.0396199826435593
 50
319.6666603163351965
 51
43.682859623787941
  0
ARC
  5
169EA
  8
0
 10
3514.5632453179691765
 20
158.0587321287943041
 30
0.0
 40
0.0388931891544295
 50
144.6463204182500135
 51
216.2609371657813142
  0
ARC
  5
169EB
  8
0
 10
3514.5798428642960971
 20
158.0495859246476869
 30
0.0
 40
0.0198995940836989
 50
11.5091674825051005
 51
168.490833398985103
  0
ARC
  5
169EC
  8
0
 10
3514.5798428642328872
 20
158.0576744695918876
 30
0.0
 40
0.0199295735563837
 50
191.9250415317802094
 51
348.0749593497192222
  0
LINE
  5
169ED
  8
0
 10
3514.6352189723238553
 20
158.0598656902114953
 30
0.0
 11
3514.6389903875128766
 21
158.0981301286190899
 31
0.0
  0
LINE
  5
169EE
  8
0
 10
3514.5243533477960227
 20
158.058424202342394
 30
0.0
 11
3514.5206966930199997
 21
158.0981150692805954
 31
0.0
  0
ARC
  5
169EF
  8
0
 10
3514.5798484168008144
 20
158.0598165847139001
 30
0.0
 40
0.0704677255653748
 50
32.9361048528069489
 51
147.0784831865657907
  0
ARC
  5
169F0
  8
0
 10
3515.1430059791618987
 20
157.462796743492504
 30
0.0
 40
0.0635795499398992
 50
64.4927129409305735
 51
158.3231033760291098
  0
ARC
  5
169F1
  8
0
 10
3515.1322345230792052
 20
157.4945357491725133
 30
0.0
 40
0.0613312430871379
 50
236.7944540568842058
 51
336.803531838100298
  0
ARC
  5
169F2
  8
0
 10
3515.1518494333081435
 20
157.4851624239844057
 30
0.0
 40
0.0396199826435593
 50
338.0900597710631814
 51
62.1062590785097726
  0
ARC
  5
169F3
  8
0
 10
3515.1211302252199857
 20
157.4749552529364109
 30
0.0
 40
0.0388931891544295
 50
163.0697198729743036
 51
234.6843366205160066
  0
ARC
  5
169F4
  8
0
 10
3515.1397676324891108
 20
157.4715232499225976
 30
0.0
 40
0.0198995940836989
 50
29.9325669372307388
 51
186.9142328537134858
  0
ARC
  5
169F5
  8
0
 10
3515.1372113567581437
 20
157.4791972328328029
 30
0.0
 40
0.0199295735563837
 50
210.3484409865139071
 51
6.4983588044443827
  0
LINE
  5
169F6
  8
0
 10
3515.1890567686527902
 20
157.4987770198742112
 30
0.0
 11
3515.1805419272759536
 21
157.5362721968375013
 31
0.0
  0
LINE
  5
169F7
  8
0
 10
3515.0843289003378231
 20
157.4623718253639879
 30
0.0
 11
3515.0683158961778645
 21
157.4988727806972122
 31
0.0
  0
ARC
  5
169F8
  8
0
 10
3515.1365396381120263
 20
157.4812313129903885
 30
0.0
 40
0.0704677255653748
 50
51.3595043075295479
 51
165.501882641293804
  0
ARC
  5
169F9
  8
0
 10
3514.9123706708392092
 20
157.2323167201207923
 30
0.0
 40
0.0635795499398992
 50
64.4927129409305735
 51
158.3231033760291098
  0
ARC
  5
169FA
  8
0
 10
3514.901599214756061
 20
157.2640557258008016
 30
0.0
 40
0.0613312430871379
 50
236.7944540568842058
 51
336.803531838100298
  0
ARC
  5
169FB
  8
0
 10
3514.9212141249849992
 20
157.2546824006128077
 30
0.0
 40
0.0396199826435593
 50
338.0900597710631814
 51
62.1062590785097726
  0
ARC
  5
169FC
  8
0
 10
3514.8904949168968415
 20
157.2444752295648129
 30
0.0
 40
0.0388931891544295
 50
163.0697198729743036
 51
234.6843366205160066
  0
ARC
  5
169FD
  8
0
 10
3514.9091323241650571
 20
157.2410432265508859
 30
0.0
 40
0.0198995940836989
 50
29.9325669372307388
 51
186.9142328537134858
  0
ARC
  5
169FE
  8
0
 10
3514.9065760484349994
 20
157.2487172094612049
 30
0.0
 40
0.0199295735563837
 50
210.3484409865139071
 51
6.4983588044443827
  0
LINE
  5
169FF
  8
0
 10
3514.9584214603301007
 20
157.2682969965024995
 30
0.0
 11
3514.9499066189541736
 21
157.3057921734657896
 31
0.0
  0
LINE
  5
16A00
  8
0
 10
3514.8536935920142241
 20
157.2318918019923899
 30
0.0
 11
3514.837680587855175
 21
157.2683927573255005
 31
0.0
  0
ARC
  5
16A01
  8
0
 10
3514.905904329788882
 20
157.2507512896187052
 30
0.0
 40
0.0704677255653748
 50
51.3595043075295479
 51
165.501882641293804
  0
ARC
  5
16A02
  8
0
 10
3515.3896401934662208
 20
157.9850826312188019
 30
0.0
 40
0.0635795499398992
 50
64.4927129409305735
 51
158.3231033760291098
  0
ARC
  5
16A03
  8
0
 10
3515.3788687373830726
 20
158.0168216368988965
 30
0.0
 40
0.0613312430871379
 50
236.7944540568842058
 51
336.803531838100298
  0
ARC
  5
16A04
  8
0
 10
3515.3984836476120108
 20
158.0074483117107889
 30
0.0
 40
0.0396199826435593
 50
338.0900597710631814
 51
62.1062590785097726
  0
ARC
  5
16A05
  8
0
 10
3515.3677644395238531
 20
157.9972411406627941
 30
0.0
 40
0.0388931891544295
 50
163.0697198729743036
 51
234.6843366205160066
  0
ARC
  5
16A06
  8
0
 10
3515.3864018467920687
 20
157.9938091376490092
 30
0.0
 40
0.0198995940836989
 50
29.9325669372307388
 51
186.9142328537134858
  0
ARC
  5
16A07
  8
0
 10
3515.383845571062011
 20
158.0014831205591861
 30
0.0
 40
0.0199295735563837
 50
210.3484409865139071
 51
6.4983588044443827
  0
LINE
  5
16A08
  8
0
 10
3515.4356909829571123
 20
158.0210629076005944
 30
0.0
 11
3515.427176141579821
 21
158.0585580845637992
 31
0.0
  0
LINE
  5
16A09
  8
0
 10
3515.330963114640781
 20
157.9846577130903995
 30
0.0
 11
3515.3149501104808223
 21
158.0211586684235101
 31
0.0
  0
ARC
  5
16A0A
  8
0
 10
3515.3831738524158936
 20
158.0035172007168001
 30
0.0
 40
0.0704677255653748
 50
51.3595043075295479
 51
165.501882641293804
  0
ARC
  5
16A0B
  8
0
 10
3515.3025197034271514
 20
158.5380880835053006
 30
0.0
 40
0.0635795499398992
 50
58.4003521643504087
 51
152.230742599450906
  0
ARC
  5
16A0C
  8
0
 10
3515.2951775915589678
 20
158.5707910213095033
 30
0.0
 40
0.0613312430871379
 50
230.7020932803067126
 51
330.7111710615212132
  0
ARC
  5
16A0D
  8
0
 10
3515.3136869137829308
 20
158.559388875931603
 30
0.0
 40
0.0396199826435593
 50
331.9976989944756838
 51
56.0138983019376298
  0
ARC
  5
16A0E
  8
0
 10
3515.2820579022741185
 20
158.5524996294313098
 30
0.0
 40
0.0388931891544295
 50
156.9773590963874881
 51
228.5919758439264911
  0
ARC
  5
16A0F
  8
0
 10
3515.3002258037809042
 20
158.5471089941059972
 30
0.0
 40
0.0198995940836989
 50
23.8402061606481404
 51
180.8218720771315873
  0
ARC
  5
16A10
  8
0
 10
3515.298498416916118
 20
158.5550109365211995
 30
0.0
 40
0.0199295735563837
 50
204.2560802099247894
 51
0.4059980278616808
  0
LINE
  5
16A11
  8
0
 10
3515.3521290433718605
 20
158.5689777078405029
 30
0.0
 11
3515.3476417121510167
 21
158.6071648087738879
 31
0.0
  0
LINE
  5
16A12
  8
0
 10
3515.2441289294779381
 20
158.5438930514100946
 30
0.0
 11
3515.232080266093817
 21
158.5818873372055009
 31
0.0
  0
ARC
  5
16A13
  8
0
 10
3515.2980463720368789
 20
158.5571048189090106
 30
0.0
 40
0.0704677255653748
 50
45.2671435309528931
 51
159.4095218647096033
  0
ARC
  5
16A14
  8
0
 10
3515.1466044407261506
 20
158.7886931019193071
 30
0.0
 40
0.0635795499398992
 50
58.4003521643504087
 51
152.230742599450906
  0
ARC
  5
16A15
  8
0
 10
3515.1392623288579671
 20
158.8213960397235098
 30
0.0
 40
0.0613312430871379
 50
230.7020932803067126
 51
330.7111710615212132
  0
ARC
  5
16A16
  8
0
 10
3515.15777165108193
 20
158.8099938943456095
 30
0.0
 40
0.0396199826435593
 50
331.9976989944756838
 51
56.0138983019376298
  0
ARC
  5
16A17
  8
0
 10
3515.1261426395722083
 20
158.8031046478452879
 30
0.0
 40
0.0388931891544295
 50
156.9773590963874881
 51
228.5919758439264911
  0
ARC
  5
16A18
  8
0
 10
3515.144310541078994
 20
158.7977140125200037
 30
0.0
 40
0.0198995940836989
 50
23.8402061606481404
 51
180.8218720771315873
  0
ARC
  5
16A19
  8
0
 10
3515.1425831542142078
 20
158.805615954935206
 30
0.0
 40
0.0199295735563837
 50
204.2560802099247894
 51
0.4059980278616808
  0
LINE
  5
16A1A
  8
0
 10
3515.1962137806699502
 20
158.8195827262545947
 30
0.0
 11
3515.1917264494500159
 21
158.8577698271880081
 31
0.0
  0
LINE
  5
16A1B
  8
0
 10
3515.0882136667769373
 20
158.7944980698241011
 30
0.0
 11
3515.0761650033919068
 21
158.8324923556195927
 31
0.0
  0
ARC
  5
16A1C
  8
0
 10
3515.1421311093349686
 20
158.8077098373231024
 30
0.0
 40
0.0704677255653748
 50
45.2671435309528931
 51
159.4095218647096033
  0
ARC
  5
16A1D
  8
0
 10
3514.6220011191498998
 20
159.200612717663887
 30
0.0
 40
0.0635795499398992
 50
58.4003521643504087
 51
152.230742599450906
  0
ARC
  5
16A1E
  8
0
 10
3514.6146590072808067
 20
159.2333156554680897
 30
0.0
 40
0.0613312430871379
 50
230.7020932803067126
 51
330.7111710615212132
  0
ARC
  5
16A1F
  8
0
 10
3514.6331683295052244
 20
159.2219135100901894
 30
0.0
 40
0.0396199826435593
 50
331.9976989944756838
 51
56.0138983019376298
  0
ARC
  5
16A20
  8
0
 10
3514.6015393179959574
 20
159.2150242635898962
 30
0.0
 40
0.0388931891544295
 50
156.9773590963874881
 51
228.5919758439264911
  0
ARC
  5
16A21
  8
0
 10
3514.6197072195031978
 20
159.2096336282646121
 30
0.0
 40
0.0198995940836989
 50
23.8402061606481404
 51
180.8218720771315873
  0
ARC
  5
16A22
  8
0
 10
3514.6179798326379569
 20
159.2175355706797859
 30
0.0
 40
0.0199295735563837
 50
204.2560802099247894
 51
0.4059980278616808
  0
LINE
  5
16A23
  8
0
 10
3514.6716104590941541
 20
159.2315023419990894
 30
0.0
 11
3514.6671231278728555
 21
159.2696894429325027
 31
0.0
  0
LINE
  5
16A24
  8
0
 10
3514.5636103452011412
 20
159.2064176855687094
 30
0.0
 11
3514.5515616818161106
 21
159.244411971364201
 31
0.0
  0
ARC
  5
16A25
  8
0
 10
3514.617527787760082
 20
159.2196294530675971
 30
0.0
 40
0.0704677255653748
 50
45.2671435309528931
 51
159.4095218647096033
  0
ARC
  5
16A26
  8
0
 10
3514.9174168368531355
 20
159.0099318599606875
 30
0.0
 40
0.0635795499398992
 50
58.4003521643504087
 51
152.230742599450906
  0
ARC
  5
16A27
  8
0
 10
3514.9100747249840424
 20
159.0426347977648902
 30
0.0
 40
0.0613312430871379
 50
230.7020932803067126
 51
330.7111710615212132
  0
ARC
  5
16A28
  8
0
 10
3514.9285840472080054
 20
159.0312326523869899
 30
0.0
 40
0.0396199826435593
 50
331.9976989944756838
 51
56.0138983019376298
  0
ARC
  5
16A29
  8
0
 10
3514.8969550356978289
 20
159.0243434058866967
 30
0.0
 40
0.0388931891544295
 50
156.9773590963874881
 51
228.5919758439264911
  0
ARC
  5
16A2A
  8
0
 10
3514.9151229372050693
 20
159.0189527705614125
 30
0.0
 40
0.0198995940836989
 50
23.8402061606481404
 51
180.8218720771315873
  0
ARC
  5
16A2B
  8
0
 10
3514.9133955503398283
 20
159.0268547129765864
 30
0.0
 40
0.0199295735563837
 50
204.2560802099247894
 51
0.4059980278616808
  0
LINE
  5
16A2C
  8
0
 10
3514.9670261767960255
 20
159.0408214842958898
 30
0.0
 11
3514.9625388455760913
 21
159.0790085852293032
 31
0.0
  0
LINE
  5
16A2D
  8
0
 10
3514.8590260629030126
 20
159.0157368278655099
 30
0.0
 11
3514.8469773995188916
 21
159.0537311136608878
 31
0.0
  0
ARC
  5
16A2E
  8
0
 10
3514.912943505461044
 20
159.0289485953645112
 30
0.0
 40
0.0704677255653748
 50
45.2671435309528931
 51
159.4095218647096033
  0
ARC
  5
16A2F
  8
0
 10
3513.9084866279281414
 20
159.4216858995764028
 30
0.0
 40
0.0635795499398992
 50
58.4003521643504087
 51
152.230742599450906
  0
ARC
  5
16A30
  8
0
 10
3513.9011445160581388
 20
159.4543888373806055
 30
0.0
 40
0.0613312430871379
 50
230.7020932803067126
 51
330.7111710615212132
  0
ARC
  5
16A31
  8
0
 10
3513.9196538382830113
 20
159.4429866920027052
 30
0.0
 40
0.0396199826435593
 50
331.9976989944756838
 51
56.0138983019376298
  0
ARC
  5
16A32
  8
0
 10
3513.8880248267728348
 20
159.4360974455024973
 30
0.0
 40
0.0388931891544295
 50
156.9773590963874881
 51
228.5919758439264911
  0
ARC
  5
16A33
  8
0
 10
3513.9061927282800752
 20
159.4307068101770994
 30
0.0
 40
0.0198995940836989
 50
23.8402061606481404
 51
180.8218720771315873
  0
ARC
  5
16A34
  8
0
 10
3513.9044653414148343
 20
159.4386087525923017
 30
0.0
 40
0.0199295735563837
 50
204.2560802099247894
 51
0.4059980278616808
  0
LINE
  5
16A35
  8
0
 10
3513.9580959678710315
 20
159.4525755239116904
 30
0.0
 11
3513.9536086366510972
 21
159.4907626248451038
 31
0.0
  0
LINE
  5
16A36
  8
0
 10
3513.8500958539780186
 20
159.4274908674811968
 30
0.0
 11
3513.838047190592988
 21
159.4654851532766884
 31
0.0
  0
ARC
  5
16A37
  8
0
 10
3513.9040132965360499
 20
159.4407026349801981
 30
0.0
 40
0.0704677255653748
 50
45.2671435309528931
 51
159.4095218647096033
  0
ARC
  5
16A38
  8
0
 10
3514.2832125218710644
 20
159.3341466048559028
 30
0.0
 40
0.0635795499398992
 50
58.4003521643504087
 51
152.230742599450906
  0
ARC
  5
16A39
  8
0
 10
3514.2758704100028808
 20
159.3668495426601055
 30
0.0
 40
0.0613312430871379
 50
230.7020932803067126
 51
330.7111710615212132
  0
ARC
  5
16A3A
  8
0
 10
3514.2943797322268438
 20
159.3554473972822052
 30
0.0
 40
0.0396199826435593
 50
331.9976989944756838
 51
56.0138983019376298
  0
ARC
  5
16A3B
  8
0
 10
3514.2627507207180315
 20
159.348558150781912
 30
0.0
 40
0.0388931891544295
 50
156.9773590963874881
 51
228.5919758439264911
  0
ARC
  5
16A3C
  8
0
 10
3514.2809186222239077
 20
159.3431675154565994
 30
0.0
 40
0.0198995940836989
 50
23.8402061606481404
 51
180.8218720771315873
  0
ARC
  5
16A3D
  8
0
 10
3514.279191235360031
 20
159.3510694578718017
 30
0.0
 40
0.0199295735563837
 50
204.2560802099247894
 51
0.4059980278616808
  0
LINE
  5
16A3E
  8
0
 10
3514.332821861814864
 20
159.3650362291911051
 30
0.0
 11
3514.3283345305949297
 21
159.4032233301244901
 31
0.0
  0
LINE
  5
16A3F
  8
0
 10
3514.2248217479218511
 20
159.3399515727606968
 30
0.0
 11
3514.2127730845368205
 21
159.3779458585561031
 31
0.0
  0
ARC
  5
16A40
  8
0
 10
3514.2787391904798824
 20
159.3531633402596128
 30
0.0
 40
0.0704677255653748
 50
45.2671435309528931
 51
159.4095218647096033
  0
ARC
  5
16A41
  8
0
 10
3514.7902064448207966
 20
158.6039907317154132
 30
0.0
 40
0.0635795499398992
 50
55.0360951790777122
 51
148.8664856141824089
  0
ARC
  5
16A42
  8
0
 10
3514.7847961131201373
 20
158.6370681720424898
 30
0.0
 40
0.0613312430871379
 50
227.3378362950288931
 51
327.3469140762500729
  0
ARC
  5
16A43
  8
0
 10
3514.8026044177058793
 20
158.6245994826103072
 30
0.0
 40
0.0396199826435593
 50
328.6334420092160258
 51
52.6496413166612172
  0
ARC
  5
16A44
  8
0
 10
3514.7706256286851385
 20
158.6195782139328117
 30
0.0
 40
0.0388931891544295
 50
153.6131021111177972
 51
225.2277188586502916
  0
ARC
  5
16A45
  8
0
 10
3514.7884458781609283
 20
158.613130710309008
 30
0.0
 40
0.0198995940836989
 50
20.475949175383839
 51
177.457615091860589
  0
ARC
  5
16A46
  8
0
 10
3514.7871851828617764
 20
158.6211204040874918
 30
0.0
 40
0.0199295735563837
 50
200.8918232246560081
 51
357.0417410425922071
  0
LINE
  5
16A47
  8
0
 10
3514.8415430047530208
 20
158.6319158658357082
 30
0.0
 11
3514.8393043644418867
 21
158.6703004891728028
 31
0.0
  0
LINE
  5
16A48
  8
0
 10
3514.7322569562929857
 20
158.6132122779073939
 30
0.0
 11
3514.7224586996921971
 21
158.651848144793405
 31
0.0
  0
ARC
  5
16A49
  8
0
 10
3514.7868567936347972
 20
158.6232372055762028
 30
0.0
 40
0.0704677255653748
 50
41.9028865456840478
 51
156.0452648794417883
  0
ARC
  5
16A4A
  8
0
 10
3514.9679954413741143
 20
158.2581766443350091
 30
0.0
 40
0.0635795499398992
 50
55.0360951790777122
 51
148.8664856141824089
  0
ARC
  5
16A4B
  8
0
 10
3514.9625851096711813
 20
158.2912540846621994
 30
0.0
 40
0.0613312430871379
 50
227.3378362950288931
 51
327.3469140762500729
  0
ARC
  5
16A4C
  8
0
 10
3514.9803934142578328
 20
158.2787853952299884
 30
0.0
 40
0.0396199826435593
 50
328.6334420092160258
 51
52.6496413166612172
  0
ARC
  5
16A4D
  8
0
 10
3514.948414625237092
 20
158.2737641265524928
 30
0.0
 40
0.0388931891544295
 50
153.6131021111177972
 51
225.2277188586502916
  0
ARC
  5
16A4E
  8
0
 10
3514.9662348747128817
 20
158.2673166229286039
 30
0.0
 40
0.0198995940836989
 50
20.475949175383839
 51
177.457615091860589
  0
ARC
  5
16A4F
  8
0
 10
3514.9649741794141846
 20
158.2753063167072014
 30
0.0
 40
0.0199295735563837
 50
200.8918232246560081
 51
357.0417410425922071
  0
LINE
  5
16A50
  8
0
 10
3515.0193320013049743
 20
158.2861017784553894
 30
0.0
 11
3515.0170933609938402
 21
158.3244864017925124
 31
0.0
  0
LINE
  5
16A51
  8
0
 10
3514.9100459528449392
 20
158.2673981905271035
 30
0.0
 11
3514.9002476962450601
 21
158.3060340574130862
 31
0.0
  0
ARC
  5
16A52
  8
0
 10
3514.9646457901872054
 20
158.2774231181959124
 30
0.0
 40
0.0704677255653748
 50
41.9028865456840478
 51
156.0452648794417883
  0
ARC
  5
16A53
  8
0
 10
3513.9053764765958476
 20
156.8222644123216867
 30
0.0
 40
0.0635795499398992
 50
46.0693134861945026
 51
139.8997039213006985
  0
ARC
  5
16A54
  8
0
 10
3513.9051877749079722
 20
156.8557808730446084
 30
0.0
 40
0.0613312430871379
 50
218.3710546021555956
 51
318.3801323833769743
  0
ARC
  5
16A55
  8
0
 10
3513.9208350494209299
 20
156.840688930533787
 30
0.0
 40
0.0396199826435593
 50
319.6666603163351965
 51
43.682859623787941
  0
ARC
  5
16A56
  8
0
 10
3513.8884644533100072
 20
156.8407132993015978
 30
0.0
 40
0.0388931891544295
 50
144.6463204182500135
 51
216.2609371657813142
  0
ARC
  5
16A57
  8
0
 10
3513.9050619996369278
 20
156.8315670951550942
 30
0.0
 40
0.0198995940836989
 50
11.5091674825051005
 51
168.490833398985103
  0
ARC
  5
16A58
  8
0
 10
3513.9050619995750822
 20
156.8396556400992097
 30
0.0
 40
0.0199295735563837
 50
191.9250415317802094
 51
348.0749593497192222
  0
LINE
  5
16A59
  8
0
 10
3513.9604381076660502
 20
156.841846860718789
 30
0.0
 11
3513.964209522855981
 21
156.880111299126412
 31
0.0
  0
LINE
  5
16A5A
  8
0
 10
3513.8495724831382176
 20
156.8404053728498013
 30
0.0
 11
3513.8459158283621946
 21
156.8800962397878891
 31
0.0
  0
ARC
  5
16A5B
  8
0
 10
3513.9050675521430094
 20
156.8417977552211937
 30
0.0
 40
0.0704677255653748
 50
32.9361048528069489
 51
147.0784831865657907
  0
ARC
  5
16A5C
  8
0
 10
3514.4386539783390617
 20
158.4233488966330015
 30
0.0
 40
0.0635795499398992
 50
56.7069443179554824
 51
150.5373347530579906
  0
ARC
  5
16A5D
  8
0
 10
3514.4322814853699128
 20
158.456254520484805
 30
0.0
 40
0.0613312430871379
 50
229.0086854339099034
 51
329.0177632151336979
  0
ARC
  5
16A5E
  8
0
 10
3514.4504457764260223
 20
158.4443103813844118
 30
0.0
 40
0.0396199826435593
 50
330.3042911480877137
 51
54.3204904555360102
  0
ARC
  5
16A5F
  8
0
 10
3514.4186269925830857
 20
158.4383588201492046
 30
0.0
 40
0.0388931891544295
 50
155.2839512500019055
 51
226.8985679975403116
  0
ARC
  5
16A60
  8
0
 10
3514.4366276596060743
 20
158.4324336550803878
 30
0.0
 40
0.0198995940836989
 50
22.1467983142632683
 51
179.1284642307419119
  0
ARC
  5
16A61
  8
0
 10
3514.4351345393429256
 20
158.440383192877988
 30
0.0
 40
0.0199295735563837
 50
202.5626723635351993
 51
358.7125901814735016
  0
LINE
  5
16A62
  8
0
 10
3514.4891544789288673
 20
158.4527590129438863
 30
0.0
 11
3514.4857975836498554
 21
158.4910620425011132
 31
0.0
  0
LINE
  5
16A63
  8
0
 10
3514.3804602495811196
 20
158.4308768490751049
 30
0.0
 11
3514.3695396264970441
 21
158.4692105944426999
 31
0.0
  0
ARC
  5
16A64
  8
0
 10
3514.4347445687080835
 20
158.4424895192844076
 30
0.0
 40
0.0704677255653748
 50
43.5737356845660102
 51
157.7161140183276871
  0
ARC
  5
16A65
  8
0
 10
3514.7933230723388078
 20
157.5596847525991109
 30
0.0
 40
0.0635795499398992
 50
56.7069443179554824
 51
150.5373347530579906
  0
ARC
  5
16A66
  8
0
 10
3514.7869505793701137
 20
157.592590376450886
 30
0.0
 40
0.0613312430871379
 50
229.0086854339099034
 51
329.0177632151336979
  0
ARC
  5
16A67
  8
0
 10
3514.8051148704262232
 20
157.5806462373504928
 30
0.0
 40
0.0396199826435593
 50
330.3042911480877137
 51
54.3204904555360102
  0
ARC
  5
16A68
  8
0
 10
3514.7732960865828318
 20
157.5746946761152003
 30
0.0
 40
0.0388931891544295
 50
155.2839512500019055
 51
226.8985679975403116
  0
ARC
  5
16A69
  8
0
 10
3514.7912967536058204
 20
157.5687695110464972
 30
0.0
 40
0.0198995940836989
 50
22.1467983142632683
 51
179.1284642307419119
  0
ARC
  5
16A6A
  8
0
 10
3514.7898036333440359
 20
157.5767190488440121
 30
0.0
 40
0.0199295735563837
 50
202.5626723635351993
 51
358.7125901814735016
  0
LINE
  5
16A6B
  8
0
 10
3514.8438235729290682
 20
157.5890948689099105
 30
0.0
 11
3514.8404666776500562
 21
157.6273978984671942
 31
0.0
  0
LINE
  5
16A6C
  8
0
 10
3514.7351293435808657
 20
157.5672127050411007
 30
0.0
 11
3514.7242087204967902
 21
157.6055464504088093
 31
0.0
  0
ARC
  5
16A6D
  8
0
 10
3514.7894136627078296
 20
157.5788253752504886
 30
0.0
 40
0.0704677255653748
 50
43.5737356845660102
 51
157.7161140183276871
  0
ENDSEC
  0
EOF
