  0
SECTION
  2
HEADER
  9
$ACADVER
  1
AC1009
  9
$INSBASE
 10
19.764600849852599
 20
9.1952628450000002
 30
0.0
  9
$EXTMIN
 10
13.69598241981325
 20
9.183108085433167
 30
0.0
  9
$EXTMAX
 10
21.16635401946025
 20
13.86978824988927
 30
0.0
  9
$LIMMIN
 10
0.0
 20
0.0
  9
$LIMMAX
 10
22.0
 20
17.0
  9
$ORTHOMODE
 70
     1
  9
$REGENMODE
 70
     1
  9
$FILLMODE
 70
     1
  9
$QTEXTMODE
 70
     0
  9
$MIRRTEXT
 70
     0
  9
$DRAGMODE
 70
     2
  9
$LTSCALE
 40
1.2099999999999991
  9
$OSMODE
 70
    47
  9
$ATTMODE
 70
     1
  9
$TEXTSIZE
 40
0.2
  9
$TRACEWID
 40
0.05
  9
$TEXTSTYLE
  7
STANDARD
  9
$CLAYER
  8
0
  9
$CELTYPE
  6
BYLAYER
  9
$CECOLOR
 62
   256
  9
$DIMSCALE
 40
1.0
  9
$DIMASZ
 40
0.1875
  9
$DIMEXO
 40
0.0625
  9
$DIMDLI
 40
0.8359999999999999
  9
$DIMRND
 40
0.0
  9
$DIMDLE
 40
0.0
  9
$DIMEXE
 40
0.125
  9
$DIMTP
 40
0.0
  9
$DIMTM
 40
0.0
  9
$DIMTXT
 40
0.15625
  9
$DIMCEN
 40
0.198
  9
$DIMTSZ
 40
0.0
  9
$DIMTOL
 70
     0
  9
$DIMLIM
 70
     0
  9
$DIMTIH
 70
     1
  9
$DIMTOH
 70
     1
  9
$DIMSE1
 70
     0
  9
$DIMSE2
 70
     0
  9
$DIMTAD
 70
     0
  9
$DIMZIN
 70
     0
  9
$DIMBLK
  1

  9
$DIMASO
 70
     1
  9
$DIMSHO
 70
     1
  9
$DIMPOST
  1

  9
$DIMAPOST
  1

  9
$DIMALT
 70
     0
  9
$DIMALTD
 70
     2
  9
$DIMALTF
 40
25.399999999999999
  9
$DIMLFAC
 40
1.0
  9
$DIMTOFL
 70
     0
  9
$DIMTVP
 40
0.0
  9
$DIMTIX
 70
     0
  9
$DIMSOXD
 70
     0
  9
$DIMSAH
 70
     0
  9
$DIMBLK1
  1

  9
$DIMBLK2
  1

  9
$DIMSTYLE
  2
STANDARD
  9
$DIMCLRD
 70
     0
  9
$DIMCLRE
 70
     0
  9
$DIMCLRT
 70
     0
  9
$DIMTFAC
 40
1.0
  9
$DIMGAP
 40
0.09
  9
$LUNITS
 70
     2
  9
$LUPREC
 70
     4
  9
$SKETCHINC
 40
0.1
  9
$FILLETRAD
 40
0.0
  9
$AUNITS
 70
     0
  9
$AUPREC
 70
     0
  9
$MENU
  1
.
  9
$ELEVATION
 40
0.0
  9
$PELEVATION
 40
0.0
  9
$THICKNESS
 40
0.0
  9
$LIMCHECK
 70
     0
  9
$BLIPMODE
 70
     0
  9
$CHAMFERA
 40
0.0
  9
$CHAMFERB
 40
0.0
  9
$SKPOLY
 70
     0
  9
$TDCREATE
 40
2457327.635490729
  9
$TDUPDATE
 40
2457333.4257118171
  9
$TDINDWG
 40
0.1092953472
  9
$TDUSRTIMER
 40
0.1092953472
  9
$USRTIMER
 70
     1
  9
$ANGBASE
 50
0.0
  9
$ANGDIR
 70
     0
  9
$PDMODE
 70
     0
  9
$PDSIZE
 40
0.3125
  9
$PLINEWID
 40
0.0
  9
$COORDS
 70
     1
  9
$SPLFRAME
 70
     0
  9
$SPLINETYPE
 70
     6
  9
$SPLINESEGS
 70
     8
  9
$ATTDIA
 70
     0
  9
$ATTREQ
 70
     1
  9
$HANDLING
 70
     1
  9
$HANDSEED
  5
97B
  9
$SURFTAB1
 70
     6
  9
$SURFTAB2
 70
     6
  9
$SURFTYPE
 70
     6
  9
$SURFU
 70
     6
  9
$SURFV
 70
     6
  9
$UCSNAME
  2

  9
$UCSORG
 10
0.0
 20
0.0
 30
0.0
  9
$UCSXDIR
 10
1.0
 20
0.0
 30
0.0
  9
$UCSYDIR
 10
0.0
 20
1.0
 30
0.0
  9
$PUCSNAME
  2

  9
$PUCSORG
 10
0.0
 20
0.0
 30
0.0
  9
$PUCSXDIR
 10
1.0
 20
0.0
 30
0.0
  9
$PUCSYDIR
 10
0.0
 20
1.0
 30
0.0
  9
$USERI1
 70
     0
  9
$USERI2
 70
     0
  9
$USERI3
 70
     0
  9
$USERI4
 70
     0
  9
$USERI5
 70
     0
  9
$USERR1
 40
0.0
  9
$USERR2
 40
0.0
  9
$USERR3
 40
0.0
  9
$USERR4
 40
0.0
  9
$USERR5
 40
0.0
  9
$WORLDVIEW
 70
     1
  9
$SHADEDGE
 70
     3
  9
$SHADEDIF
 70
    70
  9
$TILEMODE
 70
     1
  9
$MAXACTVP
 70
    48
  9
$PLIMCHECK
 70
     0
  9
$PEXTMIN
 10
1.0000000000000000E+020
 20
1.0000000000000000E+020
 30
1.0000000000000000E+020
  9
$PEXTMAX
 10
-1.0000000000000000E+020
 20
-1.0000000000000000E+020
 30
-1.0000000000000000E+020
  9
$PLIMMIN
 10
0.0
 20
0.0
  9
$PLIMMAX
 10
12.0
 20
9.0
  9
$UNITMODE
 70
     0
  9
$VISRETAIN
 70
     1
  9
$PLINEGEN
 70
     0
  9
$PSLTSCALE
 70
     1
  0
ENDSEC
  0
SECTION
  2
TABLES
  0
TABLE
  2
VPORT
 70
     1
  0
VPORT
  2
*ACTIVE
 70
     0
 10
0.0
 20
0.0
 11
1.0
 21
1.0
 12
-0.1200912104203216
 22
-1.851354449502598
 13
0.0
 23
0.0
 14
1.0
 24
1.0
 15
0.0
 25
0.0
 16
0.0
 26
-0.0910852735758994
 36
5.2182718282905691
 17
19.344916538366189
 27
13.27799591801098
 37
0.0054187560866962
 40
10.541934207710129
 41
2.0329087048832268
 42
50.0
 43
0.0
 44
0.0
 50
0.0
 51
0.0
 71
     0
 72
   100
 73
     1
 74
     1
 75
     0
 76
     0
 77
     0
 78
     0
  0
ENDTAB
  0
TABLE
  2
LTYPE
 70
     1
  0
LTYPE
  2
CONTINUOUS
 70
     0
  3
Solid line
 72
    65
 73
     0
 40
0.0
  0
ENDTAB
  0
TABLE
  2
LAYER
 70
     2
  0
LAYER
  2
0
 70
     0
 62
     7
  6
CONTINUOUS
  0
LAYER
  2
DEFPOINTS
 70
     0
 62
     7
  6
CONTINUOUS
  0
ENDTAB
  0
TABLE
  2
STYLE
 70
     1
  0
STYLE
  2
STANDARD
 70
     0
 40
0.0
 41
0.8
 50
0.0
 71
     0
 42
0.2
  3
txt
  4

  0
ENDTAB
  0
TABLE
  2
VIEW
 70
     0
  0
ENDTAB
  0
TABLE
  2
UCS
 70
     0
  0
ENDTAB
  0
TABLE
  2
APPID
 70
     5
  0
APPID
  2
ACAD
 70
     0
  0
APPID
  2
ACAD_MLEADERVER
 70
     0
  0
APPID
  2
ACAD_NAV_VCDISPLAY
 70
     0
  0
APPID
  2
ACAD_EXEMPT_FROM_CAD_STANDARDS
 70
     0
  0
APPID
  2
ACDBATTR
 70
     0
  0
ENDTAB
  0
TABLE
  2
DIMSTYLE
 70
     1
  0
DIMSTYLE
  2
STANDARD
 70
     0
  3

  4

  5

  6

  7

 40
1.0
 41
0.1875
 42
0.0625
 43
0.38
 44
0.125
 45
0.0
 46
0.0
 47
1.5
 48
1.5
140
0.15625
141
0.09
142
0.0
143
25.399999999999999
144
1.0
145
0.0
146
1.0
147
0.09
 71
     0
 72
     0
 73
     1
 74
     1
 75
     0
 76
     0
 77
     0
 78
     4
170
     0
171
     2
172
     0
173
     0
174
     0
175
     0
176
     0
177
     0
178
     0
  0
ENDTAB
  0
ENDSEC
  0
SECTION
  2
BLOCKS
  0
BLOCK
  8
0
  2
$MODEL_SPACE
 70
     0
 10
0.0
 20
0.0
 30
0.0
  3
$MODEL_SPACE
  1

  0
ENDBLK
  5
21
  8
0
  0
BLOCK
 67
     1
  8
0
  2
$PAPER_SPACE
 70
     0
 10
0.0
 20
0.0
 30
0.0
  3
$PAPER_SPACE
  1

  0
ENDBLK
  5
1D
 67
     1
  8
0
  0
ENDSEC
  0
SECTION
  2
ENTITIES
  0
LINE
  5
68D
  8
0
 10
14.856550093399999
 20
12.1967043149
 30
0.0
 11
13.74386098489564
 21
12.40546353492577
 31
0.0
  0
ARC
  5
68E
  8
0
 10
13.75630659109761
 20
12.464646097570609
 30
0.0
 40
0.0604770108058119
 50
119.2806077775935
 51
258.12421001292608
  0
LINE
  5
68F
  8
0
 10
13.72672805530001
 20
12.517396254499999
 30
0.0
 11
13.840319851
 21
12.5929629025
 31
0.0
  0
ARC
  5
690
  8
0
 10
12.08660822911073
 20
14.34696544827325
 30
0.0
 40
2.4803284829490941
 50
314.99524798490501
 51
323.43967675249758
  0
ARC
  5
691
  8
0
 10
15.546449960470071
 20
11.614834797003359
 30
0.0
 40
1.9307941306818921
 50
126.1898817849427
 51
139.47166558617539
  0
ARC
  5
692
  8
0
 10
15.27217096090782
 20
11.96826608408076
 30
0.0
 40
1.483654731620311
 50
84.877851415385706
 51
125.7004807738723
  0
ARC
  5
693
  8
0
 10
15.170826784342429
 20
10.46075967405354
 30
0.0
 40
2.9943781238960958
 50
72.19574034930065
 51
85.521733176039959
  0
ARC
  5
694
  8
0
 10
13.98099232421408
 20
6.4458864546561667
 30
0.0
 40
7.1814019517545944
 50
62.913867887653112
 51
72.951813373907882
  0
ARC
  5
695
  8
0
 10
-62.85654324890595
 20
-145.16231983680041
 30
0.0
 40
177.14916192928891
 50
62.684654337266963
 51
63.114865194664432
  0
ARC
  5
696
  8
0
 10
19.29603405762067
 20
13.93002765340645
 30
0.0
 40
1.9023326042587829
 50
243.08807246302129
 51
254.34394226782831
  0
ARC
  5
697
  8
0
 10
18.909017979679589
 20
12.399897967906339
 30
0.0
 40
0.3270198286067018
 50
247.27106192838801
 51
301.96881552728053
  0
ARC
  5
698
  8
0
 10
18.963823507018532
 20
12.24655372385102
 30
0.0
 40
0.1714621930817601
 50
313.6433595880435
 51
358.28707749408647
  0
ARC
  5
699
  8
0
 10
18.063461565023822
 20
12.33527670863012
 30
0.0
 40
1.075848612819521
 50
354.99562197099181
 51
359.64540066667752
  0
LINE
  5
6A1
  8
0
 10
19.139289573900001
 20
12.3286184038
 30
0.0
 11
19.139321668000001
 21
12.338791193200001
 31
0.0
  0
ARC
  5
6A2
  8
0
 10
19.188741426679801
 20
12.33923216520455
 30
0.0
 40
0.0494217260349953
 50
89.309720193409888
 51
180.51123609054599
  0
LINE
  5
6A3
  8
0
 10
19.189336828199998
 20
12.3886503046
 30
0.0
 11
20.339140333300001
 21
12.3886503046
 31
0.0
  0
ARC
  5
6A4
  8
0
 10
20.33949791804168
 20
12.338651195438009
 30
0.0
 40
0.0500003878368907
 50
0.1615607542817443
 51
90.409762244942726
  0
LINE
  5
6A5
  8
0
 10
20.389498335700001
 20
12.338792185300001
 30
0.0
 11
20.3891552893
 21
12.338791193200001
 31
0.0
  0
LINE
  5
6A6
  8
0
 10
20.3891552893
 20
12.338791193200001
 30
0.0
 11
20.399598190700001
 21
11.8084085139
 31
0.0
  0
ARC
  5
6A7
  8
0
 10
26.768787711939218
 20
11.86903967948952
 30
0.0
 40
6.3694781023019607
 50
180.54540769343691
 51
197.95861731760581
  0
LINE
  5
6A8
  8
0
 10
20.709634021799999
 20
9.9051384969000082
 30
0.0
 11
20.8268118248489
 21
9.6601778462294181
 31
0.0
  0
ARC
  5
6A9
  8
0
 10
20.850170850088642
 20
9.6717208052553794
 30
0.0
 40
0.0262527879217426
 50
206.08417049123659
 51
265.70798204292169
  0
ARC
  5
6AA
  8
0
 10
20.835161226618819
 20
9.5696300443965612
 30
0.0
 40
0.0770242766909907
 50
313.43680041484032
 51
80.24936079303184
  0
ARC
  5
6AB
  8
0
 10
20.90154625964032
 20
9.4903414236631871
 30
0.0
 40
0.0269426475965117
 50
119.8904356732539
 51
259.77273193164859
  0
ARC
  5
6AC
  8
0
 10
20.812518541362049
 20
9.1740853924449635
 30
0.0
 40
0.3017402279079663
 50
4.0245777912934333
 51
73.787912569373532
  0
LINE
  5
6AD
  8
0
 10
21.114238439600001
 20
9.1952628450000002
 30
0.0
 11
18.41496326010521
 21
9.1952628450000002
 31
0.0
  0
ARC
  5
6AE
  8
0
 10
18.70971696015539
 20
9.1791131084984237
 30
0.0
 40
0.2952055439339849
 50
105.32127485252229
 51
176.8807665228756
  0
ARC
  5
6AF
  8
0
 10
18.62760964654538
 20
9.4902700121034531
 30
0.0
 40
0.0267598503996406
 50
278.8236689886312
 51
61.400951031675703
  0
ARC
  5
6B0
  8
0
 10
18.69331689449653
 20
9.5696287264789852
 30
0.0
 40
0.0770257726800377
 50
99.751326378224761
 51
226.56190263570451
  0
ARC
  5
6B1
  8
0
 10
18.677108590419891
 20
9.6731146239578383
 30
0.0
 40
0.0277537261935258
 50
276.5425120422704
 51
332.21991449930982
  0
LINE
  5
6B2
  8
0
 10
18.701894698760579
 20
9.6601791458040989
 30
0.0
 11
18.7211445698
 21
9.6947635064999993
 31
0.0
  0
ARC
  5
6B3
  8
0
 10
17.649918625501719
 20
10.35645848566887
 30
0.0
 40
1.259112889773994
 50
328.29642451306472
 51
353.36727998854019
  0
ARC
  5
6B4
  8
0
 10
18.011707323895092
 20
10.25037191168801
 30
0.0
 40
0.8897673063053572
 50
357.46548853928152
 51
49.013414215499111
  0
ARC
  5
6B5
  8
0
 10
14.985622972188651
 20
7.1548999981432964
 30
0.0
 40
5.2173674006528081
 50
46.222791676136012
 51
59.953191467747438
  0
ARC
  5
6B6
  8
0
 10
12.745733282783419
 20
4.8168735533157951
 30
0.0
 40
8.3979421951944371
 50
54.70460656240612
 51
67.576719314281618
  0
ARC
  5
6B7
  8
0
 10
15.494450812130429
 20
11.58163261308921
 30
0.0
 40
1.0968831225929281
 50
65.512972544218286
 51
100.87451897239571
  0
ARC
  5
6B8
  8
0
 10
15.389966749484641
 20
12.205305940949049
 30
0.0
 40
0.4649412093418137
 50
102.72993308816
 51
175.00894560864899
  0
ARC
  5
6B9
  8
0
 10
14.8661357081054
 20
12.25779230992806
 30
0.0
 40
0.0618354845200512
 50
261.08215833605863
 51
348.77588953365893
  0
LINE
  5
6BA
  8
0
 10
20.0452578682
 20
13.8697882131
 30
0.0
 11
19.483219163699999
 21
13.869788225300001
 31
0.0
  0
ARC
  5
6BD
  8
0
 10
19.482822670976329
 20
13.845416141812059
 30
0.0
 40
0.0243753084087794
 50
89.067976445576974
 51
170.93181120024539
  0
ARC
  5
6BE
  8
0
 10
19.357634856674249
 20
13.882111123207251
 30
0.0
 40
0.1063393214139027
 50
285.08115706825612
 51
342.00103146562827
  0
LINE
  5
6BF
  8
0
 10
19.385302963399951
 20
13.779434313999991
 30
0.0
 11
19.3593531912
 21
13.773070349399999
 31
0.0
  0
ARC
  5
6C0
  8
0
 10
19.36073603507203
 20
13.74673239777003
 30
0.0
 40
0.0263889100634014
 50
92.839243286236126
 51
186.95404815657349
  0
LINE
  5
6C1
  8
0
 10
19.334541253099999
 20
13.7435374061
 30
0.0
 11
19.3345030849
 21
13.7172370948
 31
0.0
  0
ARC
  5
6C2
  8
0
 10
19.308616093886659
 20
13.71383941628163
 30
0.0
 40
0.0261090122953479
 50
273.4148411391003
 51
7.4773541272837996
  0
ARC
  5
6C3
  8
0
 10
19.355084690622839
 20
13.535991806053699
 30
0.0
 40
0.1582306370517447
 50
106.38755035246029
 51
182.3853197101499
  0
ARC
  5
6CD
  8
0
 10
19.357248162512469
 20
13.514034754198081
 30
0.0
 40
0.1609925232002805
 50
174.52105949684341
 51
252.99582821773001
  0
ARC
  5
6CE
  8
0
 10
19.30927636874674
 20
13.33456548802695
 30
0.0
 40
0.0255303281130711
 50
351.15488756907592
 51
88.000157300439483
  0
LINE
  5
6CF
  8
0
 10
19.334503080499999
 20
13.3306398457
 30
0.0
 11
19.334541799099998
 21
13.2950580369
 31
0.0
  0
ARC
  5
6D0
  8
0
 10
19.360040253881412
 20
13.29124006374432
 30
0.0
 40
0.0258015399963916
 50
171.4978417640215
 51
269.33582015495119
  0
ARC
  5
6D1
  8
0
 10
19.331929756441639
 20
13.081413592275309
 30
0.0
 40
0.1861163290422712
 50
6.4427189339415749
 51
81.406089871374562
  0
ARC
  5
6D2
  8
0
 10
19.33767010788609
 20
13.09129945244689
 30
0.0
 40
0.1795377503887969
 50
279.37288046432951
 51
3.512055658103312
  0
LINE
  5
6D3
  8
0
 10
19.36690944179993
 20
12.91415864639999
 30
0.0
 11
19.319772116599999
 21
12.9070464994
 31
0.0
  0
ARC
  5
6D4
  8
0
 10
19.318432395815009
 20
12.88049596540495
 30
0.0
 40
0.0265646838516497
 50
87.105629157137287
 51
187.27519362074139
  0
LINE
  5
6D5
  8
0
 10
19.29208157459999
 20
12.87713194259999
 30
0.0
 11
19.292081614800001
 21
12.8759595976
 31
0.0
  0
ARC
  5
6D6
  8
0
 10
19.439074210103708
 20
12.875937167649891
 30
0.0
 40
0.1469925970150345
 50
179.9912571006513
 51
260.23641667978899
  0
ARC
  5
6D7
  8
0
 10
19.412941076651759
 20
12.704779484317671
 30
0.0
 40
0.0263217714859725
 50
352.9092754154704
 51
87.374654103988561
  0
LINE
  5
6D8
  8
0
 10
19.439061537499999
 20
12.701530302999981
 30
0.0
 11
19.439081564399999
 21
12.6989613804
 31
0.0
  0
ARC
  5
6D9
  8
0
 10
19.464664076833881
 20
12.6949931261424
 30
0.0
 40
0.0258884527209072
 50
171.18278274378409
 51
260.51864339606061
  0
LINE
  5
6DA
  8
0
 10
19.46039955820001
 20
12.66945832899999
 30
0.0
 11
19.4690615377
 21
12.668959594
 31
0.0
  0
LINE
  5
6DB
  8
0
 10
19.4690615377
 20
12.668959594
 30
0.0
 11
19.4142384787
 21
12.6689595941
 31
0.0
  0
ARC
  5
6DC
  8
0
 10
19.420817620169849
 20
12.21177503812056
 30
0.0
 40
0.4572318255800982
 50
90.823880288855463
 51
114.36707689173539
  0
ARC
  5
6DD
  8
0
 10
19.239852589063531
 20
12.603665433670921
 30
0.0
 40
0.0257706760022745
 50
107.42176100742191
 51
186.4801495639478
  0
LINE
  5
6DE
  8
0
 10
19.2142384785
 20
12.60082904835618
 30
0.0
 11
19.2142384785
 21
12.4161074224
 31
0.0
  0
ARC
  5
6E1
  8
0
 10
19.239871730941768
 20
12.413259823962729
 30
0.0
 40
0.0257909373153305
 50
173.66100214839071
 51
252.59084223880311
  0
ARC
  5
6E3
  8
0
 10
20.045654363056229
 20
13.845416166436021
 30
0.0
 40
0.0243753084087794
 50
9.068193813151856
 51
90.932028567820325
  0
ARC
  5
6E4
  8
0
 10
20.170842174147491
 20
13.88211115878519
 30
0.0
 40
0.1063393214139027
 50
197.99897354776891
 51
254.91884794514141
  0
LINE
  5
6E5
  8
0
 10
20.143174076406041
 20
13.779434347156959
 30
0.0
 11
20.16912384916284
 21
13.77307038482758
 31
0.0
  0
ARC
  5
6E6
  8
0
 10
20.167741007595382
 20
13.746732433076611
 30
0.0
 40
0.0263889100634014
 50
353.04595685682381
 51
87.160761727161244
  0
LINE
  5
6E7
  8
0
 10
20.193935789846979
 20
13.74353744369863
 30
0.0
 11
20.193973960348259
 21
13.71723713240198
 31
0.0
  0
ARC
  5
6E8
  8
0
 10
20.219860951658891
 20
13.713839456148721
 30
0.0
 40
0.0261090122953479
 50
172.5226508861135
 51
266.585163874297
  0
ARC
  5
6E9
  8
0
 10
20.173392370484439
 20
13.535991841854781
 30
0.0
 40
0.1582306370517447
 50
357.61468530324731
 51
73.612454660937175
  0
ARC
  5
6EA
  8
0
 10
20.171228900516059
 20
13.514034789809861
 30
0.0
 40
0.1609925232002805
 50
287.00417679566721
 51
5.4789455165539014
  0
ARC
  5
6EB
  8
0
 10
20.219200709985401
 20
13.33456552783627
 30
0.0
 40
0.0255303281130711
 50
91.999847712958015
 51
188.8451174443214
  0
LINE
  5
6EC
  8
0
 10
20.193973998575629
 20
13.330639883301981
 30
0.0
 11
20.193935283089051
 21
13.29505807449859
 31
0.0
  0
ARC
  5
6ED
  8
0
 10
20.16843682864171
 20
13.291240099111789
 30
0.0
 40
0.0258015399963916
 50
270.66418485844599
 51
8.5021632493757551
  0
ARC
  5
6EE
  8
0
 10
20.19654734444136
 20
13.08141363010245
 30
0.0
 40
0.1861163290422713
 50
98.593915142022951
 51
173.55728607945571
  0
ARC
  5
6EF
  8
0
 10
20.19080699213189
 20
13.09129948977175
 30
0.0
 40
0.179537750388797
 50
176.48794935529389
 51
260.62712454906779
  0
LINE
  5
6F0
  8
0
 10
20.161567673717929
 20
12.9141586811664
 30
0.0
 11
20.208704999540181
 21
12.90704653829094
 31
0.0
  0
ARC
  5
6F1
  8
0
 10
20.210044722648341
 20
12.880496004413111
 30
0.0
 40
0.0265646838516497
 50
352.72481139265591
 51
92.894375856259799
  0
ARC
  5
6F2
  8
0
 10
20.08940290875854
 20
12.875937196101869
 30
0.0
 40
0.1469925970150345
 50
279.76358833360808
 51
0.0087479127460263
  0
ARC
  5
6F3
  8
0
 10
20.115536057186841
 20
12.7047795150563
 30
0.0
 40
0.0263217714859725
 50
92.625350909408652
 51
187.0907295979269
  0
ARC
  5
6F4
  8
0
 10
20.063813057861019
 20
12.694993152355259
 30
0.0
 40
0.0258884527209072
 50
279.48136161733669
 51
8.8172222696131701
  0
LINE
  5
6F5
  8
0
 10
20.059415599272839
 20
12.668959619828071
 30
0.0
 11
20.11423865827285
 21
12.66895962472511
 31
0.0
  0
ARC
  5
6F6
  8
0
 10
20.10765955680678
 20
12.21177506816999
 30
0.0
 40
0.4572318255800984
 50
65.632928121661919
 51
89.176124724541978
  0
ARC
  5
6F7
  8
0
 10
20.288624553622579
 20
12.60366547955485
 30
0.0
 40
0.0257706760022745
 50
353.51985544944949
 51
72.57824400597525
  0
LINE
  5
6F8
  8
0
 10
20.314238664434288
 20
12.60082909648135
 30
0.0
 11
20.31423868059748
 21
12.416107470525169
 31
0.0
  0
ARC
  5
6F9
  8
0
 10
20.288605428404878
 20
12.413259869844991
 30
0.0
 40
0.0257909373153305
 50
287.40916277459411
 51
6.339002865006532
  0
LINE
  5
6FE
  8
0
 10
19.469061536099218
 20
12.66895959409217
 30
0.0
 11
20.059413251620981
 21
12.668959594007831
 31
0.0
  0
LINE
  5
6FF
  8
0
 10
20.059413251620981
 20
12.668959594007831
 30
0.0
 11
20.068077578729209
 21
12.669458355586
 31
0.0
  0
ATTDEF
  5
731
  8
DEFPOINTS
 10
19.759634373217661
 20
9.1831080854331706
 30
0.0
 40
0.001
  1
BRASS
  3

  2
MATERIAL
 70
     0
1001
ACDBATTR
1070
     0
1070
     1
  0
ATTDEF
  5
732
  8
DEFPOINTS
 10
19.759634373217661
 20
9.1847747520998357
 30
0.0
 40
0.001
  1
SINK FAUCET
  3

  2
PRODUCT
 70
     0
1001
ACDBATTR
1070
     0
1070
     1
  0
ATTDEF
  5
733
  8
DEFPOINTS
 10
19.759634373217661
 20
9.1864414187664991
 30
0.0
 40
0.001
  1
ARTIFACTS
  3

  2
TRADENAME
 70
     0
1001
ACDBATTR
1070
     0
1070
     1
  0
ATTDEF
  5
734
  8
DEFPOINTS
 10
19.759634373217661
 20
9.188108085433166
 30
0.0
 40
0.001
  1
K-72759
  3

  2
MODELNUMBER
 70
     0
1001
ACDBATTR
1070
     0
1070
     1
  0
LINE
  5
8A8
  8
0
 10
18.680270860754309
 20
9.6455416414576227
 30
0.0
 11
20.848206096538149
 21
9.6455416414576227
 31
0.0
  0
LINE
  5
8A9
  8
0
 10
20.888119579199991
 20
9.5137001588999883
 30
0.0
 11
18.640354974350849
 21
9.5137001588999883
 31
0.0
  0
LINE
  5
8AA
  8
0
 10
19.3593531912
 20
13.773070349399999
 30
0.0
 11
20.169380744792772
 21
13.773070349399999
 31
0.0
  0
ENDSEC
  0
EOF
