  0
SECTION
  2
HEADER
  9
$ACADVER
  1
AC1009
  9
$INSBASE
 10
221.3696917183467008
 20
12.7345274322965896
 30
0.0
  9
$EXTMIN
 10
215.6618310540185064
 20
12.7284304657733198
 30
-0.0000000000112498
  9
$EXTMAX
 10
222.9287929011927929
 20
17.4264970874491603
 30
0.0000000000002956
  9
$LIMMIN
 10
0.0
 20
0.0
  9
$LIMMAX
 10
11.6929133858000007
 20
8.2677165353999982
  9
$ORTHOMODE
 70
     0
  9
$REGENMODE
 70
     1
  9
$FILLMODE
 70
     1
  9
$QTEXTMODE
 70
     0
  9
$MIRRTEXT
 70
     0
  9
$DRAGMODE
 70
     2
  9
$LTSCALE
 40
0.6431102362
  9
$OSMODE
 70
  4095
  9
$ATTMODE
 70
     1
  9
$TEXTSIZE
 40
0.2
  9
$TRACEWID
 40
0.05
  9
$TEXTSTYLE
  7
STANDARD
  9
$CLAYER
  8
0
  9
$CELTYPE
  6
BYLAYER
  9
$CECOLOR
 62
   256
  9
$DIMSCALE
 40
1.0
  9
$DIMASZ
 40
0.1875
  9
$DIMEXO
 40
0.0625
  9
$DIMDLI
 40
0.4443307087
  9
$DIMRND
 40
0.0
  9
$DIMDLE
 40
0.0
  9
$DIMEXE
 40
0.125
  9
$DIMTP
 40
0.01
  9
$DIMTM
 40
0.01
  9
$DIMTXT
 40
1.0
  9
$DIMCEN
 40
0.1052362205
  9
$DIMTSZ
 40
0.0
  9
$DIMTOL
 70
     1
  9
$DIMLIM
 70
     0
  9
$DIMTIH
 70
     1
  9
$DIMTOH
 70
     1
  9
$DIMSE1
 70
     0
  9
$DIMSE2
 70
     0
  9
$DIMTAD
 70
     0
  9
$DIMZIN
 70
     0
  9
$DIMBLK
  1

  9
$DIMASO
 70
     1
  9
$DIMSHO
 70
     1
  9
$DIMPOST
  1
\X
  9
$DIMAPOST
  1

  9
$DIMALT
 70
     1
  9
$DIMALTD
 70
     2
  9
$DIMALTF
 40
25.3999999999999986
  9
$DIMLFAC
 40
1.0
  9
$DIMTOFL
 70
     0
  9
$DIMTVP
 40
0.0
  9
$DIMTIX
 70
     0
  9
$DIMSOXD
 70
     0
  9
$DIMSAH
 70
     0
  9
$DIMBLK1
  1

  9
$DIMBLK2
  1

  9
$DIMSTYLE
  2
STANDARD
  9
$DIMCLRD
 70
     0
  9
$DIMCLRE
 70
     0
  9
$DIMCLRT
 70
     0
  9
$DIMTFAC
 40
1.0
  9
$DIMGAP
 40
0.09
  9
$LUNITS
 70
     2
  9
$LUPREC
 70
     4
  9
$SKETCHINC
 40
0.1
  9
$FILLETRAD
 40
0.0
  9
$AUNITS
 70
     0
  9
$AUPREC
 70
     0
  9
$MENU
  1
.
  9
$ELEVATION
 40
0.0
  9
$PELEVATION
 40
0.0
  9
$THICKNESS
 40
0.0
  9
$LIMCHECK
 70
     0
  9
$BLIPMODE
 70
     0
  9
$CHAMFERA
 40
0.0
  9
$CHAMFERB
 40
0.0
  9
$SKPOLY
 70
     0
  9
$TDCREATE
 40
2458172.4620254631154239
  9
$TDUPDATE
 40
2459635.0207638889551163
  9
$TDINDWG
 40
0.1082326736
  9
$TDUSRTIMER
 40
0.1082326736
  9
$USRTIMER
 70
     1
  9
$ANGBASE
 50
0.0
  9
$ANGDIR
 70
     0
  9
$PDMODE
 70
     0
  9
$PDSIZE
 40
0.3125
  9
$PLINEWID
 40
0.0
  9
$COORDS
 70
     1
  9
$SPLFRAME
 70
     0
  9
$SPLINETYPE
 70
     6
  9
$SPLINESEGS
 70
     8
  9
$ATTDIA
 70
     1
  9
$ATTREQ
 70
     1
  9
$HANDLING
 70
     1
  9
$HANDSEED
  5
2D33
  9
$SURFTAB1
 70
     6
  9
$SURFTAB2
 70
     6
  9
$SURFTYPE
 70
     6
  9
$SURFU
 70
     6
  9
$SURFV
 70
     6
  9
$UCSNAME
  2

  9
$UCSORG
 10
0.0
 20
0.0
 30
0.0
  9
$UCSXDIR
 10
1.0
 20
0.0
 30
0.0
  9
$UCSYDIR
 10
0.0
 20
1.0
 30
0.0
  9
$PUCSNAME
  2

  9
$PUCSORG
 10
0.0
 20
0.0
 30
0.0
  9
$PUCSXDIR
 10
1.0
 20
0.0
 30
0.0
  9
$PUCSYDIR
 10
0.0
 20
1.0
 30
0.0
  9
$USERI1
 70
     0
  9
$USERI2
 70
     0
  9
$USERI3
 70
     0
  9
$USERI4
 70
     0
  9
$USERI5
 70
     0
  9
$USERR1
 40
0.0
  9
$USERR2
 40
0.0
  9
$USERR3
 40
0.0
  9
$USERR4
 40
0.0
  9
$USERR5
 40
0.0
  9
$WORLDVIEW
 70
     1
  9
$SHADEDGE
 70
     3
  9
$SHADEDIF
 70
    70
  9
$TILEMODE
 70
     1
  9
$MAXACTVP
 70
    64
  9
$PLIMCHECK
 70
     0
  9
$PEXTMIN
 10
1.0000000000000000E+20
 20
1.0000000000000000E+20
 30
1.0000000000000000E+20
  9
$PEXTMAX
 10
-1.0000000000000000E+20
 20
-1.0000000000000000E+20
 30
-1.0000000000000000E+20
  9
$PLIMMIN
 10
0.0
 20
0.0
  9
$PLIMMAX
 10
12.0
 20
9.0
  9
$UNITMODE
 70
     0
  9
$VISRETAIN
 70
     1
  9
$PLINEGEN
 70
     0
  9
$PSLTSCALE
 70
     1
  0
ENDSEC
  0
SECTION
  2
TABLES
  0
TABLE
  2
VPORT
 70
     1
  0
VPORT
  2
*ACTIVE
 70
     0
 10
0.0
 20
0.0
 11
1.0
 21
1.0
 12
16.6259573588704406
 22
0.2929929080635851
 13
0.0
 23
0.0
 14
1.0
 24
1.0
 15
0.0
 25
0.0
 16
0.0
 26
0.0
 36
25.0543030530933208
 17
202.6693546187352126
 27
14.7844708685476505
 37
0.0
 40
4.7353036094302006
 41
2.0410052910052912
 42
50.0
 43
0.0
 44
0.0
 50
0.0
 51
0.0
 71
     0
 72
   100
 73
     1
 74
     1
 75
     0
 76
     0
 77
     0
 78
     0
  0
ENDTAB
  0
TABLE
  2
LTYPE
 70
     2
  0
LTYPE
  2
CONTINUOUS
 70
     0
  3
Solid line
 72
    65
 73
     0
 40
0.0
  0
LTYPE
  2
PHANTOM2
 70
     0
  3
___ _ _ ___ _ _ ___ _ _ ___ _ _
 72
    65
 73
     6
 40
1.25
 49
0.625
 49
-0.125
 49
0.125
 49
-0.125
 49
0.125
 49
-0.125
  0
ENDTAB
  0
TABLE
  2
LAYER
 70
     2
  0
LAYER
  2
0
 70
     0
 62
   255
  6
CONTINUOUS
  0
LAYER
  2
DEFPOINTS
 70
     0
 62
     7
  6
CONTINUOUS
  0
ENDTAB
  0
TABLE
  2
STYLE
 70
     1
  0
STYLE
  2
STANDARD
 70
     0
 40
0.0
 41
0.8
 50
0.0
 71
     0
 42
0.2
  3
txt
  4

  0
ENDTAB
  0
TABLE
  2
VIEW
 70
     0
  0
ENDTAB
  0
TABLE
  2
UCS
 70
     0
  0
ENDTAB
  0
TABLE
  2
APPID
 70
     9
  0
APPID
  2
ACAD
 70
     0
  0
APPID
  2
ACAD_MLEADERVER
 70
     0
  0
APPID
  2
ACAD_EXEMPT_FROM_CAD_STANDARDS
 70
     0
  0
APPID
  2
ACAD_DSTYLE_DIMJAG
 70
     0
  0
APPID
  2
ACAD_DSTYLE_DIMTALN
 70
     0
  0
APPID
  2
ACAD_NAV_VCDISPLAY
 70
     0
  0
APPID
  2
ACAECLAYERSTANDARD
 70
     0
  0
APPID
  2
ACCMTRANSPARENCY
 70
     0
  0
APPID
  2
ACDBATTR
 70
     0
  0
ENDTAB
  0
TABLE
  2
DIMSTYLE
 70
     1
  0
DIMSTYLE
  2
STANDARD
 70
     0
  3

  4

  5

  6

  7

 40
1.0
 41
0.1875
 42
0.0625
 43
0.38
 44
0.125
 45
0.0
 46
0.0
 47
0.01
 48
0.01
140
0.15625
141
0.09
142
0.0
143
25.3999999999999986
144
1.0
145
0.0
146
1.0
147
0.09
 71
     1
 72
     0
 73
     1
 74
     1
 75
     0
 76
     0
 77
     0
 78
     4
170
     0
171
     2
172
     0
173
     0
174
     0
175
     0
176
     0
177
     0
178
     0
  0
ENDTAB
  0
ENDSEC
  0
SECTION
  2
BLOCKS
  0
BLOCK
  8
0
  2
$MODEL_SPACE
 70
     0
 10
0.0
 20
0.0
 30
0.0
  3
$MODEL_SPACE
  1

  0
ENDBLK
  5
21
  8
0
  0
BLOCK
 67
     1
  8
0
  2
$PAPER_SPACE
 70
     0
 10
0.0
 20
0.0
 30
0.0
  3
$PAPER_SPACE
  1

  0
ENDBLK
  5
1D
 67
     1
  8
0
  0
ENDSEC
  0
SECTION
  2
ENTITIES
  0
ATTDEF
  5
157D
  8
DEFPOINTS
 10
221.365079457534307
 20
12.7329252912962403
 30
0.0
 40
0.001
  1
K-72758
  3

  2
MODELNUMBER
 70
     0
1001
ACDBATTR
1070
     0
1070
     1
  0
ATTDEF
  5
157E
  8
DEFPOINTS
 10
221.365079457534307
 20
12.7312586246295698
 30
0.0
 40
0.001
  1
ARTIFACTS
  3

  2
TRADENAME
 70
     0
1001
ACDBATTR
1070
     0
1070
     1
  0
ATTDEF
  5
157F
  8
DEFPOINTS
 10
221.365079457534307
 20
12.72959195796291
 30
0.0
 40
0.001
  1
BATHROOM SINK SPOUT
  3

  2
PRODUCT
 70
     0
1001
ACDBATTR
1070
     0
1070
     1
  0
LINE
  5
2C4C
  8
0
 10
215.6977211193467099
 20
14.7345810812965894
 30
0.0
 11
215.6756236939467897
 21
14.7015562245965903
 31
0.0
  0
LINE
  5
2C4D
  8
0
 10
216.6707138728467044
 20
14.0835370822965906
 30
0.0
 11
216.6486164474468126
 21
14.0505122254965897
 31
0.0
  0
LINE
  5
2C4E
  8
0
 10
215.6950346110054966
 20
14.3192850581113102
 30
0.0
 11
216.2878499061054924
 21
13.9226234807113105
 31
0.0
  0
LINE
  5
2C4F
  8
0
 10
215.6745479202467948
 20
14.6699221238965904
 30
0.0
 11
216.6197851022467091
 21
14.0374497926965809
 31
0.0
  0
LINE
  5
2C50
  8
0
 10
216.6724591105468107
 20
14.1139409552965898
 30
0.0
 11
215.7251598819466949
 21
14.7478976059970108
 31
0.0
  0
LINE
  5
2C51
  8
0
 10
216.6688031549880975
 20
14.3318183673818602
 30
0.0
 11
215.9279547932881087
 21
14.8275310829818601
 31
0.0
  0
LINE
  5
2C52
  8
0
 10
221.8347737433095119
 20
16.4589030726073915
 30
0.0
 11
220.9046096934841046
 21
16.4589030726073915
 31
0.0
  0
ARC
  5
2C53
  8
0
 10
215.7117178541467979
 20
14.3442183570965902
 30
0.0
 40
0.03
 50
150.7834033088003878
 51
236.2129277575002959
  0
ARC
  5
2C54
  8
0
 10
216.3045331492467938
 20
13.9475567796965905
 30
0.0
 40
0.03
 50
236.2129277575002959
 51
321.6424522066997156
  0
ARC
  5
2C55
  8
0
 10
216.6236831484467018
 20
14.0671954685965908
 30
0.0
 40
0.03
 50
262.5341710549998879
 51
326.2129277575003812
  0
ARC
  5
2C56
  8
0
 10
215.7005569929467015
 20
14.6848729813965893
 30
0.0
 40
0.03
 50
146.2129277575004096
 51
209.8916844598001887
  0
ARC
  5
2C57
  8
0
 10
215.726318398396586
 20
14.7105833642944699
 30
0.0
 40
0.0373322218935228
 50
91.7783233174344559
 51
139.9979416582737883
  0
ARC
  5
2C58
  8
0
 10
216.6457805739466949
 20
14.1002203253965899
 30
0.0
 40
0.03
 50
326.2129277575003812
 51
27.2165186028001713
  0
ARC
  5
2C59
  8
0
 10
216.6521199118467962
 20
14.3068850683965891
 30
0.0
 40
0.03
 50
336.1104471450997835
 51
56.212927757500303
  0
ARC
  5
2C5A
  8
0
 10
215.9112715501468074
 20
14.8025977839965908
 30
0.0
 40
0.03
 50
56.212927757500303
 51
136.3154083697999113
  0
LINE
  5
2C5B
  8
0
 10
221.0929286264467919
 20
16.6746958665965792
 30
0.0
 11
221.0929286264467919
 21
16.700600882296591
 31
0.0
  0
LINE
  5
2C5C
  8
0
 10
221.1146917183467906
 20
16.1789179384965891
 30
0.0
 11
221.1146917183467906
 21
16.2192177227965786
 31
0.0
  0
LINE
  5
2C5D
  8
0
 10
221.150340289646806
 20
17.0238783772965903
 30
0.0
 11
221.150340289646806
 21
17.0505306869965807
 31
0.0
  0
LINE
  5
2C5E
  8
0
 10
220.0195728703467921
 20
12.7345274322965896
 30
0.0
 11
222.7198105663468084
 21
12.7345274322965896
 31
0.0
  0
LINE
  5
2C5F
  8
0
 10
220.5096917183468008
 20
14.1039176758965894
 30
0.0
 11
222.2296917183467997
 21
14.1039176758965894
 31
0.0
  0
LINE
  5
2C60
  8
0
 10
222.2296917183099936
 20
14.2289176758965894
 30
0.0
 11
220.5096917183468008
 21
14.2289176758965894
 31
0.0
  0
LINE
  5
2C61
  8
0
 10
221.0946917183468088
 20
16.0489176758965897
 30
0.0
 11
221.6446917183467917
 21
16.0489176758965897
 31
0.0
  0
LINE
  5
2C62
  8
0
 10
221.6446917183467917
 20
16.1489176758965911
 30
0.0
 11
221.0946917183468088
 21
16.1489176758965911
 31
0.0
  0
LINE
  5
2C63
  8
0
 10
221.6546915982468136
 20
16.2492392689965897
 30
0.0
 11
221.084691838446787
 21
16.2492392689965897
 31
0.0
  0
LINE
  5
2C64
  8
0
 10
221.6719456022655095
 20
16.6450365949965899
 30
0.0
 11
221.0674378344467925
 21
16.6450365949965899
 31
0.0
  0
LINE
  5
2C65
  8
0
 10
221.1176216585467955
 20
16.7301251623965896
 30
0.0
 11
221.6217617784747915
 21
16.730125162396579
 31
0.0
  0
LINE
  5
2C66
  8
0
 10
221.3696917183467008
 20
16.9979897822965889
 30
0.0
 11
221.1651866055468076
 21
16.9979897822965889
 31
0.0
  0
LINE
  5
2C67
  8
0
 10
221.6064132526919934
 20
17.0777273212965888
 30
0.0
 11
221.1329701840016071
 21
17.0777273212965817
 31
0.0
  0
ARC
  5
2C68
  8
0
 10
220.5096917183468008
 20
14.1664176758965805
 30
0.0
 40
0.0625
 50
89.9999999999006661
 51
270.0
  0
ARC
  5
2C69
  8
0
 10
220.8533644045805886
 20
16.2636927610609092
 30
0.0
 40
0.2018245410471235
 50
3.8351575779602758
 51
75.2909870848635592
  0
ARC
  5
2C6A
  8
0
 10
221.0919724057467874
 20
16.8728351057965895
 30
0.0
 40
0.1449965934
 50
280.1889865977000227
 51
59.672804464300043
  0
ARC
  5
2C6B
  8
0
 10
221.0946917183468088
 20
16.0989176758965797
 30
0.0
 40
0.05
 50
90.0
 51
270.0
  0
ARC
  5
2C6C
  8
0
 10
221.4039027661333137
 20
16.6907994458598914
 30
0.0
 40
0.7362139568695713
 50
92.663430600244368
 51
105.9651226310815986
  0
ARC
  5
2C6D
  8
0
 10
221.2762300761320091
 20
17.16333579944029
 30
0.0
 40
0.2468927145593211
 50
107.6417897058649942
 51
153.6492209349848963
  0
ARC
  5
2C6E
  8
0
 10
221.1841763214603134
 20
17.2123292434631985
 30
0.0
 40
0.1426899067047495
 50
154.8712867289341091
 51
216.2024282375583084
  0
ARC
  5
2C6F
  8
0
 10
221.2011989806605072
 20
17.2301873147231817
 30
0.0
 40
0.1670305908783058
 50
217.6968334479275882
 51
245.8905605661674088
  0
ARC
  5
2C70
  8
0
 10
221.1227431923173867
 20
17.0520501488211202
 30
0.0
 40
0.0276388955141684
 50
356.8485476422033003
 51
68.2830431216477081
  0
ARC
  5
2C71
  8
0
 10
221.1790637501636922
 20
17.0231491505710402
 30
0.0
 40
0.028732715772931
 50
178.5456961061379957
 51
241.120203529663911
  0
ARC
  5
2C72
  8
0
 10
221.1213742822849895
 20
16.701898288489879
 30
0.0
 40
0.028475227811164
 50
97.5727849069182156
 51
182.6114503237056965
  0
ARC
  5
2C73
  8
0
 10
221.0638116437521035
 20
16.6739368633047391
 30
0.0
 40
0.0291268736262125
 50
277.1516740294558758
 51
1.4932123857836079
  0
ARC
  5
2C74
  8
0
 10
221.0836907119353043
 20
16.2781929927984983
 30
0.0
 40
0.0289710264969904
 50
181.9799936517530057
 51
271.9803145711081243
  0
ARC
  5
2C75
  8
0
 10
221.0846276589589081
 20
16.2191752481083817
 30
0.0
 40
0.0300640893920461
 50
0.0809477761948868
 51
89.8776874121214036
  0
ARC
  5
2C76
  8
0
 10
221.1469705399582892
 20
16.1811960049713193
 30
0.0
 40
0.0323591086325002
 50
184.0369359883250127
 51
265.9506951090572215
  0
ARC
  5
2C77
  8
0
 10
221.0517180056197901
 20
15.9456370177519293
 30
0.0
 40
0.1118643568449453
 50
12.3285194178420099
 51
67.4084527648641512
  0
ARC
  5
2C78
  8
0
 10
220.2151039328311981
 20
15.7725300309921508
 30
0.0
 40
0.9661937143557139
 50
355.1973643692614928
 51
11.7642048280164708
  0
ARC
  5
2C79
  8
0
 10
216.42871478536469
 20
15.8724904494839691
 30
0.0
 40
4.7526328579610011
 50
355.6788026454283909
 51
357.8191757485395783
  0
ARC
  5
2C7A
  8
0
 10
220.2318235097089882
 20
14.9519861748057608
 30
0.0
 40
0.7746217112286159
 50
291.0212834197947132
 51
315.5012237974287927
  0
LINE
  5
2C7B
  8
0
 10
221.6464548102468086
 20
16.6746958665965792
 30
0.0
 11
221.6464548102468086
 21
16.700600882296591
 31
0.0
  0
LINE
  5
2C7C
  8
0
 10
221.6246917183468099
 20
16.1789179384965891
 30
0.0
 11
221.6246917183468099
 21
16.2192177227965786
 31
0.0
  0
LINE
  5
2C7D
  8
0
 10
221.5890431470467945
 20
17.0238783772965903
 30
0.0
 11
221.5890431470467945
 21
17.0505306869965807
 31
0.0
  0
LINE
  5
2C7E
  8
0
 10
221.3696917183467008
 20
16.9979897822965889
 30
0.0
 11
221.5741968311467929
 21
16.9979897822965889
 31
0.0
  0
ARC
  5
2C7F
  8
0
 10
222.2296917183467997
 20
14.1664176758965805
 30
0.0
 40
0.0625
 50
270.0
 51
90.0000000000993339
  0
ARC
  5
2C80
  8
0
 10
221.8860190320471872
 20
16.2636927610870003
 30
0.0
 40
0.201824540979789
 50
104.7090128715071984
 51
176.1648424281843006
  0
ARC
  5
2C81
  8
0
 10
221.6474110309468131
 20
16.8728351057965895
 30
0.0
 40
0.1449965934
 50
120.3271955356999001
 51
259.8110134022999205
  0
ARC
  5
2C82
  8
0
 10
221.6446917183467917
 20
16.0989176758965797
 30
0.0
 40
0.05
 50
270.0
 51
90.0
  0
ARC
  5
2C83
  8
0
 10
222.1859460790560092
 20
14.0536731278725195
 30
0.0
 40
0.0502449113388725
 50
14.2265494843735603
 51
89.7821119577367455
  0
ARC
  5
2C84
  8
0
 10
222.5853668017483074
 20
14.16836642250259
 30
0.0
 40
0.3653447549852908
 50
196.268168035623205
 51
234.5199601702040866
  0
ARC
  5
2C85
  8
0
 10
225.8183113377870086
 20
18.7222385692239612
 30
0.0
 40
5.9501164708147991
 50
234.6211756357702996
 51
237.734670939198395
  0
ARC
  5
2C86
  8
0
 10
222.255662300374297
 20
13.0738212930396998
 30
0.0
 40
0.7279934021170127
 50
30.6441599598282508
 51
57.9576169080079566
  0
ARC
  5
2C87
  8
0
 10
222.5496321486455997
 20
13.2665713583936604
 30
0.0
 40
0.3771702940015784
 50
2.8410153048057638
 51
28.2136974190105008
  0
ARC
  5
2C88
  8
0
 10
222.4399371379028025
 20
13.3065449310803601
 30
0.0
 40
0.4868669710453074
 50
334.5817069231636083
 51
357.4950077816367866
  0
ARC
  5
2C89
  8
0
 10
221.1516259969727969
 20
14.1177047038136791
 30
0.0
 40
2.006695364803126
 50
324.4662591031386114
 51
329.4449876807008764
  0
ARC
  5
2C8A
  8
0
 10
223.1211407559877102
 20
12.7327625997162794
 30
0.0
 40
0.4013340700106047
 50
146.98227472982569
 51
179.7480458504606986
  0
ARC
  5
2C8B
  8
0
 10
221.3354806705602016
 20
16.6907994458598914
 30
0.0
 40
0.7362139568695713
 50
74.0348773689183872
 51
87.336569399755632
  0
ARC
  5
2C8C
  8
0
 10
221.4631533605615061
 20
17.16333579944029
 30
0.0
 40
0.2468927145593211
 50
26.3507790650151108
 51
72.3582102941333858
  0
ARC
  5
2C8D
  8
0
 10
221.5552071152332019
 20
17.2123292434631985
 30
0.0
 40
0.1426899067047495
 50
323.7975717624416916
 51
25.1287132710658909
  0
ARC
  5
2C8E
  8
0
 10
221.5381844560330933
 20
17.2301873147231817
 30
0.0
 40
0.1670305908783058
 50
294.1094394338310281
 51
322.3031665520713887
  0
ARC
  5
2C8F
  8
0
 10
221.6166402443761001
 20
17.0520501488211202
 30
0.0
 40
0.0276388955141684
 50
111.7169568783522067
 51
183.1514523577965861
  0
ARC
  5
2C90
  8
0
 10
221.5603196865297946
 20
17.0231491505710402
 30
0.0
 40
0.028732715772931
 50
298.879796470336089
 51
1.454303893861957
  0
ARC
  5
2C91
  8
0
 10
221.6180091544084974
 20
16.701898288489879
 30
0.0
 40
0.028475227811164
 50
357.3885496762941898
 51
82.4272150930817986
  0
ARC
  5
2C92
  8
0
 10
221.6755717929414118
 20
16.6739368633047391
 30
0.0
 40
0.0291268736262125
 50
178.5067876142163925
 51
262.8483259705441242
  0
ARC
  5
2C93
  8
0
 10
221.6556927247582109
 20
16.2781929927984983
 30
0.0
 40
0.0289710264969904
 50
268.0196854288918757
 51
358.0200063482466817
  0
ARC
  5
2C94
  8
0
 10
221.6547557777346071
 20
16.2191752481083817
 30
0.0
 40
0.0300640893920461
 50
90.1223125878785964
 51
179.919052223805096
  0
ARC
  5
2C95
  8
0
 10
221.5924128967353113
 20
16.1811960049713193
 30
0.0
 40
0.0323591086325002
 50
274.0493048909427785
 51
355.9630640116748737
  0
ARC
  5
2C96
  8
0
 10
221.6876654310736967
 20
15.9456370177519293
 30
0.0
 40
0.1118643568449453
 50
112.5915472351358062
 51
167.6714805821580114
  0
ARC
  5
2C97
  8
0
 10
222.5242795038622887
 20
15.7725300309921508
 30
0.0
 40
0.9661937143557139
 50
168.2357951719835114
 51
184.8026356307383935
  0
ARC
  5
2C98
  8
0
 10
226.3106686513287968
 20
15.8724904494839691
 30
0.0
 40
4.7526328579610011
 50
182.180824251460308
 51
184.3211973545714955
  0
ARC
  5
2C99
  8
0
 10
222.5075599269844986
 20
14.9519861748057608
 30
0.0
 40
0.7746217112286159
 50
224.4987762025710936
 51
248.9787165802052016
  0
ARC
  5
2C9A
  8
0
 10
219.4103174181464908
 20
15.5049793439355401
 30
0.0
 40
1.757545237366207
 50
321.4240109049762282
 51
0.3068126246119209
  0
ARC
  5
2C9B
  8
0
 10
223.3216375412029038
 20
15.5024019798289103
 30
0.0
 40
1.7501326247428051
 50
179.6075086320466028
 51
218.6616678383645933
  0
ARC
  5
2C9C
  8
0
 10
219.4556931997362881
 20
12.6274470982824898
 30
0.0
 40
0.5739568632400402
 50
10.7523962970891898
 51
33.4774341769501405
  0
ARC
  5
2C9D
  8
0
 10
215.2796327308043942
 20
9.5052584773640056
 30
0.0
 40
5.7872639346100501
 50
36.4555722628997287
 51
59.5245209688301102
  0
ARC
  5
2C9E
  8
0
 10
217.5365267950195971
 20
13.5595029261777906
 30
0.0
 40
1.153860897267037
 50
53.9995309743886409
 51
137.0202575940105874
  0
ARC
  5
2C9F
  8
0
 10
215.4412202354783119
 20
14.5059568805060994
 30
0.0
 40
0.2851778560045812
 50
328.9489606556256831
 51
35.0966795593764616
  0
ARC
  5
2CA0
  8
0
 10
216.5572016953599075
 20
13.7592971979436598
 30
0.0
 40
0.2851062062130469
 50
77.319798276598334
 51
143.4862725822825098
  0
ARC
  5
2CA1
  8
0
 10
215.7374968520026925
 20
14.9379277595413704
 30
0.0
 40
0.1904301974469017
 50
266.285506648544299
 51
322.9978966638933002
  0
ARC
  5
2CA2
  8
0
 10
216.8503703756512948
 20
14.1974998903743401
 30
0.0
 40
0.1965566429358615
 50
150.3502445659173077
 51
205.1578647592502023
  0
ARC
  5
2CA3
  8
0
 10
216.670009747266505
 20
14.3663122956430591
 30
0.0
 40
0.0301163148756535
 50
249.2567687374547063
 51
317.9364926617602123
  0
ARC
  5
2CA4
  8
0
 10
215.9639347721351896
 20
14.8363732451107193
 30
0.0
 40
0.0292140517318752
 50
137.5007139406783097
 51
215.6769883204702012
  0
ARC
  5
2CA5
  8
0
 10
217.4783652761780104
 20
13.5443464698363201
 30
0.0
 40
2.01988252626353
 50
48.1182517161785199
 51
139.5016984265166116
  0
ARC
  5
2CA6
  8
0
 10
227.2777312342248024
 20
24.8676316388001908
 30
0.0
 40
12.9552698027341098
 50
229.2837174014848074
 51
235.4157188959613052
  0
ARC
  5
2CA7
  8
0
 10
220.8842478069371964
 20
15.7727173881340601
 30
0.0
 40
1.841229917885608
 50
238.5686020809405079
 51
251.6913965999756044
  0
ARC
  5
2CA8
  8
0
 10
220.3799783769858891
 20
14.1401270136198605
 30
0.0
 40
0.137183950384244
 50
237.2935186915213137
 51
331.6541521727706936
  0
ARC
  5
2CA9
  8
0
 10
220.5461800065959892
 20
14.0537215410907006
 30
0.0
 40
0.0501962907474492
 50
90.1428179762597352
 51
154.9273376815191909
  0
ARC
  5
2CAB
  8
0
 10
221.1033815849756934
 20
16.4124062067522694
 30
0.0
 40
0.2353908467565974
 50
98.7833217321801413
 51
158.4868723186471868
  0
ARC
  5
2CAC
  8
0
 10
220.910011546104414
 20
16.4866911469325785
 30
0.0
 40
0.0283082512076255
 50
154.8375632564695081
 51
258.9992089664855826
  0
ARC
  5
2CAD
  8
0
 10
221.6360038854369066
 20
16.4124087510049002
 30
0.0
 40
0.2353880218040126
 50
21.5127330539336015
 51
81.217072920037694
  0
ARC
  5
2CAE
  8
0
 10
221.8293718906890888
 20
16.4866911469325785
 30
0.0
 40
0.0283082512076255
 50
281.0007910335144174
 51
25.1624367435304386
  0
ENDSEC
  0
EOF
