  0
SECTION
  2
HEADER
  9
$ACADVER
  1
AC1009
  9
$INSBASE
 10
200.3552673010397882
 20
11.8463575814240905
 30
0.0
  9
$EXTMIN
 10
198.7917485599764973
 20
11.8410467734600608
 30
-0.0015258207003583
  9
$EXTMAX
 10
201.9189064594015974
 20
16.5385529872097514
 30
0.0000000349246037
  9
$LIMMIN
 10
0.0
 20
0.0
  9
$LIMMAX
 10
11.6929133858000007
 20
8.2677165353999982
  9
$ORTHOMODE
 70
     0
  9
$REGENMODE
 70
     1
  9
$FILLMODE
 70
     1
  9
$QTEXTMODE
 70
     0
  9
$MIRRTEXT
 70
     0
  9
$DRAGMODE
 70
     2
  9
$LTSCALE
 40
0.6431102362
  9
$OSMODE
 70
  4095
  9
$ATTMODE
 70
     1
  9
$TEXTSIZE
 40
0.2
  9
$TRACEWID
 40
0.05
  9
$TEXTSTYLE
  7
STANDARD
  9
$CLAYER
  8
0
  9
$CELTYPE
  6
BYLAYER
  9
$CECOLOR
 62
   256
  9
$DIMSCALE
 40
1.0
  9
$DIMASZ
 40
0.1875
  9
$DIMEXO
 40
0.0625
  9
$DIMDLI
 40
0.4443307087
  9
$DIMRND
 40
0.0
  9
$DIMDLE
 40
0.0
  9
$DIMEXE
 40
0.125
  9
$DIMTP
 40
0.01
  9
$DIMTM
 40
0.01
  9
$DIMTXT
 40
1.0
  9
$DIMCEN
 40
0.1052362205
  9
$DIMTSZ
 40
0.0
  9
$DIMTOL
 70
     1
  9
$DIMLIM
 70
     0
  9
$DIMTIH
 70
     1
  9
$DIMTOH
 70
     1
  9
$DIMSE1
 70
     0
  9
$DIMSE2
 70
     0
  9
$DIMTAD
 70
     0
  9
$DIMZIN
 70
     0
  9
$DIMBLK
  1

  9
$DIMASO
 70
     1
  9
$DIMSHO
 70
     1
  9
$DIMPOST
  1
\X
  9
$DIMAPOST
  1

  9
$DIMALT
 70
     1
  9
$DIMALTD
 70
     2
  9
$DIMALTF
 40
25.3999999999999986
  9
$DIMLFAC
 40
1.0
  9
$DIMTOFL
 70
     0
  9
$DIMTVP
 40
0.0
  9
$DIMTIX
 70
     0
  9
$DIMSOXD
 70
     0
  9
$DIMSAH
 70
     0
  9
$DIMBLK1
  1

  9
$DIMBLK2
  1

  9
$DIMSTYLE
  2
STANDARD
  9
$DIMCLRD
 70
     0
  9
$DIMCLRE
 70
     0
  9
$DIMCLRT
 70
     0
  9
$DIMTFAC
 40
1.0
  9
$DIMGAP
 40
0.09
  9
$LUNITS
 70
     2
  9
$LUPREC
 70
     4
  9
$SKETCHINC
 40
0.1
  9
$FILLETRAD
 40
0.0
  9
$AUNITS
 70
     0
  9
$AUPREC
 70
     0
  9
$MENU
  1
.
  9
$ELEVATION
 40
0.0
  9
$PELEVATION
 40
0.0
  9
$THICKNESS
 40
0.0
  9
$LIMCHECK
 70
     0
  9
$BLIPMODE
 70
     0
  9
$CHAMFERA
 40
0.0
  9
$CHAMFERB
 40
0.0
  9
$SKPOLY
 70
     0
  9
$TDCREATE
 40
2458172.4620254631154239
  9
$TDUPDATE
 40
2459635.0203240741975605
  9
$TDINDWG
 40
0.1067383796
  9
$TDUSRTIMER
 40
0.1067383796
  9
$USRTIMER
 70
     1
  9
$ANGBASE
 50
0.0
  9
$ANGDIR
 70
     0
  9
$PDMODE
 70
     0
  9
$PDSIZE
 40
0.3125
  9
$PLINEWID
 40
0.0
  9
$COORDS
 70
     1
  9
$SPLFRAME
 70
     0
  9
$SPLINETYPE
 70
     6
  9
$SPLINESEGS
 70
     8
  9
$ATTDIA
 70
     1
  9
$ATTREQ
 70
     1
  9
$HANDLING
 70
     1
  9
$HANDSEED
  5
3811
  9
$SURFTAB1
 70
     6
  9
$SURFTAB2
 70
     6
  9
$SURFTYPE
 70
     6
  9
$SURFU
 70
     6
  9
$SURFV
 70
     6
  9
$UCSNAME
  2

  9
$UCSORG
 10
0.0
 20
0.0
 30
0.0
  9
$UCSXDIR
 10
1.0
 20
0.0
 30
0.0
  9
$UCSYDIR
 10
0.0
 20
1.0
 30
0.0
  9
$PUCSNAME
  2

  9
$PUCSORG
 10
0.0
 20
0.0
 30
0.0
  9
$PUCSXDIR
 10
1.0
 20
0.0
 30
0.0
  9
$PUCSYDIR
 10
0.0
 20
1.0
 30
0.0
  9
$USERI1
 70
     0
  9
$USERI2
 70
     0
  9
$USERI3
 70
     0
  9
$USERI4
 70
     0
  9
$USERI5
 70
     0
  9
$USERR1
 40
0.0
  9
$USERR2
 40
0.0
  9
$USERR3
 40
0.0
  9
$USERR4
 40
0.0
  9
$USERR5
 40
0.0
  9
$WORLDVIEW
 70
     1
  9
$SHADEDGE
 70
     3
  9
$SHADEDIF
 70
    70
  9
$TILEMODE
 70
     1
  9
$MAXACTVP
 70
    64
  9
$PLIMCHECK
 70
     0
  9
$PEXTMIN
 10
1.0000000000000000E+20
 20
1.0000000000000000E+20
 30
1.0000000000000000E+20
  9
$PEXTMAX
 10
-1.0000000000000000E+20
 20
-1.0000000000000000E+20
 30
-1.0000000000000000E+20
  9
$PLIMMIN
 10
0.0
 20
0.0
  9
$PLIMMAX
 10
12.0
 20
9.0
  9
$UNITMODE
 70
     0
  9
$VISRETAIN
 70
     1
  9
$PLINEGEN
 70
     0
  9
$PSLTSCALE
 70
     1
  0
ENDSEC
  0
SECTION
  2
TABLES
  0
TABLE
  2
VPORT
 70
     1
  0
VPORT
  2
*ACTIVE
 70
     0
 10
0.0
 20
0.0
 11
1.0
 21
1.0
 12
8.0099453968275895
 22
-0.0150702048902662
 13
0.0
 23
0.0
 14
1.0
 24
1.0
 15
0.0
 25
0.0
 16
0.0
 26
0.0
 36
16.3429782064407014
 17
192.3453821128615004
 27
14.2048700852251706
 37
0.0
 40
4.7347387596975006
 41
2.0410052910052912
 42
50.0
 43
0.0
 44
0.0
 50
0.0
 51
0.0
 71
     0
 72
   100
 73
     1
 74
     1
 75
     0
 76
     0
 77
     0
 78
     0
  0
ENDTAB
  0
TABLE
  2
LTYPE
 70
     2
  0
LTYPE
  2
CONTINUOUS
 70
     0
  3
Solid line
 72
    65
 73
     0
 40
0.0
  0
LTYPE
  2
PHANTOM2
 70
     0
  3
___ _ _ ___ _ _ ___ _ _ ___ _ _
 72
    65
 73
     6
 40
1.25
 49
0.625
 49
-0.125
 49
0.125
 49
-0.125
 49
0.125
 49
-0.125
  0
ENDTAB
  0
TABLE
  2
LAYER
 70
     2
  0
LAYER
  2
0
 70
     0
 62
   255
  6
CONTINUOUS
  0
LAYER
  2
DEFPOINTS
 70
     0
 62
     7
  6
CONTINUOUS
  0
ENDTAB
  0
TABLE
  2
STYLE
 70
     1
  0
STYLE
  2
STANDARD
 70
     0
 40
0.0
 41
0.8
 50
0.0
 71
     0
 42
0.2
  3
txt
  4

  0
ENDTAB
  0
TABLE
  2
VIEW
 70
     0
  0
ENDTAB
  0
TABLE
  2
UCS
 70
     0
  0
ENDTAB
  0
TABLE
  2
APPID
 70
     9
  0
APPID
  2
ACAD
 70
     0
  0
APPID
  2
ACAD_MLEADERVER
 70
     0
  0
APPID
  2
ACAD_EXEMPT_FROM_CAD_STANDARDS
 70
     0
  0
APPID
  2
ACAD_DSTYLE_DIMJAG
 70
     0
  0
APPID
  2
ACAD_DSTYLE_DIMTALN
 70
     0
  0
APPID
  2
ACAD_NAV_VCDISPLAY
 70
     0
  0
APPID
  2
ACAECLAYERSTANDARD
 70
     0
  0
APPID
  2
ACCMTRANSPARENCY
 70
     0
  0
APPID
  2
ACDBATTR
 70
     0
  0
ENDTAB
  0
TABLE
  2
DIMSTYLE
 70
     1
  0
DIMSTYLE
  2
STANDARD
 70
     0
  3

  4

  5

  6

  7

 40
1.0
 41
0.1875
 42
0.0625
 43
0.38
 44
0.125
 45
0.0
 46
0.0
 47
0.01
 48
0.01
140
0.15625
141
0.09
142
0.0
143
25.3999999999999986
144
1.0
145
0.0
146
1.0
147
0.09
 71
     1
 72
     0
 73
     1
 74
     1
 75
     0
 76
     0
 77
     0
 78
     4
170
     0
171
     2
172
     0
173
     0
174
     0
175
     0
176
     0
177
     0
178
     0
  0
ENDTAB
  0
ENDSEC
  0
SECTION
  2
BLOCKS
  0
BLOCK
  8
0
  2
$MODEL_SPACE
 70
     0
 10
0.0
 20
0.0
 30
0.0
  3
$MODEL_SPACE
  1

  0
ENDBLK
  5
21
  8
0
  0
BLOCK
 67
     1
  8
0
  2
$PAPER_SPACE
 70
     0
 10
0.0
 20
0.0
 30
0.0
  3
$PAPER_SPACE
  1

  0
ENDBLK
  5
1D
 67
     1
  8
0
  0
ENDSEC
  0
SECTION
  2
ENTITIES
  0
ATTDEF
  5
157D
  8
DEFPOINTS
 10
200.3501280218877127
 20
11.8445593210695499
 30
0.0
 40
0.001
  1
K-72758
  3

  2
MODELNUMBER
 70
     0
1001
ACDBATTR
1070
     0
1070
     1
  0
ATTDEF
  5
157E
  8
DEFPOINTS
 10
200.3501280218877127
 20
11.8428926544028901
 30
0.0
 40
0.001
  1
ARTIFACTS
  3

  2
TRADENAME
 70
     0
1001
ACDBATTR
1070
     0
1070
     1
  0
ATTDEF
  5
157F
  8
DEFPOINTS
 10
200.3501280218877127
 20
11.8412259877362303
 30
0.0
 40
0.001
  1
BATHROOM SINK SPOUT
  3

  2
PRODUCT
 70
     0
1001
ACDBATTR
1070
     0
1070
     1
  0
LINE
  5
3443
  8
0
 10
199.7699099746396882
 20
13.4878637345240904
 30
0.0
 11
199.7699099725396934
 21
13.5208885913240895
 31
0.0
  0
LINE
  5
3444
  8
0
 10
200.0785042091397088
 20
15.7865260157240908
 30
0.0
 11
200.0785042091397088
 21
15.8124310314240901
 31
0.0
  0
LINE
  5
3445
  8
0
 10
200.1002673010397928
 20
15.29074808762409
 30
0.0
 11
200.1002673010397928
 21
15.3310478719240901
 31
0.0
  0
LINE
  5
3446
  8
0
 10
200.1359158723396945
 20
16.1357085264240894
 30
0.0
 11
200.1359158723396945
 21
16.1623608361240905
 31
0.0
  0
LINE
  5
3447
  8
0
 10
199.005148453039709
 20
11.8463575814240905
 30
0.0
 11
201.7053861490396969
 21
11.8463575814240905
 31
0.0
  0
LINE
  5
3448
  8
0
 10
199.4952673010396893
 20
13.2157478250240903
 30
0.0
 11
199.8025726252396908
 21
13.2157478250240903
 31
0.0
  0
LINE
  5
3449
  8
0
 10
199.8254237642373994
 20
13.3407478250240903
 30
0.0
 11
199.4952673010396893
 21
13.3407478250240903
 31
0.0
  0
LINE
  5
344A
  8
0
 10
200.0802673010396973
 20
15.1607478250240906
 30
0.0
 11
200.6302673010397939
 21
15.1607478250240906
 31
0.0
  0
LINE
  5
344B
  8
0
 10
200.6302673010397939
 20
15.2607478250240902
 30
0.0
 11
200.0802673010396973
 21
15.2607478250240902
 31
0.0
  0
LINE
  5
344C
  8
0
 10
200.640267180939702
 20
15.3610694181240905
 30
0.0
 11
200.0702674211397891
 21
15.3610694181240905
 31
0.0
  0
LINE
  5
344D
  8
0
 10
200.8203489793610004
 20
15.5707332218240797
 30
0.0
 11
199.8901849296184992
 21
15.5707332218240797
 31
0.0
  0
LINE
  5
344E
  8
0
 10
200.6575211849585969
 20
15.7568667441240908
 30
0.0
 11
200.0530134171397947
 21
15.7568667441240908
 31
0.0
  0
LINE
  5
344F
  8
0
 10
200.1031972412397977
 20
15.8419553115240905
 30
0.0
 11
200.6073373611677937
 21
15.8419553115240799
 31
0.0
  0
LINE
  5
3450
  8
0
 10
200.3552673010397882
 20
16.1098199314240915
 30
0.0
 11
200.1507621882398098
 21
16.1098199314240915
 31
0.0
  0
LINE
  5
3451
  8
0
 10
200.5919888353849956
 20
16.1895574704240914
 30
0.0
 11
200.1185457666946093
 21
16.1895574704240914
 31
0.0
  0
ARC
  5
3452
  8
0
 10
199.4952673010396893
 20
13.2782478250240903
 30
0.0
 40
0.0625
 50
89.9999999999006661
 51
270.0
  0
ARC
  5
3453
  8
0
 10
200.0889566549639937
 20
15.5242364785989402
 30
0.0
 40
0.2353906471908481
 50
98.7832029609308933
 51
158.4868852671764898
  0
ARC
  5
3454
  8
0
 10
199.8389402149589955
 20
15.3755230006154608
 30
0.0
 40
0.2018243078232055
 50
3.8351362875214372
 51
75.2911382467453478
  0
ARC
  5
3455
  8
0
 10
200.0775479884397043
 20
15.9846652549240904
 30
0.0
 40
0.1449965934
 50
280.1889865977000227
 51
59.672804464300043
  0
ARC
  5
3456
  8
0
 10
200.0802673010396973
 20
15.2107478250240895
 30
0.0
 40
0.05
 50
90.0
 51
270.0
  0
ARC
  5
3457
  8
0
 10
199.5390129403305082
 20
13.1655032770000204
 30
0.0
 40
0.0502449113388725
 50
90.2178880422632687
 51
165.7734505156263936
  0
ARC
  5
3458
  8
0
 10
199.1395922176382101
 20
13.2801965716300892
 30
0.0
 40
0.3653447549852908
 50
305.4800398297959987
 51
343.7318319643763971
  0
ARC
  5
3459
  8
0
 10
195.9066476815995941
 20
17.8340687183514603
 30
0.0
 40
5.9501164708147991
 50
302.265329060801605
 51
305.3788243642310931
  0
ARC
  5
345A
  8
0
 10
199.4692967190121919
 20
12.1856514421672006
 30
0.0
 40
0.7279934021170127
 50
122.0423830919920931
 51
149.3558400401716995
  0
ARC
  5
345B
  8
0
 10
199.1601366793038039
 20
12.3844988505874198
 30
0.0
 40
0.3609067843808972
 50
151.4992061410131896
 51
177.9997545889517028
  0
ARC
  5
345C
  8
0
 10
199.2661215984726937
 20
12.4116115324964493
 30
0.0
 40
0.4668974929449722
 50
181.7815918609138066
 51
205.6641701637418009
  0
ARC
  5
345D
  8
0
 10
200.5733330224136921
 20
13.22953485294118
 30
0.0
 40
2.006695364803126
 50
210.55501231929901
 51
215.5337408968613033
  0
ARC
  5
345E
  8
0
 10
198.6038182633988072
 20
11.8445927488437803
 30
0.0
 40
0.4013340700106047
 50
0.251954149539261
 51
33.0177252701743171
  0
ARC
  5
345F
  8
0
 10
200.3894783488262874
 20
15.8026295949873905
 30
0.0
 40
0.7362139568695713
 50
92.663430600244368
 51
105.9651226310815986
  0
ARC
  5
3460
  8
0
 10
200.2618056588250113
 20
16.2751659485677891
 30
0.0
 40
0.2468927145593211
 50
107.6417897058666
 51
153.6492209349848963
  0
ARC
  5
3461
  8
0
 10
200.2176864931331011
 20
16.3165162939543187
 30
0.0
 40
0.1898095773488356
 50
158.9304171743224003
 51
178.3553703283301957
  0
ARC
  5
3462
  8
0
 10
200.1744745138493045
 20
16.3241746691645595
 30
0.0
 40
0.1465360864676645
 50
180.8644545450544001
 51
215.1165395830352907
  0
ARC
  5
3463
  8
0
 10
200.1867745633535094
 20
16.3420174638506914
 30
0.0
 40
0.1670305908783058
 50
217.6968334479275882
 51
245.8905605661674088
  0
ARC
  5
3464
  8
0
 10
200.1083187750103889
 20
16.16388029794863
 30
0.0
 40
0.0276388955141684
 50
356.8485476422031866
 51
68.2830431216477081
  0
ARC
  5
3465
  8
0
 10
200.1646393328566944
 20
16.1349792996985393
 30
0.0
 40
0.028732715772931
 50
178.5456961061379957
 51
241.120203529663911
  0
ARC
  5
3466
  8
0
 10
200.1069498649779916
 20
15.8137284376173799
 30
0.0
 40
0.028475227811164
 50
97.5727849069182156
 51
182.6114503237056965
  0
ARC
  5
3467
  8
0
 10
200.0493872264451056
 20
15.7857670124322507
 30
0.0
 40
0.0291268736262125
 50
277.1516740294558758
 51
1.4932123857836079
  0
ARC
  5
3468
  8
0
 10
199.895586782247392
 20
15.5985212961046802
 30
0.0
 40
0.0283082512076255
 50
154.8375632564695081
 51
258.9992089664855826
  0
ARC
  5
3469
  8
0
 10
200.0692662946283917
 20
15.3900231419259992
 30
0.0
 40
0.0289710264969904
 50
181.9799936517530057
 51
271.9803145711081243
  0
ARC
  5
346A
  8
0
 10
200.0702032416519103
 20
15.3310053972358897
 30
0.0
 40
0.0300640893920461
 50
0.0809477761948868
 51
89.8776874121214036
  0
ARC
  5
346B
  8
0
 10
200.1325461226512914
 20
15.2930261540988308
 30
0.0
 40
0.0323591086325002
 50
184.0369359883250127
 51
265.9506951090572215
  0
ARC
  5
346C
  8
0
 10
200.0372935883127923
 20
15.0574671668794302
 30
0.0
 40
0.1118643568449453
 50
12.3285194178420099
 51
67.4084527648641512
  0
ARC
  5
346D
  8
0
 10
199.2006795155242003
 20
14.8843601801196499
 30
0.0
 40
0.9661937143557139
 50
355.1973643692614928
 51
11.7642048280164708
  0
ARC
  5
346E
  8
0
 10
195.4142903680576921
 20
14.98432059861147
 30
0.0
 40
4.7526328579610011
 50
355.6788026454283909
 51
357.8191757485395783
  0
ARC
  5
346F
  8
0
 10
200.3718957408052859
 20
14.1750177710301895
 30
0.0
 40
0.5013172285753023
 50
91.9008207853134991
 51
115.8373088406860063
  0
ARC
  5
3470
  8
0
 10
200.3430698374249914
 20
14.2393087974825807
 30
0.0
 40
0.430895212379992
 50
116.1131959459658987
 51
179.5002190784271079
  0
LINE
  5
3471
  8
0
 10
199.9121910178396888
 20
14.2430673723240897
 30
0.0
 11
199.9028585308396941
 21
13.7536726928240896
 31
0.0
  0
ARC
  5
3472
  8
0
 10
200.0911462698965124
 20
13.6508854185012307
 30
0.0
 40
0.2145168908077577
 50
145.8802475253019963
 51
158.6524811505875903
  0
ARC
  5
3473
  8
0
 10
200.2064242900007969
 20
13.6056962800563106
 30
0.0
 40
0.336405076707685
 50
104.7506235579266018
 51
150.5267825781290867
  0
ARC
  5
3474
  8
0
 10
200.3601666390676996
 20
13.1737851831162498
 30
0.0
 40
0.7941702299443416
 50
90.353467256026704
 51
107.5441590562968059
  0
ARC
  5
3475
  8
0
 10
200.2743748876148118
 20
13.1831183875710902
 30
0.0
 40
0.666835134765188
 50
102.0402052183467987
 51
125.0573439977517012
  0
ARC
  5
3476
  8
0
 10
200.3653164817478967
 20
12.7670940536272504
 30
0.0
 40
1.0926799126930029
 50
90.5269464116803846
 51
102.1534230611237035
  0
ARC
  5
3477
  8
0
 10
200.0377886127004103
 20
13.5040346617987002
 30
0.0
 40
0.2684083098466621
 50
123.0650583706551942
 51
176.3999075357374977
  0
ARC
  5
3478
  8
0
 10
200.0135887636882046
 20
13.4957833211019391
 30
0.0
 40
0.2438074487426552
 50
181.8614637143201946
 51
228.7582173288523109
  0
ARC
  5
3479
  8
0
 10
200.1740175763034131
 20
13.6525633362468
 30
0.0
 40
0.4677756474141577
 50
226.6416016948556091
 51
244.2971008093776959
  0
ARC
  5
347A
  8
0
 10
200.3686865557199894
 20
12.8481562997190597
 30
0.0
 40
0.9336924105862129
 50
90.8234972468732451
 51
119.8194284008849024
  0
ARC
  5
347B
  8
0
 10
200.0447026742818935
 20
13.4384066029424396
 30
0.0
 40
0.260782387408955
 50
122.5503884320678054
 51
170.9707959879754071
  0
ARC
  5
347C
  8
0
 10
199.9850180058377873
 20
13.4676238506871702
 30
0.0
 40
0.1982123958761126
 50
176.6132832491595934
 51
219.8323109547746981
  0
ARC
  5
347D
  8
0
 10
200.140820806167909
 20
13.5915412853663806
 30
0.0
 40
0.3972583790936733
 50
219.1631652103561123
 51
244.6712102984745911
  0
ARC
  5
347E
  8
0
 10
199.2173990924019904
 20
14.0638163239332705
 30
0.0
 40
0.7746217112286159
 50
291.0212834197947132
 51
315.5012237974287927
  0
ARC
  5
347F
  8
0
 10
198.9652810740390976
 20
13.7125749096177802
 30
0.0
 40
0.9735986306984235
 50
329.3162056430845155
 51
335.7342840117922265
  0
ARC
  5
3480
  8
0
 10
200.3464654483267111
 20
13.5514813317401401
 30
0.0
 40
0.5056257570598943
 50
243.3195134341013102
 51
270.9974461924779234
  0
ARC
  5
3481
  8
0
 10
200.1994596202522985
 20
13.2711756517711308
 30
0.0
 40
0.1892377310512423
 50
203.6296427610020032
 51
244.9825416747187887
  0
ARC
  5
3482
  8
0
 10
200.1348584909515012
 20
13.2329984194862291
 30
0.0
 40
0.115109627208881
 50
137.8400473042954957
 51
199.1040486406706975
  0
ARC
  5
3483
  8
0
 10
200.2765563038865935
 20
13.0960047900959307
 30
0.0
 40
0.3121634800515999
 50
103.4902846946912973
 51
136.6575978143098098
  0
ARC
  5
3484
  8
0
 10
200.3531571460866871
 20
12.8537849129032296
 30
0.0
 40
0.5658556675794933
 50
89.7863355267368632
 51
105.311382647588502
  0
ARC
  5
3485
  8
0
 10
200.2105383605243105
 20
13.3417803021009291
 30
0.0
 40
0.2017672146524442
 50
202.5143356279301088
 51
248.4289607876320076
  0
ARC
  5
3486
  8
0
 10
200.3440269966075107
 20
12.8964720957163195
 30
0.0
 40
0.5743088894876877
 50
88.8785422972938761
 51
117.7212087250535006
  0
ARC
  5
3487
  8
0
 10
200.1736819650097061
 20
13.2128884496615608
 30
0.0
 40
0.2150012124463791
 50
116.7602610781761001
 51
156.5795906567811926
  0
ARC
  5
3488
  8
0
 10
200.0926888532243879
 20
13.2554231871304999
 30
0.0
 40
0.1239631119857991
 50
159.7415880484867898
 51
191.3289316637533943
  0
ARC
  5
3489
  8
0
 10
200.1745002251070105
 20
13.2819498643424492
 30
0.0
 40
0.2096271076203479
 50
194.0464166803365913
 51
247.0790899670510896
  0
ARC
  5
348A
  8
0
 10
200.3222437314483102
 20
13.5293031790883695
 30
0.0
 40
0.4965834337102047
 50
242.4885277779142996
 51
259.8969679994330022
  0
ARC
  5
348B
  8
0
 10
200.3544802672176104
 20
13.6803825306779991
 30
0.0
 40
0.6509960738265038
 50
259.4362607742231148
 51
270.0692688161083197
  0
LINE
  5
348C
  8
0
 10
200.9406246274398029
 20
13.4878637345240904
 30
0.0
 11
200.9406246295397978
 21
13.5208885913240895
 31
0.0
  0
LINE
  5
348D
  8
0
 10
200.6320303929398108
 20
15.7865260157240908
 30
0.0
 11
200.6320303929398108
 21
15.8124310314240901
 31
0.0
  0
LINE
  5
348E
  8
0
 10
200.6102673010396984
 20
15.29074808762409
 30
0.0
 11
200.6102673010396984
 21
15.3310478719240901
 31
0.0
  0
LINE
  5
348F
  8
0
 10
200.5746187297397967
 20
16.1357085264240894
 30
0.0
 11
200.5746187297397967
 21
16.1623608361240905
 31
0.0
  0
LINE
  5
3490
  8
0
 10
201.2152673010398019
 20
13.2157478250240903
 30
0.0
 11
200.9079619768398004
 21
13.2157478250240903
 31
0.0
  0
LINE
  5
3491
  8
0
 10
200.8851108378420918
 20
13.3407478250240903
 30
0.0
 11
201.2152673010398019
 21
13.3407478250240903
 31
0.0
  0
LINE
  5
3492
  8
0
 10
200.3552673010397882
 20
16.1098199314240915
 30
0.0
 11
200.5597724138397098
 21
16.1098199314240915
 31
0.0
  0
ARC
  5
3493
  8
0
 10
201.2152673010398019
 20
13.2782478250240903
 30
0.0
 40
0.0625
 50
270.0
 51
90.0000000000993339
  0
ARC
  5
3494
  8
0
 10
200.6215789557014091
 20
15.5242387777073994
 30
0.0
 40
0.2353882210373207
 50
21.512745981165061
 51
81.2169542071566468
  0
ARC
  5
3495
  8
0
 10
200.8715948426525983
 20
15.3755228196973608
 30
0.0
 40
0.201824774436134
 50
104.7091640824162937
 51
176.164821116580697
  0
ARC
  5
3496
  8
0
 10
200.6329866136397868
 20
15.9846652549240904
 30
0.0
 40
0.1449965934
 50
120.3271955356999001
 51
259.8110134022999205
  0
ARC
  5
3497
  8
0
 10
200.6302673010397939
 20
15.2107478250240895
 30
0.0
 40
0.05
 50
270.0
 51
90.0
  0
ARC
  5
3498
  8
0
 10
201.1715216617488977
 20
13.1655032770000204
 30
0.0
 40
0.0502449113388725
 50
14.2265494843736597
 51
89.7821119577367455
  0
ARC
  5
3499
  8
0
 10
201.5709423844413095
 20
13.2801965716300892
 30
0.0
 40
0.3653447549852908
 50
196.268168035623205
 51
234.5199601702040866
  0
ARC
  5
349A
  8
0
 10
204.8038869204798971
 20
17.8340687183514603
 30
0.0
 40
5.9501164708147991
 50
234.6211756357702996
 51
237.734670939198395
  0
ARC
  5
349B
  8
0
 10
201.2412378830672992
 20
12.1856514421672006
 30
0.0
 40
0.7279934021170127
 50
30.6441599598282508
 51
57.9576169080079566
  0
ARC
  5
349C
  8
0
 10
201.5186469974892987
 20
12.3717540287105603
 30
0.0
 40
0.3949110478398695
 50
3.6792548467448478
 51
27.9276487792171508
  0
ARC
  5
349D
  8
0
 10
201.4049833784623047
 20
12.4257215937454397
 30
0.0
 40
0.5085669909570267
 50
334.8268943242907199
 51
356.7732845162532271
  0
ARC
  5
349E
  8
0
 10
200.137201579665799
 20
13.22953485294118
 30
0.0
 40
2.006695364803126
 50
324.4662591031386114
 51
329.4449876807008764
  0
ARC
  5
349F
  8
0
 10
202.1067163386807124
 20
11.8445927488437803
 30
0.0
 40
0.4013340700106047
 50
146.98227472982569
 51
179.7480458504606986
  0
ARC
  5
34A0
  8
0
 10
200.3210562532532037
 20
15.8026295949873905
 30
0.0
 40
0.7362139568695713
 50
74.0348773689183872
 51
87.336569399755632
  0
ARC
  5
34A1
  8
0
 10
200.4487289432545083
 20
16.2751659485677891
 30
0.0
 40
0.2468927145593211
 50
26.3507790650151108
 51
72.3582102941333858
  0
ARC
  5
34A2
  8
0
 10
200.5431570022354038
 20
16.3247052375523687
 30
0.0
 40
0.1411084283509208
 50
323.0492902417789196
 51
358.8868262999034755
  0
ARC
  5
34A3
  8
0
 10
200.5115157501263923
 20
16.3157232602955489
 30
0.0
 40
0.1728357517342405
 50
2.0692409699212839
 51
23.540406171687561
  0
ARC
  5
34A4
  8
0
 10
200.5237600387260102
 20
16.3420174638506914
 30
0.0
 40
0.1670305908783058
 50
294.1094394338310281
 51
322.3031665520713887
  0
ARC
  5
34A5
  8
0
 10
200.6022158270691023
 20
16.16388029794863
 30
0.0
 40
0.0276388955141684
 50
111.7169568783522067
 51
183.1514523577965861
  0
ARC
  5
34A6
  8
0
 10
200.5458952692227967
 20
16.1349792996985393
 30
0.0
 40
0.028732715772931
 50
298.879796470336089
 51
1.454303893861957
  0
ARC
  5
34A7
  8
0
 10
200.6035847371014995
 20
15.8137284376173799
 30
0.0
 40
0.028475227811164
 50
357.3885496762941898
 51
82.4272150930817986
  0
ARC
  5
34A8
  8
0
 10
200.6611473756344139
 20
15.7857670124322507
 30
0.0
 40
0.0291268736262125
 50
178.5067876142163072
 51
262.8483259705441242
  0
ARC
  5
34A9
  8
0
 10
200.8149471268320951
 20
15.5985212961046802
 30
0.0
 40
0.0283082512076255
 50
281.0007910335144174
 51
25.1624367435304386
  0
ARC
  5
34AA
  8
0
 10
200.6412683074512131
 20
15.3900231419259992
 30
0.0
 40
0.0289710264969904
 50
268.0196854288918757
 51
358.0200063482467954
  0
ARC
  5
34AB
  8
0
 10
200.6403313604276093
 20
15.3310053972358897
 30
0.0
 40
0.0300640893920461
 50
90.1223125878785964
 51
179.9190522238052097
  0
ARC
  5
34AC
  8
0
 10
200.5779884794283134
 20
15.2930261540988308
 30
0.0
 40
0.0323591086325002
 50
274.0493048909427785
 51
355.9630640116748737
  0
ARC
  5
34AD
  8
0
 10
200.6732410137666989
 20
15.0574671668794302
 30
0.0
 40
0.1118643568449453
 50
112.5915472351358062
 51
167.6714805821580114
  0
ARC
  5
34AE
  8
0
 10
201.5098550865552909
 20
14.8843601801196499
 30
0.0
 40
0.9661937143557139
 50
168.2357951719835114
 51
184.8026356307383082
  0
ARC
  5
34AF
  8
0
 10
205.296244234021799
 20
14.98432059861147
 30
0.0
 40
4.7526328579610011
 50
182.180824251460308
 51
184.3211973545714102
  0
ARC
  5
34B0
  8
0
 10
200.3386388612742053
 20
14.1750177710301895
 30
0.0
 40
0.5013172285753043
 50
64.1626911593139937
 51
88.0991792146865151
  0
ARC
  5
34B1
  8
0
 10
200.3674647646544997
 20
14.2393087974825807
 30
0.0
 40
0.430895212379992
 50
0.4997809215727981
 51
63.8868040540340374
  0
LINE
  5
34B2
  8
0
 10
200.7983435842398023
 20
14.2430673723240897
 30
0.0
 11
200.807676071239797
 21
13.7536726928240896
 31
0.0
  0
ARC
  5
34B3
  8
0
 10
200.6193883321830072
 20
13.6508854185012307
 30
0.0
 40
0.2145168908077577
 50
21.3475188494123316
 51
34.1197524746979468
  0
ARC
  5
34B4
  8
0
 10
200.5041103120786943
 20
13.6056962800563106
 30
0.0
 40
0.336405076707685
 50
29.4732174218708707
 51
75.2493764420734124
  0
ARC
  5
34B5
  8
0
 10
200.3495383955794864
 20
13.1685170440357293
 30
0.0
 40
0.7994437838176239
 50
72.5129653017365854
 51
89.5894083859414962
  0
ARC
  5
34B6
  8
0
 10
200.4361597144647078
 20
13.1831183875710902
 30
0.0
 40
0.666835134765188
 50
54.9426560022482775
 51
77.9597947816531303
  0
ARC
  5
34B7
  8
0
 10
200.3526962239033082
 20
12.8343970607907298
 30
0.0
 40
1.0253339178568559
 50
77.4633027695114436
 51
89.8563277576843547
  0
ARC
  5
34B8
  8
0
 10
200.6727459893791945
 20
13.5040346617987002
 30
0.0
 40
0.2684083098466621
 50
3.6000924642624872
 51
56.9349416293448911
  0
ARC
  5
34B9
  8
0
 10
200.6969458383912865
 20
13.4957833211019391
 30
0.0
 40
0.2438074487426552
 50
311.2417826711475755
 51
358.1385362856797201
  0
ARC
  5
34BA
  8
0
 10
200.5365170257761065
 20
13.6525633362468
 30
0.0
 40
0.4677756474141577
 50
295.7028991906223041
 51
313.3583983051443056
  0
ARC
  5
34BB
  8
0
 10
200.3459930743607913
 20
12.8632857008830808
 30
0.0
 40
0.9185133941552713
 50
59.935599477321567
 51
89.4214748749217847
  0
ARC
  5
34BC
  8
0
 10
200.6658319277975977
 20
13.4384066029424396
 30
0.0
 40
0.260782387408955
 50
9.0292040120245503
 51
57.4496115679322017
  0
ARC
  5
34BD
  8
0
 10
200.7255165962417038
 20
13.4676238506871702
 30
0.0
 40
0.1982123958761126
 50
320.1676890452253019
 51
3.386716750840348
  0
ARC
  5
34BE
  8
0
 10
200.5697137959116958
 20
13.5915412853663806
 30
0.0
 40
0.3972583790936733
 50
295.3287897015254089
 51
320.836834789643774
  0
ARC
  5
34BF
  8
0
 10
201.4931355096775007
 20
14.0638163239332705
 30
0.0
 40
0.7746217112286159
 50
224.4987762025710936
 51
248.9787165802052016
  0
ARC
  5
34C0
  8
0
 10
201.7452535280403936
 20
13.7125749096177802
 30
0.0
 40
0.9735986306984235
 50
204.2657159882076883
 51
210.6837943569153992
  0
ARC
  5
34C1
  8
0
 10
200.3640691537528085
 20
13.5514813317401401
 30
0.0
 40
0.5056257570598943
 50
269.0025538075221903
 51
296.6804865658986046
  0
ARC
  5
34C2
  8
0
 10
200.5110749818271927
 20
13.2711756517711308
 30
0.0
 40
0.1892377310512423
 50
295.0174583252810976
 51
336.3703572389978831
  0
ARC
  5
34C3
  8
0
 10
200.5756761111281037
 20
13.2329984194862291
 30
0.0
 40
0.115109627208881
 50
340.8959513593292172
 51
42.159952695704547
  0
ARC
  5
34C4
  8
0
 10
200.4339782981928977
 20
13.0960047900959307
 30
0.0
 40
0.3121634800515999
 50
43.3424021856902328
 51
76.5097153053087453
  0
ARC
  5
34C5
  8
0
 10
200.357377455992804
 20
12.8537849129032296
 30
0.0
 40
0.5658556675794933
 50
74.6886173524114554
 51
90.213664473263151
  0
ARC
  5
34C6
  8
0
 10
200.3665076054720089
 20
12.8964720957163195
 30
0.0
 40
0.5743088894876877
 50
62.2787912749464496
 51
91.1214577027061239
  0
ARC
  5
34C7
  8
0
 10
200.5368526370698135
 20
13.2128884496615608
 30
0.0
 40
0.2150012124463791
 50
23.4204093432186795
 51
63.2397389218238928
  0
ARC
  5
34C8
  8
0
 10
200.6178457488551032
 20
13.2554231871304999
 30
0.0
 40
0.1239631119857991
 50
348.6710683362463783
 51
20.2584119515131604
  0
ARC
  5
34C9
  8
0
 10
200.5360343769725944
 20
13.2819498643424492
 30
0.0
 40
0.2096271076203479
 50
292.9209100329488251
 51
345.9535833196632097
  0
ARC
  5
34CA
  8
0
 10
200.3882908706312094
 20
13.5293031790883695
 30
0.0
 40
0.4965834337102047
 50
280.1030320005668841
 51
297.5114722220856152
  0
ARC
  5
34CB
  8
0
 10
200.3560543348619092
 20
13.6803825306779991
 30
0.0
 40
0.6509960738265038
 50
269.9307311838916235
 51
280.5637392257768852
  0
ARC
  5
34CD
  8
0
 10
200.3507355947384951
 20
13.64087910428794
 30
0.0
 40
0.5318538994900404
 50
246.2293463585650102
 51
270.4881994607121101
  0
ARC
  5
34CE
  8
0
 10
200.3497466069435973
 20
13.6401757305337501
 30
0.0
 40
0.5189886905762378
 50
247.1473516955391005
 51
270.6094900391855731
  0
ARC
  5
34CF
  8
0
 10
200.2498184378243025
 20
13.4030661410769198
 30
0.0
 40
0.2616822654797923
 50
224.5462114717971929
 51
247.1473516955391005
  0
ARC
  5
34D0
  8
0
 10
200.160966583418201
 20
13.3156106880662204
 30
0.0
 40
0.1370102626374798
 50
195.7434506514456984
 51
224.5462114717971929
  0
ARC
  5
34D1
  8
0
 10
200.3552605369366972
 20
13.7068330583318794
 30
0.0
 40
0.572517363847747
 50
264.4267669523990776
 51
270.0006769306631895
  0
LINE
  5
34D2
  8
0
 10
200.2992076530397014
 20
13.1674783767240893
 30
0.0
 11
200.305531454839695
 21
13.1874226722240895
 31
0.0
  0
LINE
  5
34D3
  8
0
 10
200.305531454839695
 20
13.1874226722240895
 30
0.0
 11
200.3055314548732895
 21
13.1596099371295594
 31
0.0
  0
LINE
  5
34D4
  8
0
 10
200.3045059734386086
 20
13.1514675973205399
 30
0.0
 11
200.3002331340219939
 21
13.1379917206067205
 31
0.0
  0
ARC
  5
34D5
  8
0
 10
200.355168143856389
 20
13.6698519253208293
 30
0.0
 40
0.5208540746003095
 50
264.4181578157709964
 51
270.0219447981132248
  0
ARC
  5
34D6
  8
0
 10
200.2721148397363038
 20
13.1596828232505203
 30
0.0
 40
0.0334166946241168
 50
345.7684032021912799
 51
359.8750304159477196
  0
LINE
  5
34D7
  8
0
 10
200.2992076530397014
 20
13.1674783767240893
 30
0.0
 11
200.2992076530397014
 21
13.1382893633112694
 31
0.0
  0
ARC
  5
34D8
  8
0
 10
200.3016611415285126
 20
13.1384488595147602
 30
0.0
 40
0.0024586672819192
 50
183.7194463138019103
 51
215.4728401011460051
  0
ARC
  5
34D9
  8
0
 10
200.2980251525638096
 20
13.1386445418232807
 30
0.0
 40
0.0023024677327758
 50
315.196803697866585
 51
343.5289344435552721
  0
ARC
  5
34DA
  8
0
 10
200.3429848390586869
 20
13.6118487291445796
 30
0.0
 40
0.4260753850934436
 50
249.0996423008610918
 51
264.9570096022231951
  0
ARC
  5
34DB
  8
0
 10
200.3467197504139108
 20
13.6727507995124995
 30
0.0
 40
0.5075013503699911
 50
252.1295653766605938
 51
264.6281226672991806
  0
ARC
  5
34DC
  8
0
 10
200.2774416533131898
 20
13.4506536771195098
 30
0.0
 40
0.3032291760751559
 50
232.2945784977883079
 51
249.5176469899869005
  0
ARC
  5
34DD
  8
0
 10
200.1800814690527943
 20
13.1863019857696706
 30
0.0
 40
0.0109079136672553
 50
313.5567256008133086
 51
358.3894530968627237
  0
ARC
  5
34DE
  8
0
 10
200.112708092228587
 20
13.2256469912046608
 30
0.0
 40
0.0079579812462951
 50
292.9447145591128105
 51
356.1340678793999928
  0
LINE
  5
34DF
  8
0
 10
200.0908166410397939
 20
13.2413071310240902
 30
0.0
 11
200.1206479654397867
 21
13.2529231828240892
 31
0.0
  0
LINE
  5
34E0
  8
0
 10
200.1206479654397867
 20
13.2529231828240892
 30
0.0
 11
200.1206479654397867
 21
13.2251104477241004
 31
0.0
  0
LINE
  5
34E1
  8
0
 10
200.0908166410397939
 20
13.2413071310240902
 30
0.0
 11
200.0908166410397939
 21
13.2134943959240907
 31
0.0
  0
ARC
  5
34E2
  8
0
 10
200.0942446994206989
 20
13.2133330376938005
 30
0.0
 40
0.0034318538345287
 50
177.3050847274423916
 51
228.8429873445572014
  0
ARC
  5
34E3
  8
0
 10
200.0940675802675059
 20
13.2138602855608909
 30
0.0
 40
0.0037432054724292
 50
236.2158389499529108
 51
295.0781523545668961
  0
LINE
  5
34E4
  8
0
 10
200.0956541532034123
 20
13.2104699502488803
 30
0.0
 11
200.1158104538681926
 21
13.2183186340909398
 31
0.0
  0
LINE
  5
34E5
  8
0
 10
200.1909850736398084
 20
13.2138081469232205
 30
0.0
 11
200.1909850736398084
 21
13.1859954118240896
 31
0.0
  0
ARC
  5
34E6
  8
0
 10
200.2875179843298952
 20
13.4423800210932907
 30
0.0
 40
0.273955599899753
 50
232.4745785275063952
 51
249.3678405601058898
  0
ARC
  5
34E7
  8
0
 10
200.2031804566462938
 20
13.3639172383526805
 30
0.0
 40
0.1383159154524003
 50
199.9942938211449075
 51
233.3664013886998134
  0
ARC
  5
34E8
  8
0
 10
200.2037818822163899
 20
13.3861417042929407
 30
0.0
 40
0.1836796105398314
 50
214.588298000401295
 51
232.0471774857410026
  0
LINE
  5
34E9
  8
0
 10
200.043153032911988
 20
13.2809560500311701
 30
0.0
 11
200.067385507039802
 21
13.2833322104240903
 31
0.0
  0
LINE
  5
34EA
  8
0
 10
200.0732013008397985
 20
13.3166233537240899
 30
0.0
 11
200.0732013008397985
 21
13.2888106187240904
 31
0.0
  0
LINE
  5
34EB
  8
0
 10
200.0375237180556098
 20
13.2840792748818703
 30
0.0
 11
200.0355084358598106
 21
13.2911344051530893
 31
0.0
  0
ARC
  5
34EC
  8
0
 10
200.0670933834358891
 20
13.2894685070080403
 30
0.0
 40
0.0061432460480592
 50
272.7255558181711876
 51
353.8523305373803964
  0
ARC
  5
34ED
  8
0
 10
200.0425457229897859
 20
13.2864804321489505
 30
0.0
 40
0.0055576634591139
 50
205.1307153965695136
 51
276.2734852776237062
  0
ARC
  5
34EE
  8
0
 10
200.3500186748993031
 20
13.5865744911903494
 30
0.0
 40
0.396984815220028
 50
244.3043634355175868
 51
270.7575425466873753
  0
ARC
  5
34EF
  8
0
 10
200.2540100011553079
 20
13.3870443166707105
 30
0.0
 40
0.1755577256896088
 50
211.4951706305876087
 51
244.3043634355175868
  0
ARC
  5
34F0
  8
0
 10
200.1740492698131106
 20
13.3380535877147803
 30
0.0
 40
0.0817824086791318
 50
172.6982278981238039
 51
211.4951706305876087
  0
ARC
  5
34F1
  8
0
 10
200.213446526342409
 20
13.3992043471928692
 30
0.0
 40
0.1511770875198608
 50
204.9195817150344965
 51
224.4895610984816869
  0
ARC
  5
34F2
  8
0
 10
200.3493784990373001
 20
13.5686029029993591
 30
0.0
 40
0.3642399059122337
 50
244.8822635892441895
 51
270.9263625320082269
  0
ARC
  5
34F3
  8
0
 10
200.2666591309325099
 20
13.3921581688269402
 30
0.0
 40
0.1693675423589568
 50
218.7987140326185909
 51
244.8822635892458095
  0
ARC
  5
34F4
  8
0
 10
200.2005241987014017
 20
13.3389867619899398
 30
0.0
 40
0.0845086726620543
 50
183.2963432228733893
 51
218.7987140326185056
  0
ARC
  5
34F5
  8
0
 10
200.192896881709089
 20
13.3309366229501602
 30
0.0
 40
0.0768078435008715
 50
161.0495765653494118
 51
177.6190494278691006
  0
ARC
  5
34F6
  8
0
 10
200.204313303034013
 20
13.3270901967099906
 30
0.0
 40
0.0888546477023845
 50
151.3968689007870125
 51
161.0944126196721129
  0
ARC
  5
34F7
  8
0
 10
200.3550749544862981
 20
13.6432905778909408
 30
0.0
 40
0.4336629901869555
 50
262.9144796060315912
 51
270.0254129273856165
  0
ARC
  5
34F8
  8
0
 10
200.348982596414686
 20
13.5942772146856594
 30
0.0
 40
0.3842724384633151
 50
250.6173106538508932
 51
262.914479492907617
  0
ARC
  5
34F9
  8
0
 10
200.3059909828687069
 20
13.4720780827145905
 30
0.0
 40
0.2547312994773821
 50
239.181091164844787
 51
250.6173106538508932
  0
ARC
  5
34FA
  8
0
 10
200.262452023796186
 20
13.4025306091008307
 30
0.0
 40
0.1727073766870706
 50
226.2501059441578946
 51
239.7649358005473914
  0
ARC
  5
34FB
  8
0
 10
200.2363716379458936
 20
13.3750233658297795
 30
0.0
 40
0.1348023306847296
 50
218.5681769676727981
 51
226.1727422692360108
  0
LINE
  5
34FC
  8
0
 10
200.3234337930396975
 20
13.39479103552409
 30
0.0
 11
200.3234332728816867
 21
13.4069344140905997
 31
0.0
  0
LINE
  5
34FD
  8
0
 10
200.3332757110397893
 20
13.3947914134240893
 30
0.0
 11
200.3332757110397893
 21
13.4069040777867698
 31
0.0
  0
LINE
  5
34FE
  8
0
 10
200.2809869937497069
 20
13.3859691191974708
 30
0.0
 11
200.2984332479396983
 21
13.3803680976240909
 31
0.0
  0
LINE
  5
34FF
  8
0
 10
200.3014418909397989
 20
13.3804811994240893
 30
0.0
 11
200.3014417104396898
 21
13.4098179922240899
 31
0.0
  0
LINE
  5
3500
  8
0
 10
200.2775365493397999
 20
13.4062915973240901
 30
0.0
 11
200.3014410564396997
 21
13.4139660060703498
 31
0.0
  0
LINE
  5
3501
  8
0
 10
200.3014417104396898
 20
13.4098179922240899
 30
0.0
 11
200.2949807737396952
 21
13.4118923998240902
 31
0.0
  0
LINE
  5
3502
  8
0
 10
200.3014417104396898
 20
13.4098179922240899
 30
0.0
 11
200.3079010723398028
 21
13.4118918942240892
 31
0.0
  0
LINE
  5
3503
  8
0
 10
200.3014410564396997
 20
13.4139650576240896
 30
0.0
 11
200.3258113394398094
 21
13.4061753962240893
 31
0.0
  0
ARC
  5
3504
  8
0
 10
200.2997525541535992
 20
13.3853462761692903
 30
0.0
 40
0.0051500320886174
 50
255.1568169071211116
 51
289.1489154713265179
  0
ARC
  5
3505
  8
0
 10
200.3031803819187076
 20
13.3855747830206209
 30
0.0
 40
0.005382094828097
 50
251.1547141327150996
 51
278.5979642677285142
  0
ARC
  5
3506
  8
0
 10
200.3301268212082107
 20
13.3956308984392791
 30
0.0
 40
0.0067459909209133
 50
187.1472895044522033
 51
254.7662560373445046
  0
ARC
  5
3507
  8
0
 10
200.326425519847902
 20
13.3957669842196196
 30
0.0
 40
0.0069192876526256
 50
286.1855321874824085
 51
351.8960470667992126
  0
LINE
  5
3508
  8
0
 10
200.3218950892930934
 20
13.3859695137069608
 30
0.0
 11
200.328354451139802
 21
13.3838956117240908
 31
0.0
  0
LINE
  5
3509
  8
0
 10
200.328354451139802
 20
13.3838956117240908
 30
0.0
 11
200.3348138131397889
 21
13.3859695137240902
 31
0.0
  0
LINE
  5
350A
  8
0
 10
200.3348138131397889
 20
13.3859695137240902
 30
0.0
 11
200.3527240766397028
 21
13.3802530126240899
 31
0.0
  0
LINE
  5
350B
  8
0
 10
200.3218950892930934
 20
13.3859695137069608
 30
0.0
 11
200.3039850062397988
 21
13.3802531738240909
 31
0.0
  0
LINE
  5
350C
  8
0
 10
200.2965209432398126
 20
13.3688681844240893
 30
0.0
 11
200.2965204243396045
 21
13.3809821988594706
 31
0.0
  0
LINE
  5
350D
  8
0
 10
200.3063628612397906
 20
13.3688685623240904
 30
0.0
 11
200.3063628612397906
 21
13.3810121109731597
 31
0.0
  0
ARC
  5
350E
  8
0
 10
200.303213971408212
 20
13.3697080473392695
 30
0.0
 40
0.0067459909209133
 50
187.1472895044522033
 51
254.7662560373445046
  0
ARC
  5
350F
  8
0
 10
200.2995126700479034
 20
13.3698441331196207
 30
0.0
 40
0.0069192876526256
 50
286.1855321874824085
 51
351.8960470667992126
  0
LINE
  5
3510
  8
0
 10
200.2809869929934905
 20
13.3341238017546893
 30
0.0
 11
200.2984332846824032
 21
13.3285227681425091
 31
0.0
  0
LINE
  5
3511
  8
0
 10
200.3014419276823901
 20
13.3286358699425094
 30
0.0
 11
200.3014417471823947
 21
13.3579726627425099
 31
0.0
  0
LINE
  5
3512
  8
0
 10
200.2775365860823911
 20
13.3544462678425102
 30
0.0
 11
200.2949814824835073
 21
13.3600468545836701
 31
0.0
  0
LINE
  5
3513
  8
0
 10
200.3014417471823947
 20
13.3579726627425099
 30
0.0
 11
200.2949808104824001
 21
13.3600470703425103
 31
0.0
  0
LINE
  5
3514
  8
0
 10
200.3014417471823947
 20
13.3579726627425099
 30
0.0
 11
200.307901109082394
 21
13.3600465647425093
 31
0.0
  0
LINE
  5
3515
  8
0
 10
200.307901109082394
 20
13.3600465647425093
 30
0.0
 11
200.325345405739796
 21
13.3544469938240908
 31
0.0
  0
ARC
  5
3516
  8
0
 10
200.2997525908961904
 20
13.3335009466877104
 30
0.0
 40
0.0051500320886174
 50
255.1568169071211116
 51
289.1489154713265179
  0
ARC
  5
3517
  8
0
 10
200.3031804186614124
 20
13.3337294535390303
 30
0.0
 40
0.005382094828097
 50
251.1547141327150996
 51
278.5979642677285142
  0
LINE
  5
3518
  8
0
 10
200.321895126035713
 20
13.3341241842253702
 30
0.0
 11
200.3283544878823932
 21
13.3320502822425109
 31
0.0
  0
LINE
  5
3519
  8
0
 10
200.3283544878823932
 20
13.3320502822425109
 30
0.0
 11
200.3348138498824085
 21
13.3341241842425102
 31
0.0
  0
LINE
  5
351A
  8
0
 10
200.3283548746398139
 20
13.33619702782409
 30
0.0
 11
200.3527241133824077
 21
13.32840768314251
 31
0.0
  0
LINE
  5
351B
  8
0
 10
200.321895126035713
 20
13.3341241842253702
 30
0.0
 11
200.30398504298239
 21
13.3284078443425091
 31
0.0
  0
LINE
  5
351C
  8
0
 10
200.2745285522823906
 20
13.2843522087425097
 30
0.0
 11
200.2984332846824032
 21
13.2766777291425004
 31
0.0
  0
LINE
  5
351D
  8
0
 10
200.3014419276823901
 20
13.2767908309425096
 30
0.0
 11
200.3014417471823947
 21
13.3061276237424995
 31
0.0
  0
LINE
  5
351E
  8
0
 10
200.2775365860823911
 20
13.3026012288424997
 30
0.0
 11
200.2949814824835073
 21
13.3082018155836597
 31
0.0
  0
LINE
  5
351F
  8
0
 10
200.3014417471823947
 20
13.3061276237424995
 30
0.0
 11
200.2949808104824001
 21
13.3082020313425105
 31
0.0
  0
LINE
  5
3520
  8
0
 10
200.3014417471823947
 20
13.3061276237424995
 30
0.0
 11
200.307901109082394
 21
13.3082015257425095
 31
0.0
  0
ARC
  5
3521
  8
0
 10
200.2997525908961904
 20
13.2816559076877105
 30
0.0
 40
0.0051500320886174
 50
255.1568169071211116
 51
289.1489154713265179
  0
ARC
  5
3522
  8
0
 10
200.3031804186614124
 20
13.2818844145390305
 30
0.0
 40
0.005382094828097
 50
251.1547141327150996
 51
278.5979642677285142
  0
LINE
  5
3523
  8
0
 10
200.321895126035713
 20
13.2822791452253703
 30
0.0
 11
200.3283544878823932
 21
13.2802052432425093
 31
0.0
  0
LINE
  5
3524
  8
0
 10
200.3283544878823932
 20
13.2802052432425093
 30
0.0
 11
200.3348138498824085
 21
13.2822791452425104
 31
0.0
  0
LINE
  5
3525
  8
0
 10
200.3348138498824085
 20
13.2822791452425104
 30
0.0
 11
200.3527241133824077
 21
13.2765626441424995
 31
0.0
  0
LINE
  5
3526
  8
0
 10
200.321895126035713
 20
13.2822791452253703
 30
0.0
 11
200.30398504298239
 21
13.2765628053425093
 31
0.0
  0
LINE
  5
3527
  8
0
 10
200.2745285522823906
 20
13.2325071696425098
 30
0.0
 11
200.2984332846824032
 21
13.2248326900425095
 31
0.0
  0
LINE
  5
3528
  8
0
 10
200.3014419276823901
 20
13.2249457918425097
 30
0.0
 11
200.3014417471823947
 21
13.2542825846424996
 31
0.0
  0
LINE
  5
3529
  8
0
 10
200.2775365860823911
 20
13.2507561897424999
 30
0.0
 11
200.2949814824835073
 21
13.2563567764836705
 31
0.0
  0
LINE
  5
352A
  8
0
 10
200.3014417471823947
 20
13.2542825846424996
 30
0.0
 11
200.2949808104824001
 21
13.2563569922425106
 31
0.0
  0
LINE
  5
352B
  8
0
 10
200.3014417471823947
 20
13.2542825846424996
 30
0.0
 11
200.3079008760734894
 21
13.2563564118305095
 31
0.0
  0
ARC
  5
352C
  8
0
 10
200.2997525908961904
 20
13.2298108685877107
 30
0.0
 40
0.0051500320886174
 50
255.1568169071211116
 51
289.1489154713265179
  0
ARC
  5
352D
  8
0
 10
200.3031804186614124
 20
13.2300393754390306
 30
0.0
 40
0.005382094828097
 50
251.1547141327150996
 51
278.5979642677285142
  0
LINE
  5
352E
  8
0
 10
200.321895126035713
 20
13.2304341061253705
 30
0.0
 11
200.3283544878823932
 21
13.2283602041425095
 31
0.0
  0
LINE
  5
352F
  8
0
 10
200.3283544878823932
 20
13.2283602041425095
 30
0.0
 11
200.3348138498824085
 21
13.2304341061425106
 31
0.0
  0
LINE
  5
3530
  8
0
 10
200.3348138498824085
 20
13.2304341061425106
 30
0.0
 11
200.3527241133824077
 21
13.2247176050425104
 31
0.0
  0
LINE
  5
3531
  8
0
 10
200.321895126035713
 20
13.2304341061253705
 30
0.0
 11
200.30398504298239
 21
13.2247177662425095
 31
0.0
  0
LINE
  5
3532
  8
0
 10
200.3234336450991862
 20
13.3429459081110604
 30
0.0
 11
200.3234331261600971
 21
13.3550608302734801
 31
0.0
  0
ARC
  5
3533
  8
0
 10
200.3301268810091926
 20
13.3437858637449196
 30
0.0
 40
0.0067462085847137
 50
187.1478513262738943
 51
254.771628481935096
  0
LINE
  5
3534
  8
0
 10
200.3234342446992002
 20
13.2911008307110592
 30
0.0
 11
200.3234337258097071
 21
13.3032145948670308
 31
0.0
  0
LINE
  5
3535
  8
0
 10
200.3332761626992067
 20
13.2911012086110603
 30
0.0
 11
200.3332761626992067
 21
13.3032446683286505
 31
0.0
  0
ARC
  5
3536
  8
0
 10
200.3301272728675997
 20
13.2919406936262501
 30
0.0
 40
0.0067459909209133
 50
187.1472895044522033
 51
254.7662560373445046
  0
ARC
  5
3537
  8
0
 10
200.3264259715074047
 20
13.2920767794065906
 30
0.0
 40
0.0069192876526256
 50
286.1855321874824085
 51
351.8960470667992126
  0
LINE
  5
3538
  8
0
 10
200.3234342446992002
 20
13.2392557916110594
 30
0.0
 11
200.3234337258045059
 21
13.2513696779739707
 31
0.0
  0
LINE
  5
3539
  8
0
 10
200.3332761626992067
 20
13.2392561695110604
 30
0.0
 11
200.3332761626992067
 21
13.2513998732664806
 31
0.0
  0
ARC
  5
353A
  8
0
 10
200.3301272728675997
 20
13.2400956545262503
 30
0.0
 40
0.0067459909209133
 50
187.1472895044522033
 51
254.7662560373445046
  0
ARC
  5
353B
  8
0
 10
200.3264259715074047
 20
13.2402317403065908
 30
0.0
 40
0.0069192876526256
 50
286.1855321874824085
 51
351.8960470667992126
  0
ARC
  5
353C
  8
0
 10
200.3535346610171075
 20
13.3336781775890891
 30
0.0
 40
0.0053318013806169
 50
261.2634035168139803
 51
288.9633543985030997
  0
ARC
  5
353D
  8
0
 10
200.3535332691656095
 20
13.2818305039539997
 30
0.0
 40
0.0053296416460239
 50
261.2674827354342142
 51
288.987155748869327
  0
ARC
  5
353E
  8
0
 10
200.3535282476069028
 20
13.2300414289304609
 30
0.0
 40
0.0053842114223765
 50
261.4107158042090759
 51
288.8439226800591086
  0
LINE
  5
353F
  8
0
 10
200.3079008760734894
 20
13.2563564118305095
 30
0.0
 11
200.325346107082396
 21
13.2507557187436706
 31
0.0
  0
LINE
  5
3540
  8
0
 10
200.3283547500824113
 20
13.2508688205436709
 30
0.0
 11
200.3283545695823875
 21
13.2802056133436697
 31
0.0
  0
ARC
  5
3541
  8
0
 10
200.3266654132962117
 20
13.2557338972888701
 30
0.0
 40
0.0051500320886174
 50
255.1568169071211116
 51
289.1489154713265179
  0
ARC
  5
3542
  8
0
 10
200.3300932410612916
 20
13.2559624041402007
 30
0.0
 40
0.005382094828097
 50
251.1547141327150996
 51
278.5979642677285142
  0
LINE
  5
3543
  8
0
 10
200.3488079484357058
 20
13.2563571348265405
 30
0.0
 11
200.3308978653824113
 21
13.2506407949436706
 31
0.0
  0
LINE
  5
3544
  8
0
 10
200.3079002152597923
 20
13.3082015408757499
 30
0.0
 11
200.3253462973823957
 21
13.3026005745436695
 31
0.0
  0
LINE
  5
3545
  8
0
 10
200.3283549403824111
 20
13.3027136763436697
 30
0.0
 11
200.3283547598823873
 21
13.3320504691436703
 31
0.0
  0
ARC
  5
3546
  8
0
 10
200.3266656035962114
 20
13.3075787530888796
 30
0.0
 40
0.0051500320886174
 50
255.1568169071211116
 51
289.1489154713265179
  0
ARC
  5
3547
  8
0
 10
200.3300934313612913
 20
13.3078072599401995
 30
0.0
 40
0.005382094828097
 50
251.1547141327150996
 51
278.5979642677285142
  0
LINE
  5
3548
  8
0
 10
200.3552673010397882
 20
13.3102635537682907
 30
0.0
 11
200.330898055682411
 21
13.3024856507436695
 31
0.0
  0
ARC
  5
3549
  8
0
 10
200.3535198198451894
 20
13.3856714408057407
 30
0.0
 40
0.0054765473803006
 50
261.6453388833298277
 51
288.607566290817374
  0
LINE
  5
354A
  8
0
 10
200.3313631685398093
 20
13.4062899665240902
 30
0.0
 11
200.3488086675785951
 21
13.4118916603127403
 31
0.0
  0
LINE
  5
354B
  8
0
 10
200.3552673010397882
 20
13.4139655068024499
 30
0.0
 11
200.3552678386398043
 21
13.4139656794240896
 31
0.0
  0
ARC
  5
354C
  8
0
 10
200.3266156338912936
 20
13.41149748518575
 30
0.0
 40
0.0053825199006243
 50
261.4062711580373275
 51
288.8462189200074022
  0
ARC
  5
354D
  8
0
 10
200.330039491873805
 20
13.4111353573549206
 30
0.0
 40
0.0050229405948687
 50
250.3976577715590111
 51
285.2794003207877722
  0
LINE
  5
354E
  8
0
 10
200.3552673010397882
 20
13.3632001238832405
 30
0.0
 11
200.3283547116078012
 21
13.3545592339235792
 31
0.0
  0
ARC
  5
354F
  8
0
 10
200.3266737816221053
 20
13.3592293353826808
 30
0.0
 40
0.0049634033956473
 50
254.4764710255003024
 51
289.7955473826201001
  0
LINE
  5
3550
  8
0
 10
200.3503755300336877
 20
13.3688784246888908
 30
0.0
 11
200.3503750098755916
 21
13.3810218032553898
 31
0.0
  0
LINE
  5
3551
  8
0
 10
200.3602174480336942
 20
13.3688788025888901
 30
0.0
 11
200.3602174480336942
 21
13.3809914669515706
 31
0.0
  0
ARC
  5
3552
  8
0
 10
200.357115762414395
 20
13.3697393556585293
 30
0.0
 40
0.0067954662580601
 50
187.2740245466492865
 51
254.2158583180676885
  0
ARC
  5
3553
  8
0
 10
200.3533645721985863
 20
13.3698555986343806
 30
0.0
 40
0.0069221182600396
 50
285.9546648481763782
 51
351.8891392305519048
  0
LINE
  5
3554
  8
0
 10
200.3505086640192019
 20
13.3170774347413996
 30
0.0
 11
200.3505081483951926
 21
13.3291149628699603
 31
0.0
  0
LINE
  5
3555
  8
0
 10
200.3603505820190946
 20
13.3170778126414007
 30
0.0
 11
200.3603505820190946
 21
13.3291904770040794
 31
0.0
  0
ARC
  5
3556
  8
0
 10
200.3573362756285121
 20
13.3179773645684794
 30
0.0
 40
0.0068871354803573
 50
187.5038150631442875
 51
252.5176805368076884
  0
ARC
  5
3557
  8
0
 10
200.353620211201104
 20
13.3179986983644199
 30
0.0
 40
0.0067930570042624
 50
284.0321704508551761
 51
352.2102151471440834
  0
LINE
  5
3558
  8
0
 10
200.3503468323991967
 20
13.2651787673925199
 30
0.0
 11
200.3503463122411858
 21
13.2773221459590296
 31
0.0
  0
LINE
  5
3559
  8
0
 10
200.3601887503992032
 20
13.2651791452925192
 30
0.0
 11
200.3601887503992032
 21
13.2772918096551997
 31
0.0
  0
ARC
  5
355A
  8
0
 10
200.3570398605675962
 20
13.2660186303077108
 30
0.0
 40
0.0067459909209133
 50
187.1472895044522033
 51
254.7662560373445046
  0
ARC
  5
355B
  8
0
 10
200.3533385592074012
 20
13.2661547160880495
 30
0.0
 40
0.0069192876526256
 50
286.1855321874824085
 51
351.8960470667992126
  0
LINE
  5
355C
  8
0
 10
200.328354451139802
 20
13.3838956117240908
 30
0.0
 11
200.328354451139802
 21
13.3545591401789903
 31
0.0
  0
LINE
  5
355D
  8
0
 10
200.2965209063989107
 20
13.3170228549109897
 30
0.0
 11
200.2965203874987026
 21
13.3291368693463692
 31
0.0
  0
LINE
  5
355E
  8
0
 10
200.3063628243988887
 20
13.3170232328109908
 30
0.0
 11
200.3063628243988887
 21
13.3291667814600601
 31
0.0
  0
ARC
  5
355F
  8
0
 10
200.3032139345673954
 20
13.3178627178261806
 30
0.0
 40
0.0067459909209133
 50
187.1472895044520897
 51
254.7662560373445046
  0
ARC
  5
3560
  8
0
 10
200.2995126332070868
 20
13.3179988036065193
 30
0.0
 40
0.0069192876526256
 50
286.1855321874824085
 51
351.8960470667992126
  0
LINE
  5
3561
  8
0
 10
200.2965209064396959
 20
13.2651778159240799
 30
0.0
 11
200.2965203875394877
 21
13.2772918303594594
 31
0.0
  0
LINE
  5
3562
  8
0
 10
200.3063628244397023
 20
13.2651781938240791
 30
0.0
 11
200.3063628244397023
 21
13.2773217424731502
 31
0.0
  0
ARC
  5
3563
  8
0
 10
200.3032139346080953
 20
13.2660176788392707
 30
0.0
 40
0.0067459909209133
 50
187.1472895044520897
 51
254.7662560373445046
  0
ARC
  5
3564
  8
0
 10
200.2995126332479003
 20
13.2661537646196095
 30
0.0
 40
0.0069192876526256
 50
286.1855321874824085
 51
351.8960470667992126
  0
LINE
  5
3565
  8
0
 10
200.3283548746398139
 20
13.33619702782409
 30
0.0
 11
200.3283548746398139
 21
13.3372765378431808
 31
0.0
  0
LINE
  5
3566
  8
0
 10
200.1734842179025975
 20
13.1671880204740095
 30
0.0
 11
200.1875978112396979
 21
13.1783971024240891
 31
0.0
  0
ARC
  5
3567
  8
0
 10
200.1712594025121064
 20
13.1699137378680096
 30
0.0
 40
0.0035184283869182
 50
290.2444302530345794
 51
309.2223931096688716
  0
ARC
  5
3568
  8
0
 10
200.171880777425514
 20
13.1682299358868704
 30
0.0
 40
0.0017236315616497
 50
251.5764376447930033
 51
290.2327809447176037
  0
LINE
  5
3569
  8
0
 10
200.2271607555657909
 20
13.3341235940264706
 30
0.0
 11
200.2446076940856017
 21
13.3285223527528807
 31
0.0
  0
LINE
  5
356A
  8
0
 10
200.2476163370855886
 20
13.3286354545528791
 30
0.0
 11
200.2476161565855932
 21
13.3579722473528797
 31
0.0
  0
LINE
  5
356B
  8
0
 10
200.2237109954855896
 20
13.35444585245288
 30
0.0
 11
200.2411558918867911
 21
13.3600464391940399
 31
0.0
  0
LINE
  5
356C
  8
0
 10
200.2476161565855932
 20
13.3579722473528797
 30
0.0
 11
200.2411552198855986
 21
13.36004665495288
 31
0.0
  0
LINE
  5
356D
  8
0
 10
200.2476161565855932
 20
13.3579722473528797
 30
0.0
 11
200.2540755184855925
 21
13.3600461493528808
 31
0.0
  0
LINE
  5
356E
  8
0
 10
200.2540755184855925
 20
13.3600461493528808
 30
0.0
 11
200.2715198151429945
 21
13.3544465784344606
 31
0.0
  0
ARC
  5
356F
  8
0
 10
200.2459270002995027
 20
13.3335005312980801
 30
0.0
 40
0.0051500320886174
 50
255.1568169071211116
 51
289.1489154713265179
  0
ARC
  5
3570
  8
0
 10
200.249354828064611
 20
13.3337290381494107
 30
0.0
 40
0.005382094828097
 50
251.1547141327150996
 51
278.5979642677285142
  0
LINE
  5
3571
  8
0
 10
200.2680695354389968
 20
13.3341237688357506
 30
0.0
 11
200.2501594523855886
 21
13.3284074289528807
 31
0.0
  0
LINE
  5
3572
  8
0
 10
200.2426953158021092
 20
13.3170224395213594
 30
0.0
 11
200.2426947969019011
 21
13.3291364539567407
 31
0.0
  0
LINE
  5
3573
  8
0
 10
200.2525372338022009
 20
13.3170228174213605
 30
0.0
 11
200.2525372338022009
 21
13.3291663660704298
 31
0.0
  0
ARC
  5
3574
  8
0
 10
200.249388343970594
 20
13.3178623024365503
 30
0.0
 40
0.0067459909209144
 50
187.1472895044580014
 51
254.7487176623353093
  0
ARC
  5
3575
  8
0
 10
200.2456902308346116
 20
13.3179969331365005
 30
0.0
 40
0.0069159262151739
 50
286.1489284462717251
 51
351.9042580088254226
  0
LINE
  5
3576
  8
0
 10
200.173338810415288
 20
13.33412476448758
 30
0.0
 11
200.1907821036168116
 21
13.3285246935228905
 31
0.0
  0
LINE
  5
3577
  8
0
 10
200.1937907466169122
 20
13.3286377953228907
 30
0.0
 11
200.1937905661168884
 21
13.3579745881228895
 31
0.0
  0
LINE
  5
3578
  8
0
 10
200.1698854050169132
 20
13.3544481932228898
 30
0.0
 11
200.187330301418001
 21
13.3600487799640497
 31
0.0
  0
LINE
  5
3579
  8
0
 10
200.1937905661168884
 20
13.3579745881228895
 30
0.0
 11
200.1873296294168085
 21
13.3600489957228898
 31
0.0
  0
LINE
  5
357A
  8
0
 10
200.1937905661168884
 20
13.3579745881228895
 30
0.0
 11
200.2002499280168877
 21
13.3600484901228906
 31
0.0
  0
LINE
  5
357B
  8
0
 10
200.2002499280168877
 20
13.3600484901228906
 30
0.0
 11
200.2176942246742044
 21
13.3544489192044704
 31
0.0
  0
ARC
  5
357C
  8
0
 10
200.1921014098307126
 20
13.3335028720680899
 30
0.0
 40
0.0051500320886174
 50
255.1568169071211116
 51
289.1489154713265179
  0
ARC
  5
357D
  8
0
 10
200.1955292375957924
 20
13.3337313789194205
 30
0.0
 40
0.005382094828097
 50
251.1547141327150996
 51
278.5979642677285142
  0
LINE
  5
357E
  8
0
 10
200.2142439449702067
 20
13.3341261096057604
 30
0.0
 11
200.1963338619169122
 21
13.3284097697228905
 31
0.0
  0
LINE
  5
357F
  8
0
 10
200.1888697253334044
 20
13.3170247802913693
 30
0.0
 11
200.1888692064331963
 21
13.3291387947267506
 31
0.0
  0
LINE
  5
3580
  8
0
 10
200.1987116433334108
 20
13.3170251581913703
 30
0.0
 11
200.1987116433334108
 21
13.3291687068404503
 31
0.0
  0
ARC
  5
3581
  8
0
 10
200.1955627535018039
 20
13.3178646432065602
 30
0.0
 40
0.0067459909209133
 50
187.1472895044520897
 51
254.7662560373445046
  0
ARC
  5
3582
  8
0
 10
200.1918614521414952
 20
13.3180007289869007
 30
0.0
 40
0.0069192876526256
 50
286.1855321874824085
 51
351.8960470667992126
  0
LINE
  5
3583
  8
0
 10
200.1162066669085107
 20
13.3351858319455694
 30
0.0
 11
200.1369565129953116
 21
13.3285242108141606
 31
0.0
  0
LINE
  5
3584
  8
0
 10
200.1399651559952986
 20
13.3286373126141697
 30
0.0
 11
200.1399649754953032
 21
13.3579741054141596
 31
0.0
  0
LINE
  5
3585
  8
0
 10
200.1202187821849066
 20
13.3557829239383992
 30
0.0
 11
200.1335047107963874
 21
13.3600482972553198
 31
0.0
  0
LINE
  5
3586
  8
0
 10
200.1399649754953032
 20
13.3579741054141596
 30
0.0
 11
200.1335040387953086
 21
13.3600485130141706
 31
0.0
  0
LINE
  5
3587
  8
0
 10
200.1399649754953032
 20
13.3579741054141596
 30
0.0
 11
200.1464243373953025
 21
13.3600480074141696
 31
0.0
  0
LINE
  5
3588
  8
0
 10
200.1464243373953025
 20
13.3600480074141696
 30
0.0
 11
200.1638686340525908
 21
13.3544484364957494
 31
0.0
  0
ARC
  5
3589
  8
0
 10
200.1382758192090989
 20
13.3335023893593707
 30
0.0
 40
0.0051500320886174
 50
255.1568169071211116
 51
289.1489154713265179
  0
ARC
  5
358A
  8
0
 10
200.1417036469742072
 20
13.3337308962106906
 30
0.0
 40
0.005382094828097
 50
251.1547141327150996
 51
278.5979642677285142
  0
LINE
  5
358B
  8
0
 10
200.1604183543487068
 20
13.3341256268970305
 30
0.0
 11
200.1425082712952985
 21
13.3284092870141695
 31
0.0
  0
LINE
  5
358C
  8
0
 10
200.1350441347117908
 20
13.31702429758265
 30
0.0
 11
200.1350436158116111
 21
13.3291383120180296
 31
0.0
  0
LINE
  5
358D
  8
0
 10
200.1448860527117972
 20
13.3170246754826493
 30
0.0
 11
200.1448860527117972
 21
13.3291682241317204
 31
0.0
  0
ARC
  5
358E
  8
0
 10
200.1417371628801902
 20
13.3178641604978303
 30
0.0
 40
0.0067459909209133
 50
187.1472895044520897
 51
254.7662560373445046
  0
ARC
  5
358F
  8
0
 10
200.1380358615199953
 20
13.3180002462781797
 30
0.0
 40
0.0069192876526256
 50
286.1855321874824085
 51
351.8960470667992126
  0
LINE
  5
3590
  8
0
 10
200.2207034872824067
 20
13.3545585284425101
 30
0.0
 11
200.2207033067824113
 21
13.3838953212425107
 31
0.0
  0
LINE
  5
3591
  8
0
 10
200.1967981456824077
 20
13.3803689263425092
 30
0.0
 11
200.2142430420834955
 21
13.3859695130836691
 31
0.0
  0
LINE
  5
3592
  8
0
 10
200.2207033067824113
 20
13.3838953212425107
 30
0.0
 11
200.2142423700823883
 21
13.3859697288425092
 31
0.0
  0
LINE
  5
3593
  8
0
 10
200.2207033067824113
 20
13.3838953212425107
 30
0.0
 11
200.2271626686824106
 21
13.38596922324251
 31
0.0
  0
LINE
  5
3594
  8
0
 10
200.2271626686824106
 20
13.38596922324251
 30
0.0
 11
200.2446069653398126
 21
13.3803696523240898
 31
0.0
  0
ARC
  5
3595
  8
0
 10
200.2190141504962071
 20
13.3594236051877093
 30
0.0
 40
0.0051500320886174
 50
255.1568169071211116
 51
289.1489154713265179
  0
ARC
  5
3596
  8
0
 10
200.2224419782614007
 20
13.3596521120390292
 30
0.0
 40
0.005382094828097
 50
251.1547141327150996
 51
278.5979642677285142
  0
LINE
  5
3597
  8
0
 10
200.2157824659990126
 20
13.3429455134109904
 30
0.0
 11
200.2157819470986908
 21
13.35505952784637
 31
0.0
  0
LINE
  5
3598
  8
0
 10
200.2256243839989907
 20
13.3429458913109897
 30
0.0
 11
200.2256243839989907
 21
13.3550894399600608
 31
0.0
  0
ARC
  5
3599
  8
0
 10
200.2224754941674121
 20
13.3437853763261707
 30
0.0
 40
0.0067459909209133
 50
187.1472895044520897
 51
254.7662560373445046
  0
ARC
  5
359A
  8
0
 10
200.2187741928071034
 20
13.3439214621065201
 30
0.0
 40
0.0069192876526256
 50
286.1855321874824085
 51
351.8960470667992126
  0
LINE
  5
359B
  8
0
 10
200.2745290778823914
 20
13.3545585284425101
 30
0.0
 11
200.2745288973823961
 21
13.3838953212425107
 31
0.0
  0
LINE
  5
359C
  8
0
 10
200.2506237362823924
 20
13.3803689263425092
 30
0.0
 11
200.2680686326835939
 21
13.3859695130836691
 31
0.0
  0
LINE
  5
359D
  8
0
 10
200.2745288973823961
 20
13.3838953212425107
 30
0.0
 11
200.2680679606824015
 21
13.3859697288425092
 31
0.0
  0
LINE
  5
359E
  8
0
 10
200.2745288973823961
 20
13.3838953212425107
 30
0.0
 11
200.2809882592823953
 21
13.38596922324251
 31
0.0
  0
ARC
  5
359F
  8
0
 10
200.2728397410963055
 20
13.3594236051877093
 30
0.0
 40
0.0051500320886174
 50
255.1568169071211116
 51
289.1489154713265179
  0
ARC
  5
35A0
  8
0
 10
200.2762152230559991
 20
13.3594055158125808
 30
0.0
 40
0.0051318975157308
 50
250.8184978463777952
 51
284.9371226316674779
  0
LINE
  5
35A1
  8
0
 10
200.2696080565989121
 20
13.3429455134109904
 30
0.0
 11
200.2696075376987892
 21
13.35505952784637
 31
0.0
  0
LINE
  5
35A2
  8
0
 10
200.2794499745990038
 20
13.3429458913109897
 30
0.0
 11
200.2794499745990038
 21
13.3550894399600608
 31
0.0
  0
ARC
  5
35A3
  8
0
 10
200.2763010847673968
 20
13.3437853763261707
 30
0.0
 40
0.0067459909209133
 50
187.1472895044520897
 51
254.7662560373445046
  0
ARC
  5
35A4
  8
0
 10
200.2725997834070881
 20
13.3439214621065201
 30
0.0
 40
0.0069192876526256
 50
286.1855321874824085
 51
351.8960470667992126
  0
LINE
  5
35A5
  8
0
 10
200.1668773711824088
 20
13.2843522086425097
 30
0.0
 11
200.168548641441987
 21
13.2838156567456291
 31
0.0
  0
LINE
  5
35A6
  8
0
 10
200.17333581176851
 20
13.2822787626948209
 30
0.0
 11
200.1907821035823929
 21
13.2766777290425004
 31
0.0
  0
LINE
  5
35A7
  8
0
 10
200.1937907465824082
 20
13.2767908308425095
 30
0.0
 11
200.1937905660824129
 21
13.3061276236424995
 31
0.0
  0
LINE
  5
35A8
  8
0
 10
200.1698854049824092
 20
13.3026012287424997
 30
0.0
 11
200.187330301383497
 21
13.3082018154836597
 31
0.0
  0
LINE
  5
35A9
  8
0
 10
200.1937905660824129
 20
13.3061276236424995
 30
0.0
 11
200.1873296293823898
 21
13.3082020312425104
 31
0.0
  0
LINE
  5
35AA
  8
0
 10
200.1937905660824129
 20
13.3061276236424995
 30
0.0
 11
200.2002499279824121
 21
13.3082015256425095
 31
0.0
  0
LINE
  5
35AB
  8
0
 10
200.2002499279824121
 20
13.3082015256425095
 30
0.0
 11
200.2176942246398141
 21
13.3026019547240892
 31
0.0
  0
ARC
  5
35AC
  8
0
 10
200.1921014097962086
 20
13.2816559075877105
 30
0.0
 40
0.0051500320886174
 50
255.1568169071211116
 51
289.1489154713265179
  0
ARC
  5
35AD
  8
0
 10
200.1955292375614022
 20
13.2818844144390305
 30
0.0
 40
0.005382094828097
 50
251.1547141327150996
 51
278.5979642677285142
  0
LINE
  5
35AE
  8
0
 10
200.2207754234015908
 20
13.2843637893303796
 30
0.0
 11
200.1963338618824082
 21
13.2765628052425093
 31
0.0
  0
LINE
  5
35AF
  8
0
 10
200.1888697252990141
 20
13.2651778158109899
 30
0.0
 11
200.1888692063986923
 21
13.2772918302463694
 31
0.0
  0
LINE
  5
35B0
  8
0
 10
200.1987116432989069
 20
13.2651781937109892
 30
0.0
 11
200.1987116432989069
 21
13.2773217423600602
 31
0.0
  0
ARC
  5
35B1
  8
0
 10
200.1955627534674136
 20
13.2660176787261701
 30
0.0
 40
0.0067459909209133
 50
187.1472895044520897
 51
254.7662560373445046
  0
ARC
  5
35B2
  8
0
 10
200.1918614521071049
 20
13.2661537645065195
 30
0.0
 40
0.0069192876526256
 50
286.1855321874824085
 51
351.8960470667992126
  0
ARC
  5
35B3
  8
0
 10
200.2459268912930952
 20
13.3853466790773297
 30
0.0
 40
0.0051500320886174
 50
255.1568169071211116
 51
289.1489154713265179
  0
ARC
  5
35B4
  8
0
 10
200.2493547190582035
 20
13.3855751859286602
 30
0.0
 40
0.005382094828097
 50
251.1547141327150996
 51
278.5979642677285142
  0
LINE
  5
35B5
  8
0
 10
200.2680695354389968
 20
13.3341237688357506
 30
0.0
 11
200.2745288606396912
 21
13.3320502946240893
 31
0.0
  0
LINE
  5
35B6
  8
0
 10
200.2745288606396912
 20
13.3320502946240893
 30
0.0
 11
200.2809882226140132
 21
13.3341241965479202
 31
0.0
  0
LINE
  5
35B7
  8
0
 10
200.2745288606396912
 20
13.3320502946240893
 30
0.0
 11
200.2745292765397949
 21
13.3027137668240893
 31
0.0
  0
LINE
  5
35B8
  8
0
 10
200.2207028850808115
 20
13.3027137111596208
 30
0.0
 11
200.2476137921206885
 21
13.3113538956240305
 31
0.0
  0
LINE
  5
35B9
  8
0
 10
200.2476137921206885
 20
13.3113538956240305
 30
0.0
 11
200.2745295778425998
 21
13.3027136992487698
 31
0.0
  0
ARC
  5
35BA
  8
0
 10
200.2762126469908139
 20
13.3074623480481407
 30
0.0
 40
0.0050380936054483
 50
250.4840867839226064
 51
285.2522664041961775
  0
ARC
  5
35BB
  8
0
 10
200.2190233727561122
 20
13.3073740129483191
 30
0.0
 40
0.0049537031007641
 50
254.4360326978722924
 51
289.8185049849765846
  0
LINE
  5
35BC
  8
0
 10
200.2696075052988931
 20
13.3947903693109893
 30
0.0
 11
200.2696069863987134
 21
13.4069043837463706
 31
0.0
  0
LINE
  5
35BD
  8
0
 10
200.2794494232988995
 20
13.3947907472109904
 30
0.0
 11
200.2794494232988995
 21
13.4069342958600597
 31
0.0
  0
ARC
  5
35BE
  8
0
 10
200.2763005334674062
 20
13.3956302322261696
 30
0.0
 40
0.0067459909209133
 50
187.1472895044520897
 51
254.7662560373445046
  0
ARC
  5
35BF
  8
0
 10
200.2725992321070976
 20
13.3957663180065207
 30
0.0
 40
0.0069192876526256
 50
286.1855321874824085
 51
351.8960470667992126
  0
LINE
  5
35C0
  8
0
 10
200.215781914798896
 20
13.3947903693109893
 30
0.0
 11
200.2157815754922012
 21
13.4027116740797005
 31
0.0
  0
LINE
  5
35C1
  8
0
 10
200.2256238327989877
 20
13.3947907472109904
 30
0.0
 11
200.2256238327989877
 21
13.4050814669770801
 31
0.0
  0
ARC
  5
35C2
  8
0
 10
200.2224749429674091
 20
13.3956302322261696
 30
0.0
 40
0.0067459909209133
 50
187.1472895044520897
 51
254.7662560373445046
  0
ARC
  5
35C3
  8
0
 10
200.2187736416071004
 20
13.3957663180065207
 30
0.0
 40
0.0069192876526256
 50
286.1855321874824085
 51
351.8960470667992126
  0
LINE
  5
35C4
  8
0
 10
200.1888697711989948
 20
13.3688676875109902
 30
0.0
 11
200.1888692522987014
 21
13.3809817019463697
 31
0.0
  0
LINE
  5
35C5
  8
0
 10
200.1987116891990013
 20
13.3688680654109895
 30
0.0
 11
200.1987116891990013
 21
13.3810116140600606
 31
0.0
  0
ARC
  5
35C6
  8
0
 10
200.1955627993673943
 20
13.3697075504261704
 30
0.0
 40
0.0067459909209133
 50
187.1472895044520897
 51
254.7662560373445046
  0
ARC
  5
35C7
  8
0
 10
200.1918614980071141
 20
13.3698436362065198
 30
0.0
 40
0.0069192876526256
 50
286.1855321874824085
 51
351.8960470667992126
  0
LINE
  5
35C8
  8
0
 10
200.1619562151990124
 20
13.3429452730109901
 30
0.0
 11
200.1619556962986906
 21
13.3550592874463696
 31
0.0
  0
LINE
  5
35C9
  8
0
 10
200.1717981331989051
 20
13.3429456509109894
 30
0.0
 11
200.1717981331989051
 21
13.3550891995600605
 31
0.0
  0
ARC
  5
35CA
  8
0
 10
200.1686492433674118
 20
13.3437851359261703
 30
0.0
 40
0.0067459909209133
 50
187.1472895044520897
 51
254.7662560373445046
  0
ARC
  5
35CB
  8
0
 10
200.1649479420071032
 20
13.3439212217065197
 30
0.0
 40
0.0069192876526256
 50
286.1855321874824085
 51
351.8960470667992126
  0
LINE
  5
35CC
  8
0
 10
200.1350436921393054
 20
13.3688676875239398
 30
0.0
 11
200.1350434616082055
 21
13.3742495631793403
 31
0.0
  0
LINE
  5
35CD
  8
0
 10
200.1448856101393119
 20
13.3688680654239391
 30
0.0
 11
200.1448856101393119
 21
13.3790398880714996
 31
0.0
  0
ARC
  5
35CE
  8
0
 10
200.1417367203077049
 20
13.3697075504391201
 30
0.0
 40
0.0067459909209133
 50
187.1472895044520897
 51
254.7662560373445046
  0
ARC
  5
35CF
  8
0
 10
200.1380354189473962
 20
13.3698436362194695
 30
0.0
 40
0.0069192876526256
 50
286.1855321874824085
 51
351.8960470667992126
  0
LINE
  5
35D0
  8
0
 10
200.1619572196391914
 20
13.2911002427239193
 30
0.0
 11
200.1619567007390117
 21
13.3032142571593006
 31
0.0
  0
LINE
  5
35D1
  8
0
 10
200.1717991376391979
 20
13.2911006206239204
 30
0.0
 11
200.1717991376391979
 21
13.3032441692729897
 31
0.0
  0
ARC
  5
35D2
  8
0
 10
200.1686502478075909
 20
13.2919401056390996
 30
0.0
 40
0.0067459909209133
 50
187.1472895044520897
 51
254.7662560373445046
  0
ARC
  5
35D3
  8
0
 10
200.1649489464473959
 20
13.2920761914194507
 30
0.0
 40
0.0069192876526256
 50
286.1855321874824085
 51
351.8960470667992126
  0
LINE
  5
35D4
  8
0
 10
200.2426948362989094
 20
13.2651774580109905
 30
0.0
 11
200.2426943173987013
 21
13.27729147244637
 31
0.0
  0
LINE
  5
35D5
  8
0
 10
200.2525367542988874
 20
13.2651778359109898
 30
0.0
 11
200.2525367542988874
 21
13.2773213845600608
 31
0.0
  0
ARC
  5
35D6
  8
0
 10
200.2493878644673941
 20
13.2660173209261796
 30
0.0
 40
0.0067459909209133
 50
187.1472895044520897
 51
254.7662560373445046
  0
ARC
  5
35D7
  8
0
 10
200.2456865631071139
 20
13.2661534067065201
 30
0.0
 40
0.0069192876526256
 50
286.1855321874824085
 51
351.8960470667992126
  0
LINE
  5
35D8
  8
0
 10
200.2696076497392994
 20
13.2392549508239394
 30
0.0
 11
200.2696071308390913
 21
13.2513689652593207
 31
0.0
  0
LINE
  5
35D9
  8
0
 10
200.2794495677393058
 20
13.2392553287239405
 30
0.0
 11
200.2794495677393058
 21
13.2513988773730098
 31
0.0
  0
ARC
  5
35DA
  8
0
 10
200.2763006779076989
 20
13.2400948137391303
 30
0.0
 40
0.0067459909209133
 50
187.1472895044520897
 51
254.7662560373445046
  0
ARC
  5
35DB
  8
0
 10
200.2725993765475039
 20
13.2402308995194709
 30
0.0
 40
0.0069192876526256
 50
286.1855321874824085
 51
351.8960470667992126
  0
LINE
  5
35DC
  8
0
 10
200.2426946116661099
 20
13.3688752786777894
 30
0.0
 11
200.2426940927659018
 21
13.3809892931131706
 31
0.0
  0
LINE
  5
35DD
  8
0
 10
200.2525365296662017
 20
13.3688756565777904
 30
0.0
 11
200.2525365296662017
 21
13.3810192052268597
 31
0.0
  0
ARC
  5
35DE
  8
0
 10
200.2493876398345947
 20
13.3697151415929802
 30
0.0
 40
0.0067459909209133
 50
187.1472895044520897
 51
254.7662560373445046
  0
ARC
  5
35DF
  8
0
 10
200.245686338474286
 20
13.3698512273733208
 30
0.0
 40
0.0069192876526256
 50
286.1855321874824085
 51
351.8960470667992126
  0
LINE
  5
35E0
  8
0
 10
200.1665593587183878
 20
13.3881463830463403
 30
0.0
 11
200.1907822148397997
 21
13.3803685118240896
 31
0.0
  0
ARC
  5
35E1
  8
0
 10
200.1920989274802025
 20
13.3856995054591792
 30
0.0
 40
0.0054911952537498
 50
256.1260801192370877
 51
288.0486270480050166
  0
ARC
  5
35E2
  8
0
 10
200.1954822198192971
 20
13.3854344676633996
 30
0.0
 40
0.0052336025389012
 50
251.253450095851008
 51
284.5787788573522903
  0
ARC
  5
35E3
  8
0
 10
200.1652027362885917
 20
13.3591581257715806
 30
0.0
 40
0.0048949976354151
 50
254.1842940767240009
 51
290.0067035316898796
  0
ARC
  5
35E4
  8
0
 10
200.1685572424476902
 20
13.3592962319023698
 30
0.0
 40
0.0050266783115396
 50
250.4777432021143966
 51
285.3207712633274014
  0
LINE
  5
35E5
  8
0
 10
200.166877462323697
 20
13.3545585284971402
 30
0.0
 11
200.1668776795397946
 21
13.3838956117240908
 31
0.0
  0
LINE
  5
35E6
  8
0
 10
200.1668776795397946
 20
13.3838956117240908
 30
0.0
 11
200.1607089637161891
 21
13.3858761961597104
 31
0.0
  0
LINE
  5
35E7
  8
0
 10
200.1668776795397946
 20
13.3838956117240908
 30
0.0
 11
200.1733381832250132
 21
13.3859698802514497
 31
0.0
  0
LINE
  5
35E8
  8
0
 10
200.1938002318402141
 20
13.3804785104427193
 30
0.0
 11
200.1938002318402141
 21
13.3969989276092498
 31
0.0
  0
LINE
  5
35E9
  8
0
 10
200.2476373775006095
 20
13.3804744327730507
 30
0.0
 11
200.2476373775006095
 21
13.4097149579353108
 31
0.0
  0
LINE
  5
35EA
  8
0
 10
200.2745286342398003
 20
13.4064040644240894
 30
0.0
 11
200.2745286342398003
 21
13.4141510375544097
 31
0.0
  0
LINE
  5
35EB
  8
0
 10
200.2271642069057123
 20
13.3341247021452602
 30
0.0
 11
200.2207032700397917
 21
13.3320502946240893
 31
0.0
  0
LINE
  5
35EC
  8
0
 10
200.2207032700397917
 20
13.3320502946240893
 30
0.0
 11
200.2142439449702067
 21
13.3341261096057604
 31
0.0
  0
LINE
  5
35ED
  8
0
 10
200.2207032700397917
 20
13.3320502946240893
 30
0.0
 11
200.2207028850808115
 21
13.3027137111596208
 31
0.0
  0
LINE
  5
35EE
  8
0
 10
200.2775359980408894
 20
13.2507561993625096
 30
0.0
 11
200.2949808944420056
 21
13.2563567861036695
 31
0.0
  0
LINE
  5
35EF
  8
0
 10
200.2540749304440908
 20
13.2563560808728802
 30
0.0
 11
200.2715192271014075
 21
13.2507565099544706
 31
0.0
  0
LINE
  5
35F0
  8
0
 10
200.2745284898408897
 20
13.2508684599625095
 30
0.0
 11
200.2745283093408943
 21
13.2802052527625101
 31
0.0
  0
ARC
  5
35F1
  8
0
 10
200.2728391530546901
 20
13.2557335367077105
 30
0.0
 40
0.0051500320886174
 50
255.1568169071211116
 51
289.1489154713265179
  0
ARC
  5
35F2
  8
0
 10
200.2762146350144974
 20
13.2557154473325802
 30
0.0
 40
0.0051318975157308
 50
250.8184978463777952
 51
284.9371226316674779
  0
LINE
  5
35F3
  8
0
 10
200.2237112675408923
 20
13.2507561905625106
 30
0.0
 11
200.2333719440705124
 21
13.2538576969078701
 31
0.0
  0
LINE
  5
35F4
  8
0
 10
200.1937902559290023
 20
13.2584670035750598
 30
0.0
 11
200.2176944966014958
 21
13.2507565011544699
 31
0.0
  0
LINE
  5
35F5
  8
0
 10
200.2207037593408927
 20
13.2508684511625106
 30
0.0
 11
200.2207035788408973
 21
13.2802052439625093
 31
0.0
  0
ARC
  5
35F6
  8
0
 10
200.2190144225548067
 20
13.2557335279077098
 30
0.0
 40
0.0051500320886174
 50
255.1568169071211116
 51
289.1489154713265179
  0
ARC
  5
35F7
  8
0
 10
200.2223899045145004
 20
13.2557154385325795
 30
0.0
 40
0.0051318975157308
 50
250.8184978463777952
 51
284.9371226316674779
  0
LINE
  5
35F8
  8
0
 10
200.1464244191440969
 20
13.3082012943728802
 30
0.0
 11
200.1638687158014989
 21
13.3026017234544707
 31
0.0
  0
LINE
  5
35F9
  8
0
 10
200.1668779785408958
 20
13.3027136734625095
 30
0.0
 11
200.1668777980409004
 21
13.3320504662625101
 31
0.0
  0
ARC
  5
35FA
  8
0
 10
200.1651886417548099
 20
13.3075787502077105
 30
0.0
 40
0.0051500320886174
 50
255.1568169071211116
 51
289.1489154713265179
  0
ARC
  5
35FB
  8
0
 10
200.1685641237145035
 20
13.3075606608325803
 30
0.0
 40
0.0051318975157308
 50
250.8184978463777952
 51
284.9371226316674779
  0
LINE
  5
35FC
  8
0
 10
200.2157821193397922
 20
13.3026009785240902
 30
0.0
 11
200.2157821193397922
 21
13.2911014974240906
 31
0.0
  0
LINE
  5
35FD
  8
0
 10
200.2446066110396998
 20
13.2766772846240908
 30
0.0
 11
200.2207025722397873
 21
13.2843872867240904
 31
0.0
  0
LINE
  5
35FE
  8
0
 10
200.2207025722397873
 20
13.2843872867240904
 30
0.0
 11
200.2207026583066067
 21
13.2854319212435197
 31
0.0
  0
ARC
  5
35FF
  8
0
 10
200.2226274820590959
 20
13.2920723944610302
 30
0.0
 40
0.0069138724182681
 50
188.072578030874098
 51
253.8359955801574017
  0
ARC
  5
3600
  8
0
 10
200.2459279224655972
 20
13.2816466309253993
 30
0.0
 40
0.0051409183683252
 50
255.110859884573614
 51
289.1692634037283938
  0
ARC
  5
3601
  8
0
 10
200.2493026490633099
 20
13.2815648253220893
 30
0.0
 40
0.0050632476624414
 50
250.5419154765608027
 51
285.1361008537093085
  0
LINE
  5
3602
  8
0
 10
200.2506247277397904
 20
13.2766772303240899
 30
0.0
 11
200.2745291531398095
 21
13.2843520059240898
 31
0.0
  0
LINE
  5
3603
  8
0
 10
200.2745283093408943
 20
13.2802052527625101
 30
0.0
 11
200.2680712021723082
 21
13.2822786105723196
 31
0.0
  0
LINE
  5
3604
  8
0
 10
200.2745288606396912
 20
13.2802052555240895
 30
0.0
 11
200.2809882225398042
 21
13.2822791575240906
 31
0.0
  0
LINE
  5
3605
  8
0
 10
200.274529168583598
 20
13.2843520108824897
 30
0.0
 11
200.2745292674397888
 21
13.2854317437240894
 31
0.0
  0
LINE
  5
3606
  8
0
 10
200.2794501204398046
 20
13.3032155583807299
 30
0.0
 11
200.2794501204398046
 21
13.2911012129240902
 31
0.0
  0
ARC
  5
3607
  8
0
 10
200.272527266369508
 20
13.2921397141768107
 30
0.0
 40
0.0070003481008776
 50
286.6177914391577133
 51
351.4708429230814204
  0
LINE
  5
3608
  8
0
 10
200.2207035788408973
 20
13.2802052439625093
 30
0.0
 11
200.2142439458154115
 21
13.2822791454061306
 31
0.0
  0
LINE
  5
3609
  8
0
 10
200.2207035788408973
 20
13.2802052439625093
 30
0.0
 11
200.227162632039807
 21
13.2822791575240906
 31
0.0
  0
LINE
  5
360A
  8
0
 10
200.1937902559290023
 20
13.2584670035750598
 30
0.0
 11
200.1777403375747042
 21
13.2532781904096293
 31
0.0
  0
LINE
  5
360B
  8
0
 10
200.2157821193397922
 20
13.2513705556240904
 30
0.0
 11
200.2157821193397922
 21
13.2379445224240904
 31
0.0
  0
LINE
  5
360C
  8
0
 10
200.2256245299398074
 20
13.2513698575090295
 30
0.0
 11
200.2256245299398074
 21
13.2343471113240891
 31
0.0
  0
LINE
  5
360D
  8
0
 10
200.2745292639465049
 20
13.2325069411667595
 30
0.0
 11
200.250039557354512
 21
13.2246452602808802
 31
0.0
  0
LINE
  5
360E
  8
0
 10
200.2399708502398141
 20
13.2518281757240892
 30
0.0
 11
200.2399708206397975
 21
13.2297411606240907
 31
0.0
  0
LINE
  5
360F
  8
0
 10
200.2399708502398141
 20
13.2518281756605294
 30
0.0
 11
200.2540755137397923
 21
13.2563567668240907
 31
0.0
  0
LINE
  5
3610
  8
0
 10
200.2399708206397975
 20
13.2518282052240899
 30
0.0
 11
200.2333719440705124
 21
13.2538576969078701
 31
0.0
  0
LINE
  5
3611
  8
0
 10
200.2965204506398038
 20
13.2254467946303702
 30
0.0
 11
200.2965204506398038
 21
13.2176907849240894
 31
0.0
  0
LINE
  5
3612
  8
0
 10
200.3063628612397906
 20
13.2254471990090305
 30
0.0
 11
200.3063628612397906
 21
13.2164580866240904
 31
0.0
  0
LINE
  5
3613
  8
0
 10
200.3503460411398009
 20
13.2254766252875697
 30
0.0
 11
200.3503460411398009
 21
13.2137445643240898
 31
0.0
  0
ARC
  5
3614
  8
0
 10
200.3554256382844869
 20
13.2148167325065593
 30
0.0
 40
0.0051915172892061
 50
191.9186737238219962
 51
268.2522521989704956
  0
ARC
  5
3615
  8
0
 10
200.3018665006322863
 20
13.2183199913839307
 30
0.0
 40
0.0053815223657077
 50
186.7169311880282123
 51
265.4736976884984188
  0
ARC
  5
3616
  8
0
 10
200.3018128405294078
 20
13.2176421535481303
 30
0.0
 40
0.0047015638829414
 50
265.4736976885000104
 51
345.4132635776925895
  0
ARC
  5
3617
  8
0
 10
200.2463853085988035
 20
13.2306159486768493
 30
0.0
 40
0.0064738636002242
 50
187.7659127063786002
 51
246.4930652922278966
  0
ARC
  5
3618
  8
0
 10
200.2465281831559025
 20
13.2327709436627696
 30
0.0
 40
0.0088519195198303
 50
269.8982559076055168
 51
293.3707557017211229
  0
LINE
  5
3619
  8
0
 10
200.3488079484357058
 20
13.2563571348265405
 30
0.0
 11
200.3552673010397882
 21
13.2542828751240904
 31
0.0
  0
ARC
  5
361A
  8
0
 10
200.2727386015662887
 20
13.4132528065217898
 30
0.0
 40
0.0070788053577774
 50
243.7433249959005082
 51
284.6475360749993229
  0
ARC
  5
361B
  8
0
 10
200.2762127037873086
 20
13.4111648982421698
 30
0.0
 40
0.0050499137502347
 50
250.5195734207181033
 51
285.197799228491192
  0
LINE
  5
361C
  8
0
 10
200.2696069863987134
 20
13.4069043837463706
 30
0.0
 11
200.2560773253356103
 21
13.4112507369093201
 31
0.0
  0
ARC
  5
361D
  8
0
 10
200.2230851218334067
 20
13.2390366516553506
 30
0.0
 40
0.0073827887718154
 50
188.5083136640893997
 51
251.2822103527317097
  0
ARC
  5
361E
  8
0
 10
200.2226385546304073
 20
13.2345382053324396
 30
0.0
 40
0.0029920838002926
 50
249.7750191213081905
 51
356.3382251674505028
  0
LINE
  5
361F
  8
0
 10
200.1668792543397899
 20
13.2843535650240891
 30
0.0
 11
200.1438710343414868
 21
13.2769663351130696
 31
0.0
  0
LINE
  5
3620
  8
0
 10
200.1406049858829022
 20
13.3063333592963602
 30
0.0
 11
200.1406057059396915
 21
13.2842454303240896
 31
0.0
  0
ARC
  5
3621
  8
0
 10
200.1508152614979963
 20
13.2843716307870796
 30
0.0
 40
0.0102110833411025
 50
180.7025793479431002
 51
220.258829579530186
  0
LINE
  5
3622
  8
0
 10
200.1406049458398115
 20
13.3063334006240908
 30
0.0
 11
200.1375609269364872
 21
13.3095045970656596
 31
0.0
  0
LINE
  5
3623
  8
0
 10
200.1375609269364872
 20
13.3095045970656596
 30
0.0
 11
200.1231980156109103
 21
13.3048931091529798
 31
0.0
  0
LINE
  5
3624
  8
0
 10
200.1406049858829022
 20
13.30633335890799
 30
0.0
 11
200.1464254493398016
 21
13.3082021454240902
 31
0.0
  0
LINE
  5
3625
  8
0
 10
200.1604183543487068
 20
13.3341256268970305
 30
0.0
 11
200.1668777980416962
 21
13.3320503326714199
 31
0.0
  0
LINE
  5
3626
  8
0
 10
200.1668777980416962
 20
13.3320503326714199
 30
0.0
 11
200.173338810415288
 21
13.33412476448758
 31
0.0
  0
LINE
  5
3627
  8
0
 10
200.3014410564396997
 20
13.4139650576240896
 30
0.0
 11
200.3014410564396997
 21
13.4172723418699
 31
0.0
  0
LINE
  5
3628
  8
0
 10
200.3488086675785951
 20
13.4118916603127403
 30
0.0
 11
200.3552673010397882
 21
13.4098179922240899
 31
0.0
  0
LINE
  5
3629
  8
0
 10
200.1717434784098941
 20
13.28176751354661
 30
0.0
 11
200.1717434783396925
 21
13.2596802753240901
 31
0.0
  0
LINE
  5
362A
  8
0
 10
200.1733386162397892
 20
13.2822796631240898
 30
0.0
 11
200.1717434784098941
 21
13.28176751354661
 31
0.0
  0
LINE
  5
362B
  8
0
 10
200.1717434784098941
 20
13.28176751354661
 30
0.0
 11
200.168548641441987
 21
13.2838156567456291
 31
0.0
  0
ARC
  5
362C
  8
0
 10
200.179555410337997
 20
13.2599658367951498
 30
0.0
 40
0.0078171495380234
 50
182.0934879290587958
 51
235.2681662187887923
  0
ARC
  5
362D
  8
0
 10
200.176651559301888
 20
13.2555348474147294
 30
0.0
 40
0.0025055815624087
 50
242.2632151649256969
 51
295.7560996084581006
  0
ARC
  5
362E
  8
0
 10
200.4999962415552091
 20
13.3417803021009291
 30
0.0
 40
0.2017672146524442
 50
291.5710392123680208
 51
337.4856643720698912
  0
ARC
  5
362F
  8
0
 10
200.3665076054720089
 20
12.8964720957163195
 30
0.0
 40
0.5743088894876877
 50
62.2787912749464496
 51
91.1214577027061239
  0
ARC
  5
3630
  8
0
 10
200.359799007340996
 20
13.64087910428794
 30
0.0
 40
0.5318538994900404
 50
269.5118005392878899
 51
293.7706536414351035
  0
ARC
  5
3631
  8
0
 10
200.3607879951358939
 20
13.6401757305337501
 30
0.0
 40
0.5189886905762378
 50
269.3905099608144269
 51
292.8526483044607858
  0
ARC
  5
3632
  8
0
 10
200.4607161642551887
 20
13.4030661410769198
 30
0.0
 40
0.2616822654797923
 50
292.8526483044607858
 51
315.4537885282027219
  0
ARC
  5
3633
  8
0
 10
200.5495680186612901
 20
13.3156106880662204
 30
0.0
 40
0.1370102626374798
 50
315.4537885282027787
 51
344.2565493485541879
  0
ARC
  5
3634
  8
0
 10
200.3552740651429076
 20
13.7068330583318794
 30
0.0
 40
0.572517363847747
 50
269.9993230693368105
 51
275.573233047602514
  0
LINE
  5
3635
  8
0
 10
200.4113269490397897
 20
13.1674783767240893
 30
0.0
 11
200.4050031472397961
 21
13.1874226722240895
 31
0.0
  0
LINE
  5
3636
  8
0
 10
200.4050031472397961
 20
13.1874226722240895
 30
0.0
 11
200.4050031472062017
 21
13.1596099371295594
 31
0.0
  0
LINE
  5
3637
  8
0
 10
200.4060286286409109
 20
13.1514675973205399
 30
0.0
 11
200.4103014680574972
 21
13.1379917206067205
 31
0.0
  0
ARC
  5
3638
  8
0
 10
200.3553664582231022
 20
13.6698519253208293
 30
0.0
 40
0.5208540746003095
 50
269.9780552018884237
 51
275.5818421842290036
  0
ARC
  5
3639
  8
0
 10
200.4384197623431874
 20
13.1596828232505203
 30
0.0
 40
0.0334166946241168
 50
180.1249695840521952
 51
194.2315967978086064
  0
LINE
  5
363A
  8
0
 10
200.4113269490397897
 20
13.1674783767240893
 30
0.0
 11
200.4113269490397897
 21
13.1382893633112694
 31
0.0
  0
ARC
  5
363B
  8
0
 10
200.4088734605510069
 20
13.1384488595147602
 30
0.0
 40
0.0024586672819192
 50
324.5271598988538813
 51
356.2805536861980045
  0
ARC
  5
363C
  8
0
 10
200.41250944951571
 20
13.1386445418232807
 30
0.0
 40
0.0023024677327758
 50
196.4710655564445858
 51
224.8031963021333866
  0
ARC
  5
363D
  8
0
 10
200.3675497630208042
 20
13.6118487291445796
 30
0.0
 40
0.4260753850934436
 50
275.0429903977766912
 51
290.9003576991389082
  0
ARC
  5
363E
  8
0
 10
200.3638148516656088
 20
13.6727507995124995
 30
0.0
 40
0.5075013503699911
 50
275.3718773327008194
 51
287.8704346233395199
  0
ARC
  5
363F
  8
0
 10
200.4330929487663013
 20
13.4506536771195098
 30
0.0
 40
0.3032291760751559
 50
290.4823530100131279
 51
307.7054215022116068
  0
ARC
  5
3640
  8
0
 10
200.5304531330266968
 20
13.1863019857696706
 30
0.0
 40
0.0109079136672553
 50
181.6105469031371911
 51
226.4432743991866914
  0
ARC
  5
3641
  8
0
 10
200.5978265098509894
 20
13.2256469912046608
 30
0.0
 40
0.0079579812462951
 50
183.8659321206000072
 51
247.0552854408871895
  0
LINE
  5
3642
  8
0
 10
200.6197179610396972
 20
13.2413071310240902
 30
0.0
 11
200.5898866366397044
 21
13.2529231828240892
 31
0.0
  0
LINE
  5
3643
  8
0
 10
200.5898866366397044
 20
13.2529231828240892
 30
0.0
 11
200.5898866366397044
 21
13.2251104477241004
 31
0.0
  0
LINE
  5
3644
  8
0
 10
200.6197179610396972
 20
13.2413071310240902
 30
0.0
 11
200.6197179610396972
 21
13.2134943959240907
 31
0.0
  0
ARC
  5
3645
  8
0
 10
200.6162899026587922
 20
13.2133330376938005
 30
0.0
 40
0.0034318538345287
 50
311.1570126554428271
 51
2.6949152725576151
  0
ARC
  5
3646
  8
0
 10
200.6164670218120136
 20
13.2138602855608909
 30
0.0
 40
0.0037432054724292
 50
244.9218476454331039
 51
303.7841610500469756
  0
LINE
  5
3647
  8
0
 10
200.6148804488761073
 20
13.2104699502488803
 30
0.0
 11
200.5947241482112986
 21
13.2183186340909398
 31
0.0
  0
LINE
  5
3648
  8
0
 10
200.5195495284397111
 20
13.2138081469232205
 30
0.0
 11
200.5195495284397111
 21
13.1859954118240896
 31
0.0
  0
ARC
  5
3649
  8
0
 10
200.423016617749596
 20
13.4423800210932907
 30
0.0
 40
0.273955599899753
 50
290.6321594398942239
 51
307.5254214724935764
  0
ARC
  5
364A
  8
0
 10
200.5073541454331973
 20
13.3639172383526805
 30
0.0
 40
0.1383159154524003
 50
306.6335986113001013
 51
340.0057061788551209
  0
ARC
  5
364B
  8
0
 10
200.5067527198631012
 20
13.3861417042929407
 30
0.0
 40
0.1836796105398314
 50
307.9528225142590259
 51
325.4117019995986766
  0
LINE
  5
364C
  8
0
 10
200.6673815691675884
 20
13.2809560500311701
 30
0.0
 11
200.6431490950398029
 21
13.2833322104240903
 31
0.0
  0
LINE
  5
364D
  8
0
 10
200.6373333012398064
 20
13.3166233537240899
 30
0.0
 11
200.6373333012398064
 21
13.2888106187240904
 31
0.0
  0
LINE
  5
364E
  8
0
 10
200.673010884023995
 20
13.2840792748818703
 30
0.0
 11
200.675026166219709
 21
13.2911344051530893
 31
0.0
  0
ARC
  5
364F
  8
0
 10
200.6434412186436873
 20
13.2894685070080403
 30
0.0
 40
0.0061432460480592
 50
186.1476694626196036
 51
267.2744441818288124
  0
ARC
  5
3650
  8
0
 10
200.6679888790897053
 20
13.2864804321489505
 30
0.0
 40
0.0055576634591139
 50
263.7265147223764075
 51
334.8692846034305148
  0
ARC
  5
3651
  8
0
 10
200.3605159271801881
 20
13.5865744911903494
 30
0.0
 40
0.396984815220028
 50
269.2424574533109762
 51
295.6956365644824132
  0
ARC
  5
3652
  8
0
 10
200.4565246009242117
 20
13.3870443166707105
 30
0.0
 40
0.1755577256896088
 50
295.6956365644822995
 51
328.5048293694122776
  0
ARC
  5
3653
  8
0
 10
200.5364853322664089
 20
13.3380535877147803
 30
0.0
 40
0.0817824086791318
 50
328.5048293694122208
 51
7.3017721018761828
  0
ARC
  5
3654
  8
0
 10
200.4970880757371958
 20
13.3992043471928692
 30
0.0
 40
0.1511770875198608
 50
315.5104389015182846
 51
335.0804182849655035
  0
ARC
  5
3655
  8
0
 10
200.361156103042191
 20
13.5686029029993591
 30
0.0
 40
0.3642399059122337
 50
269.0736374679917731
 51
295.1177364107556969
  0
ARC
  5
3656
  8
0
 10
200.4438754711470949
 20
13.3921581688269402
 30
0.0
 40
0.1693675423589568
 50
295.1177364107542758
 51
321.2012859673814091
  0
ARC
  5
3657
  8
0
 10
200.5100104033782031
 20
13.3389867619899398
 30
0.0
 40
0.0845086726620543
 50
321.2012859673815228
 51
356.7036567771265254
  0
ARC
  5
3658
  8
0
 10
200.5176377203704021
 20
13.3309366229501602
 30
0.0
 40
0.0768078435008715
 50
2.3809505721308999
 51
18.9504234346505918
  0
ARC
  5
3659
  8
0
 10
200.5062212990455066
 20
13.3270901967099906
 30
0.0
 40
0.0888546477023845
 50
18.9055873803278907
 51
28.6031310992131189
  0
ARC
  5
365A
  8
0
 10
200.355459647593193
 20
13.6432905778909603
 30
0.0
 40
0.4336629901869744
 50
269.9745870726144972
 51
277.0855203939668172
  0
ARC
  5
365B
  8
0
 10
200.3615520056648052
 20
13.5942772146856594
 30
0.0
 40
0.3842724384633151
 50
277.085520507092383
 51
289.3826893461491068
  0
ARC
  5
365C
  8
0
 10
200.4045436192108127
 20
13.4720780827145905
 30
0.0
 40
0.2547312994773821
 50
289.3826893461491068
 51
300.8189088351551845
  0
ARC
  5
365D
  8
0
 10
200.4480825782833051
 20
13.4025306091008307
 30
0.0
 40
0.1727073766870706
 50
300.2350641994524949
 51
313.7498940558422191
  0
ARC
  5
365E
  8
0
 10
200.4741629641335976
 20
13.3750233658297795
 30
0.0
 40
0.1348023306847296
 50
313.8272577307640177
 51
321.4318230323272019
  0
LINE
  5
365F
  8
0
 10
200.3871008090397936
 20
13.39479103552409
 30
0.0
 11
200.3871013291978045
 21
13.4069344140905997
 31
0.0
  0
LINE
  5
3660
  8
0
 10
200.3772588910397019
 20
13.3947914134240893
 30
0.0
 11
200.3772588910397019
 21
13.4069040777867698
 31
0.0
  0
LINE
  5
3661
  8
0
 10
200.4295476083298126
 20
13.3859691191974708
 30
0.0
 11
200.4121013541397929
 21
13.3803680976240909
 31
0.0
  0
LINE
  5
3662
  8
0
 10
200.4090927111398059
 20
13.3804811994240893
 30
0.0
 11
200.4090928916398013
 21
13.4098179922240899
 31
0.0
  0
LINE
  5
3663
  8
0
 10
200.4329980527396913
 20
13.4062915973240901
 30
0.0
 11
200.4090935456397915
 21
13.4139660060703498
 31
0.0
  0
LINE
  5
3664
  8
0
 10
200.4090928916398013
 20
13.4098179922240899
 30
0.0
 11
200.4155538283397959
 21
13.4118923998240902
 31
0.0
  0
LINE
  5
3665
  8
0
 10
200.4090928916398013
 20
13.4098179922240899
 30
0.0
 11
200.402633529739802
 21
13.4118918942240892
 31
0.0
  0
LINE
  5
3666
  8
0
 10
200.4090935456397915
 20
13.4139650576240896
 30
0.0
 11
200.3847232626397954
 21
13.4061753962240893
 31
0.0
  0
ARC
  5
3667
  8
0
 10
200.4107820479258919
 20
13.3853462761692903
 30
0.0
 40
0.0051500320886174
 50
250.8510845286735105
 51
284.8431830928789168
  0
ARC
  5
3668
  8
0
 10
200.407354220160812
 20
13.3855747830206209
 30
0.0
 40
0.005382094828097
 50
261.4020357322713721
 51
288.845285867284872
  0
ARC
  5
3669
  8
0
 10
200.3804077808713089
 20
13.3956308984392791
 30
0.0
 40
0.0067459909209133
 50
285.2337439626555806
 51
352.8527104955477967
  0
ARC
  5
366A
  8
0
 10
200.3841090822315891
 20
13.3957669842196196
 30
0.0
 40
0.0069192876526256
 50
188.1039529332007874
 51
253.8144678125175062
  0
LINE
  5
366B
  8
0
 10
200.3886395127863977
 20
13.3859695137069608
 30
0.0
 11
200.3821801509398028
 21
13.3838956117240908
 31
0.0
  0
LINE
  5
366C
  8
0
 10
200.3821801509398028
 20
13.3838956117240908
 30
0.0
 11
200.3757207889397023
 21
13.3859695137240902
 31
0.0
  0
LINE
  5
366D
  8
0
 10
200.3757207889397023
 20
13.3859695137240902
 30
0.0
 11
200.3578105254397883
 21
13.3802530126240899
 31
0.0
  0
LINE
  5
366E
  8
0
 10
200.3886395127863977
 20
13.3859695137069608
 30
0.0
 11
200.406549595839806
 21
13.3802531738240909
 31
0.0
  0
LINE
  5
366F
  8
0
 10
200.414013658839707
 20
13.3688681844240893
 30
0.0
 11
200.4140141777400004
 21
13.3809821988594706
 31
0.0
  0
LINE
  5
3670
  8
0
 10
200.4041717408397005
 20
13.3688685623240904
 30
0.0
 11
200.4041717408397005
 21
13.3810121109731597
 31
0.0
  0
ARC
  5
3671
  8
0
 10
200.4073206306713075
 20
13.3697080473392695
 30
0.0
 40
0.0067459909209133
 50
285.2337439626555806
 51
352.8527104955477967
  0
ARC
  5
3672
  8
0
 10
200.4110219320315878
 20
13.3698441331196207
 30
0.0
 40
0.0069192876526256
 50
188.1039529332007874
 51
253.8144678125175062
  0
LINE
  5
3673
  8
0
 10
200.4295476090860859
 20
13.3341238017546893
 30
0.0
 11
200.412101317397088
 21
13.3285227681425091
 31
0.0
  0
LINE
  5
3674
  8
0
 10
200.4090926743971011
 20
13.3286358699425094
 30
0.0
 11
200.4090928548970965
 21
13.3579726627425099
 31
0.0
  0
LINE
  5
3675
  8
0
 10
200.4329980159971001
 20
13.3544462678425102
 30
0.0
 11
200.4155531195960123
 21
13.3600468545836701
 31
0.0
  0
LINE
  5
3676
  8
0
 10
200.4090928548970965
 20
13.3579726627425099
 30
0.0
 11
200.415553791597091
 21
13.3600470703425103
 31
0.0
  0
LINE
  5
3677
  8
0
 10
200.4090928548970965
 20
13.3579726627425099
 30
0.0
 11
200.4026334929970972
 21
13.3600465647425093
 31
0.0
  0
LINE
  5
3678
  8
0
 10
200.4026334929970972
 20
13.3600465647425093
 30
0.0
 11
200.3851891963396952
 21
13.3544469938240908
 31
0.0
  0
ARC
  5
3679
  8
0
 10
200.4107820111833007
 20
13.3335009466877104
 30
0.0
 40
0.0051500320886174
 50
250.8510845286735105
 51
284.8431830928789168
  0
ARC
  5
367A
  8
0
 10
200.4073541834181924
 20
13.3337294535390303
 30
0.0
 40
0.005382094828097
 50
261.4020357322713721
 51
288.845285867284872
  0
LINE
  5
367B
  8
0
 10
200.3886394760438066
 20
13.3341241842253702
 30
0.0
 11
200.382180114197098
 21
13.3320502822425109
 31
0.0
  0
LINE
  5
367C
  8
0
 10
200.382180114197098
 20
13.3320502822425109
 30
0.0
 11
200.3757207521971111
 21
13.3341241842425102
 31
0.0
  0
LINE
  5
367D
  8
0
 10
200.3821797274397056
 20
13.33619702782409
 30
0.0
 11
200.3578104886971119
 21
13.32840768314251
 31
0.0
  0
LINE
  5
367E
  8
0
 10
200.3886394760438066
 20
13.3341241842253702
 30
0.0
 11
200.4065495590971011
 21
13.3284078443425091
 31
0.0
  0
LINE
  5
367F
  8
0
 10
200.4360060497971006
 20
13.2843522087425097
 30
0.0
 11
200.412101317397088
 21
13.2766777291425004
 31
0.0
  0
LINE
  5
3680
  8
0
 10
200.4090926743971011
 20
13.2767908309425096
 30
0.0
 11
200.4090928548970965
 21
13.3061276237424995
 31
0.0
  0
LINE
  5
3681
  8
0
 10
200.4329980159971001
 20
13.3026012288424997
 30
0.0
 11
200.4155531195960123
 21
13.3082018155836597
 31
0.0
  0
LINE
  5
3682
  8
0
 10
200.4090928548970965
 20
13.3061276237424995
 30
0.0
 11
200.415553791597091
 21
13.3082020313425105
 31
0.0
  0
LINE
  5
3683
  8
0
 10
200.4090928548970965
 20
13.3061276237424995
 30
0.0
 11
200.4026334929970972
 21
13.3082015257425095
 31
0.0
  0
ARC
  5
3684
  8
0
 10
200.4107820111833007
 20
13.2816559076877105
 30
0.0
 40
0.0051500320886174
 50
250.8510845286735105
 51
284.8431830928789168
  0
ARC
  5
3685
  8
0
 10
200.4073541834181924
 20
13.2818844145390305
 30
0.0
 40
0.005382094828097
 50
261.4020357322713721
 51
288.845285867284872
  0
LINE
  5
3686
  8
0
 10
200.3886394760438066
 20
13.2822791452253703
 30
0.0
 11
200.382180114197098
 21
13.2802052432425093
 31
0.0
  0
LINE
  5
3687
  8
0
 10
200.382180114197098
 20
13.2802052432425093
 30
0.0
 11
200.3757207521971111
 21
13.2822791452425104
 31
0.0
  0
LINE
  5
3688
  8
0
 10
200.3757207521971111
 20
13.2822791452425104
 30
0.0
 11
200.3578104886971119
 21
13.2765626441424995
 31
0.0
  0
LINE
  5
3689
  8
0
 10
200.3886394760438066
 20
13.2822791452253703
 30
0.0
 11
200.4065495590971011
 21
13.2765628053425093
 31
0.0
  0
LINE
  5
368A
  8
0
 10
200.4360060497971006
 20
13.2325071696425098
 30
0.0
 11
200.412101317397088
 21
13.2248326900425095
 31
0.0
  0
LINE
  5
368B
  8
0
 10
200.4090926743971011
 20
13.2249457918425097
 30
0.0
 11
200.4090928548970965
 21
13.2542825846424996
 31
0.0
  0
LINE
  5
368C
  8
0
 10
200.4329980159971001
 20
13.2507561897424999
 30
0.0
 11
200.4155531195960123
 21
13.2563567764836705
 31
0.0
  0
LINE
  5
368D
  8
0
 10
200.4090928548970965
 20
13.2542825846424996
 30
0.0
 11
200.415553791597091
 21
13.2563569922425106
 31
0.0
  0
LINE
  5
368E
  8
0
 10
200.4090928548970965
 20
13.2542825846424996
 30
0.0
 11
200.4026337260060018
 21
13.2563564118305095
 31
0.0
  0
ARC
  5
368F
  8
0
 10
200.4107820111833007
 20
13.2298108685877107
 30
0.0
 40
0.0051500320886174
 50
250.8510845286735105
 51
284.8431830928789168
  0
ARC
  5
3690
  8
0
 10
200.4073541834181071
 20
13.2300393754390306
 30
0.0
 40
0.005382094828097
 50
261.4020357322713721
 51
288.845285867284872
  0
LINE
  5
3691
  8
0
 10
200.3886394760438066
 20
13.2304341061253705
 30
0.0
 11
200.382180114197098
 21
13.2283602041425095
 31
0.0
  0
LINE
  5
3692
  8
0
 10
200.382180114197098
 20
13.2283602041425095
 30
0.0
 11
200.3757207521971111
 21
13.2304341061425106
 31
0.0
  0
LINE
  5
3693
  8
0
 10
200.3757207521971111
 20
13.2304341061425106
 30
0.0
 11
200.3578104886971119
 21
13.2247176050425104
 31
0.0
  0
LINE
  5
3694
  8
0
 10
200.3886394760438066
 20
13.2304341061253705
 30
0.0
 11
200.4065495590971011
 21
13.2247177662425095
 31
0.0
  0
LINE
  5
3695
  8
0
 10
200.387100956980305
 20
13.3429459081110604
 30
0.0
 11
200.387101475919394
 21
13.3550608302734801
 31
0.0
  0
ARC
  5
3696
  8
0
 10
200.3804077210702985
 20
13.3437858637449196
 30
0.0
 40
0.0067462085847137
 50
285.2283715180648187
 51
352.8521486737261057
  0
LINE
  5
3697
  8
0
 10
200.3871003573802909
 20
13.2911008307110592
 30
0.0
 11
200.3871008762698125
 21
13.3032145948670308
 31
0.0
  0
LINE
  5
3698
  8
0
 10
200.3772584393803129
 20
13.2911012086110603
 30
0.0
 11
200.3772584393803129
 21
13.3032446683286505
 31
0.0
  0
ARC
  5
3699
  8
0
 10
200.3804073292118915
 20
13.2919406936262501
 30
0.0
 40
0.0067459909209133
 50
285.2337439626555806
 51
352.8527104955477967
  0
ARC
  5
369A
  8
0
 10
200.3841086305722001
 20
13.2920767794065906
 30
0.0
 40
0.0069192876526256
 50
188.1039529332007874
 51
253.8144678125175062
  0
LINE
  5
369B
  8
0
 10
200.3871003573802909
 20
13.2392557916110594
 30
0.0
 11
200.3871008762750989
 21
13.2513696779739707
 31
0.0
  0
LINE
  5
369C
  8
0
 10
200.3772584393803129
 20
13.2392561695110604
 30
0.0
 11
200.3772584393803129
 21
13.2513998732664806
 31
0.0
  0
ARC
  5
369D
  8
0
 10
200.3804073292118915
 20
13.2400956545262503
 30
0.0
 40
0.0067459909209133
 50
285.2337439626555806
 51
352.8527104955477967
  0
ARC
  5
369E
  8
0
 10
200.3841086305722001
 20
13.2402317403065908
 30
0.0
 40
0.0069192876526256
 50
188.1039529332007874
 51
253.8144678125175062
  0
ARC
  5
369F
  8
0
 10
200.3569999410624121
 20
13.3336781775890891
 30
0.0
 40
0.0053318013806125
 50
251.0366456014814105
 51
278.7365964831926135
  0
ARC
  5
36A0
  8
0
 10
200.3570013329139101
 20
13.2818305039540103
 30
0.0
 40
0.0053296416460261
 50
251.0128442511393132
 51
278.7325172645624889
  0
ARC
  5
36A1
  8
0
 10
200.357006354472702
 20
13.2300414289304609
 30
0.0
 40
0.0053842114223764
 50
251.156077319930688
 51
278.5892841957826249
  0
LINE
  5
36A2
  8
0
 10
200.402633726006087
 20
13.2563564118305095
 30
0.0
 11
200.3851884949970952
 21
13.2507557187436706
 31
0.0
  0
LINE
  5
36A3
  8
0
 10
200.3821798519971082
 20
13.2508688205436709
 30
0.0
 11
200.3821800324971036
 21
13.2802056133436697
 31
0.0
  0
ARC
  5
36A4
  8
0
 10
200.3838691887833079
 20
13.2557338972888701
 30
0.0
 40
0.0051500320886174
 50
250.8510845286735105
 51
284.8431830928789168
  0
ARC
  5
36A5
  8
0
 10
200.3804413610181996
 20
13.2559624041402007
 30
0.0
 40
0.005382094828097
 50
261.4020357322713721
 51
288.845285867284872
  0
LINE
  5
36A6
  8
0
 10
200.3617266536438137
 20
13.2563571348265405
 30
0.0
 11
200.3796367366971083
 21
13.2506407949436706
 31
0.0
  0
LINE
  5
36A7
  8
0
 10
200.4026343868196989
 20
13.3082015408757499
 30
0.0
 11
200.3851883046970954
 21
13.3026005745436695
 31
0.0
  0
LINE
  5
36A8
  8
0
 10
200.3821796616971085
 20
13.3027136763436697
 30
0.0
 11
200.3821798421971039
 21
13.3320504691436703
 31
0.0
  0
ARC
  5
36A9
  8
0
 10
200.3838689984833081
 20
13.3075787530888796
 30
0.0
 40
0.0051500320886174
 50
250.8510845286735105
 51
284.8431830928789168
  0
ARC
  5
36AA
  8
0
 10
200.3804411707181998
 20
13.3078072599401995
 30
0.0
 40
0.005382094828097
 50
261.4020357322713721
 51
288.845285867284872
  0
LINE
  5
36AB
  8
0
 10
200.3552673010397882
 20
13.3102635537682907
 30
0.0
 11
200.3796365463971085
 21
13.3024856507436695
 31
0.0
  0
ARC
  5
36AC
  8
0
 10
200.3570147822343017
 20
13.3856714408057407
 30
0.0
 40
0.0054765473803006
 50
251.3924337091912093
 51
278.3546611166784146
  0
LINE
  5
36AD
  8
0
 10
200.3791714335397955
 20
13.4062899665240902
 30
0.0
 11
200.3617259345010098
 21
13.4118916603127403
 31
0.0
  0
LINE
  5
36AE
  8
0
 10
200.3552673010397882
 20
13.4139655068024499
 30
0.0
 11
200.3552667634396869
 21
13.4139656794240896
 31
0.0
  0
ARC
  5
36AF
  8
0
 10
200.3839189681881976
 20
13.41149748518575
 30
0.0
 40
0.0053825199006243
 50
251.1537810799925978
 51
278.5937288419626725
  0
ARC
  5
36B0
  8
0
 10
200.3804951102056862
 20
13.4111353573549206
 30
0.0
 40
0.0050229405948687
 50
254.7205996792121994
 51
289.6023422284409889
  0
LINE
  5
36B1
  8
0
 10
200.3552673010397882
 20
13.3632001238832405
 30
0.0
 11
200.38217989047169
 21
13.3545592339235792
 31
0.0
  0
ARC
  5
36B2
  8
0
 10
200.3838608204573859
 20
13.3592293353826808
 30
0.0
 40
0.0049634033956473
 50
250.2044526173797863
 51
285.5235289744996976
  0
LINE
  5
36B3
  8
0
 10
200.3821801509398028
 20
13.3838956117240908
 30
0.0
 11
200.3821801509398028
 21
13.3545591401789903
 31
0.0
  0
LINE
  5
36B4
  8
0
 10
200.4140136956806089
 20
13.3170228549109897
 30
0.0
 11
200.4140142145807886
 21
13.3291368693463692
 31
0.0
  0
LINE
  5
36B5
  8
0
 10
200.4041717776806024
 20
13.3170232328109908
 30
0.0
 11
200.4041717776806024
 21
13.3291667814600601
 31
0.0
  0
ARC
  5
36B6
  8
0
 10
200.4073206675120957
 20
13.3178627178261806
 30
0.0
 40
0.0067459909209133
 50
285.2337439626555806
 51
352.8527104955477967
  0
ARC
  5
36B7
  8
0
 10
200.4110219688724044
 20
13.3179988036065193
 30
0.0
 40
0.0069192876526256
 50
188.1039529332007874
 51
253.8144678125175062
  0
LINE
  5
36B8
  8
0
 10
200.4140136956397953
 20
13.2651778159240799
 30
0.0
 11
200.4140142145400034
 21
13.2772918303594594
 31
0.0
  0
LINE
  5
36B9
  8
0
 10
200.4041717776397888
 20
13.2651781938240791
 30
0.0
 11
200.4041717776397888
 21
13.2773217424731502
 31
0.0
  0
ARC
  5
36BA
  8
0
 10
200.4073206674713958
 20
13.2660176788392707
 30
0.0
 40
0.0067459909209133
 50
285.2337439626555806
 51
352.8527104955477967
  0
ARC
  5
36BB
  8
0
 10
200.4110219688315908
 20
13.2661537646196095
 30
0.0
 40
0.0069192876526256
 50
188.1039529332007874
 51
253.8144678125175062
  0
LINE
  5
36BC
  8
0
 10
200.3821797274397056
 20
13.33619702782409
 30
0.0
 11
200.3821797274397056
 21
13.3372765378431808
 31
0.0
  0
LINE
  5
36BD
  8
0
 10
200.5370503841768937
 20
13.1671880204740095
 30
0.0
 11
200.5229367908397933
 21
13.1783971024240891
 31
0.0
  0
ARC
  5
36BE
  8
0
 10
200.5392751995674132
 20
13.1699137378680096
 30
0.0
 40
0.0035184283869182
 50
230.7776068903311
 51
249.7555697469653921
  0
ARC
  5
36BF
  8
0
 10
200.5386538246540056
 20
13.1682299358868704
 30
0.0
 40
0.0017236315616497
 50
249.7672190552823963
 51
288.423562355207082
  0
LINE
  5
36C0
  8
0
 10
200.483373846513814
 20
13.3341235940264706
 30
0.0
 11
200.4659269079938895
 21
13.3285223527528807
 31
0.0
  0
LINE
  5
36C1
  8
0
 10
200.4629182649939025
 20
13.3286354545528791
 30
0.0
 11
200.4629184454938979
 21
13.3579722473528797
 31
0.0
  0
LINE
  5
36C2
  8
0
 10
200.4868236065939016
 20
13.35444585245288
 30
0.0
 11
200.4693787101928137
 21
13.3600464391940399
 31
0.0
  0
LINE
  5
36C3
  8
0
 10
200.4629184454938979
 20
13.3579722473528797
 30
0.0
 11
200.4693793821938925
 21
13.36004665495288
 31
0.0
  0
LINE
  5
36C4
  8
0
 10
200.4629184454938979
 20
13.3579722473528797
 30
0.0
 11
200.4564590835938986
 21
13.3600461493528808
 31
0.0
  0
LINE
  5
36C5
  8
0
 10
200.4564590835938986
 20
13.3600461493528808
 30
0.0
 11
200.4390147869364966
 21
13.3544465784344606
 31
0.0
  0
ARC
  5
36C6
  8
0
 10
200.4646076017801022
 20
13.3335005312980801
 30
0.0
 40
0.0051500320886174
 50
250.8510845286735105
 51
284.8431830928789168
  0
ARC
  5
36C7
  8
0
 10
200.4611797740149939
 20
13.3337290381494107
 30
0.0
 40
0.005382094828097
 50
261.4020357322713721
 51
288.845285867284872
  0
LINE
  5
36C8
  8
0
 10
200.4424650666404943
 20
13.3341237688357506
 30
0.0
 11
200.4603751496939026
 21
13.3284074289528807
 31
0.0
  0
LINE
  5
36C9
  8
0
 10
200.4678392862774103
 20
13.3170224395213594
 30
0.0
 11
200.4678398051775901
 21
13.3291364539567407
 31
0.0
  0
LINE
  5
36CA
  8
0
 10
200.4579973682774039
 20
13.3170228174213605
 30
0.0
 11
200.4579973682774039
 21
13.3291663660704298
 31
0.0
  0
ARC
  5
36CB
  8
0
 10
200.4611462581090109
 20
13.3178623024365503
 30
0.0
 40
0.0067459909209144
 50
285.2512823376646907
 51
352.8527104955419986
  0
ARC
  5
36CC
  8
0
 10
200.464844371244908
 20
13.3179969331365005
 30
0.0
 40
0.0069159262151739
 50
188.0957419911746058
 51
253.8510715537283033
  0
LINE
  5
36CD
  8
0
 10
200.5371957916642032
 20
13.33412476448758
 30
0.0
 11
200.519752498462708
 21
13.3285246935228905
 31
0.0
  0
LINE
  5
36CE
  8
0
 10
200.5167438554626074
 20
13.3286377953228907
 30
0.0
 11
200.516744035962688
 21
13.3579745881228895
 31
0.0
  0
LINE
  5
36CF
  8
0
 10
200.5406491970626917
 20
13.3544481932228898
 30
0.0
 11
200.5232043006616038
 21
13.3600487799640497
 31
0.0
  0
LINE
  5
36D0
  8
0
 10
200.516744035962688
 20
13.3579745881228895
 30
0.0
 11
200.523204972662711
 21
13.3600489957228898
 31
0.0
  0
LINE
  5
36D1
  8
0
 10
200.516744035962688
 20
13.3579745881228895
 30
0.0
 11
200.5102846740626035
 21
13.3600484901228906
 31
0.0
  0
LINE
  5
36D2
  8
0
 10
200.5102846740626035
 20
13.3600484901228906
 30
0.0
 11
200.4928403774052867
 21
13.3544489192044704
 31
0.0
  0
ARC
  5
36D3
  8
0
 10
200.518433192248807
 20
13.3335028720680899
 30
0.0
 40
0.0051500320886174
 50
250.8510845286735105
 51
284.8431830928789168
  0
ARC
  5
36D4
  8
0
 10
200.5150053644836987
 20
13.3337313789194205
 30
0.0
 40
0.005382094828097
 50
261.4020357322713721
 51
288.845285867284872
  0
LINE
  5
36D5
  8
0
 10
200.4962906571093129
 20
13.3341261096057604
 30
0.0
 11
200.5142007401626927
 21
13.3284097697228905
 31
0.0
  0
LINE
  5
36D6
  8
0
 10
200.5216648767460867
 20
13.3170247802913693
 30
0.0
 11
200.5216653956462949
 21
13.3291387947267506
 31
0.0
  0
LINE
  5
36D7
  8
0
 10
200.5118229587461087
 20
13.3170251581913703
 30
0.0
 11
200.5118229587461087
 21
13.3291687068404503
 31
0.0
  0
ARC
  5
36D8
  8
0
 10
200.5149718485776873
 20
13.3178646432065602
 30
0.0
 40
0.0067459909209133
 50
285.2337439626555806
 51
352.8527104955477967
  0
ARC
  5
36D9
  8
0
 10
200.518673149937996
 20
13.3180007289869007
 30
0.0
 40
0.0069192876526256
 50
188.1039529332007874
 51
253.8144678125175062
  0
LINE
  5
36DA
  8
0
 10
200.5943279351710089
 20
13.3351858319455694
 30
0.0
 11
200.5735780890842079
 21
13.3285242108141606
 31
0.0
  0
LINE
  5
36DB
  8
0
 10
200.5705694460841926
 20
13.3286373126141697
 30
0.0
 11
200.570569626584188
 21
13.3579741054141596
 31
0.0
  0
LINE
  5
36DC
  8
0
 10
200.590315819894613
 20
13.3557829239383992
 30
0.0
 11
200.5770298912831038
 21
13.3600482972553198
 31
0.0
  0
LINE
  5
36DD
  8
0
 10
200.570569626584188
 20
13.3579741054141596
 30
0.0
 11
200.577030563284211
 21
13.3600485130141706
 31
0.0
  0
LINE
  5
36DE
  8
0
 10
200.570569626584188
 20
13.3579741054141596
 30
0.0
 11
200.5641102646841887
 21
13.3600480074141696
 31
0.0
  0
LINE
  5
36DF
  8
0
 10
200.5641102646841887
 20
13.3600480074141696
 30
0.0
 11
200.5466659680269004
 21
13.3544484364957494
 31
0.0
  0
ARC
  5
36E0
  8
0
 10
200.5722587828703922
 20
13.3335023893593707
 30
0.0
 40
0.0051500320886174
 50
250.8510845286735105
 51
284.8431830928789168
  0
ARC
  5
36E1
  8
0
 10
200.5688309551053123
 20
13.3337308962106906
 30
0.0
 40
0.005382094828097
 50
261.4020357322713721
 51
288.845285867284872
  0
LINE
  5
36E2
  8
0
 10
200.5501162477308981
 20
13.3341256268970305
 30
0.0
 11
200.5680263307841926
 21
13.3284092870141695
 31
0.0
  0
LINE
  5
36E3
  8
0
 10
200.5754904673677004
 20
13.31702429758265
 30
0.0
 11
200.5754909862679085
 21
13.3291383120180296
 31
0.0
  0
LINE
  5
36E4
  8
0
 10
200.5656485493676939
 20
13.3170246754826493
 30
0.0
 11
200.5656485493676939
 21
13.3291682241317204
 31
0.0
  0
ARC
  5
36E5
  8
0
 10
200.5687974391993009
 20
13.3178641604978303
 30
0.0
 40
0.0067459909209133
 50
285.2337439626555806
 51
352.8527104955477967
  0
ARC
  5
36E6
  8
0
 10
200.5724987405594959
 20
13.3180002462781797
 30
0.0
 40
0.0069192876526256
 50
188.1039529332007874
 51
253.8144678125175062
  0
LINE
  5
36E7
  8
0
 10
200.4898311147971128
 20
13.3545585284425101
 30
0.0
 11
200.4898312952971082
 21
13.3838953212425107
 31
0.0
  0
LINE
  5
36E8
  8
0
 10
200.5137364563971119
 20
13.3803689263425092
 30
0.0
 11
200.4962915599959956
 21
13.3859695130836691
 31
0.0
  0
LINE
  5
36E9
  8
0
 10
200.4898312952971082
 20
13.3838953212425107
 30
0.0
 11
200.4962922319971028
 21
13.3859697288425092
 31
0.0
  0
LINE
  5
36EA
  8
0
 10
200.4898312952971082
 20
13.3838953212425107
 30
0.0
 11
200.4833719333971089
 21
13.38596922324251
 31
0.0
  0
LINE
  5
36EB
  8
0
 10
200.4833719333971089
 20
13.38596922324251
 30
0.0
 11
200.4659276367397922
 21
13.3803696523240898
 31
0.0
  0
ARC
  5
36EC
  8
0
 10
200.4915204515833125
 20
13.3594236051877093
 30
0.0
 40
0.0051500320886174
 50
250.8510845286735105
 51
284.8431830928789168
  0
ARC
  5
36ED
  8
0
 10
200.4880926238182042
 20
13.3596521120390292
 30
0.0
 40
0.005382094828097
 50
261.4020357322713721
 51
288.845285867284872
  0
LINE
  5
36EE
  8
0
 10
200.4947521360805922
 20
13.3429455134109904
 30
0.0
 11
200.4947526549808003
 21
13.35505952784637
 31
0.0
  0
LINE
  5
36EF
  8
0
 10
200.4849102180806142
 20
13.3429458913109897
 30
0.0
 11
200.4849102180806142
 21
13.3550894399600608
 31
0.0
  0
ARC
  5
36F0
  8
0
 10
200.4880591079121928
 20
13.3437853763261707
 30
0.0
 40
0.0067459909209133
 50
285.2337439626555806
 51
352.8527104955477967
  0
ARC
  5
36F1
  8
0
 10
200.4917604092723877
 20
13.3439214621065201
 30
0.0
 40
0.0069192876526256
 50
188.1039529332007874
 51
253.8144678125175062
  0
LINE
  5
36F2
  8
0
 10
200.4360055241970997
 20
13.3545585284425101
 30
0.0
 11
200.4360057046970951
 21
13.3838953212425107
 31
0.0
  0
LINE
  5
36F3
  8
0
 10
200.4599108657970987
 20
13.3803689263425092
 30
0.0
 11
200.4424659693960109
 21
13.3859695130836691
 31
0.0
  0
LINE
  5
36F4
  8
0
 10
200.4360057046970951
 20
13.3838953212425107
 30
0.0
 11
200.4424666413970897
 21
13.3859697288425092
 31
0.0
  0
LINE
  5
36F5
  8
0
 10
200.4360057046970951
 20
13.3838953212425107
 30
0.0
 11
200.4295463427970958
 21
13.38596922324251
 31
0.0
  0
ARC
  5
36F6
  8
0
 10
200.4376948609832993
 20
13.3594236051877093
 30
0.0
 40
0.0051500320886174
 50
250.8510845286735105
 51
284.8431830928789168
  0
ARC
  5
36F7
  8
0
 10
200.434319379023492
 20
13.3594055158125808
 30
0.0
 40
0.0051318975157308
 50
255.0628773683324937
 51
289.1815021536222048
  0
LINE
  5
36F8
  8
0
 10
200.4409265454806075
 20
13.3429455134109904
 30
0.0
 11
200.4409270643807872
 21
13.35505952784637
 31
0.0
  0
LINE
  5
36F9
  8
0
 10
200.4310846274806011
 20
13.3429458913109897
 30
0.0
 11
200.4310846274806011
 21
13.3550894399600608
 31
0.0
  0
ARC
  5
36FA
  8
0
 10
200.4342335173120944
 20
13.3437853763261707
 30
0.0
 40
0.0067459909209133
 50
285.2337439626555806
 51
352.8527104955477967
  0
ARC
  5
36FB
  8
0
 10
200.437934818672403
 20
13.3439214621065201
 30
0.0
 40
0.0069192876526256
 50
188.1039529332007874
 51
253.8144678125175062
  0
LINE
  5
36FC
  8
0
 10
200.5436572308971108
 20
13.2843522086425097
 30
0.0
 11
200.5419859606375041
 21
13.2838156567456291
 31
0.0
  0
LINE
  5
36FD
  8
0
 10
200.5371987903110949
 20
13.2822787626948209
 30
0.0
 11
200.5197524984970983
 21
13.2766777290425004
 31
0.0
  0
LINE
  5
36FE
  8
0
 10
200.5167438554971113
 20
13.2767908308425095
 30
0.0
 11
200.5167440359971067
 21
13.3061276236424995
 31
0.0
  0
LINE
  5
36FF
  8
0
 10
200.5406491970971103
 20
13.3026012287424997
 30
0.0
 11
200.5232043006959941
 21
13.3082018154836597
 31
0.0
  0
LINE
  5
3700
  8
0
 10
200.5167440359971067
 20
13.3061276236424995
 30
0.0
 11
200.5232049726971013
 21
13.3082020312425104
 31
0.0
  0
LINE
  5
3701
  8
0
 10
200.5167440359971067
 20
13.3061276236424995
 30
0.0
 11
200.5102846740971074
 21
13.3082015256425095
 31
0.0
  0
LINE
  5
3702
  8
0
 10
200.5102846740971074
 20
13.3082015256425095
 30
0.0
 11
200.4928403774397054
 21
13.3026019547240892
 31
0.0
  0
ARC
  5
3703
  8
0
 10
200.518433192283311
 20
13.2816559075877105
 30
0.0
 40
0.0051500320886174
 50
250.8510845286735105
 51
284.8431830928789168
  0
ARC
  5
3704
  8
0
 10
200.5150053645182027
 20
13.2818844144390305
 30
0.0
 40
0.005382094828097
 50
261.4020357322713721
 51
288.845285867284872
  0
LINE
  5
3705
  8
0
 10
200.4897591786779003
 20
13.2843637893303796
 30
0.0
 11
200.5142007401971114
 21
13.2765628052425093
 31
0.0
  0
LINE
  5
3706
  8
0
 10
200.5216648767805907
 20
13.2651778158109899
 30
0.0
 11
200.5216653956807988
 21
13.2772918302463694
 31
0.0
  0
LINE
  5
3707
  8
0
 10
200.5118229587806127
 20
13.2651781937109892
 30
0.0
 11
200.5118229587806127
 21
13.2773217423600602
 31
0.0
  0
ARC
  5
3708
  8
0
 10
200.5149718486121913
 20
13.2660176787261701
 30
0.0
 40
0.0067459909209133
 50
285.2337439626555806
 51
352.8527104955477967
  0
ARC
  5
3709
  8
0
 10
200.5186731499723862
 20
13.2661537645065195
 30
0.0
 40
0.0069192876526256
 50
188.1039529332007874
 51
253.8144678125175062
  0
ARC
  5
370A
  8
0
 10
200.4646077107865096
 20
13.3853466790773297
 30
0.0
 40
0.0051500320886174
 50
250.8510845286735105
 51
284.8431830928789168
  0
ARC
  5
370B
  8
0
 10
200.4611798830214013
 20
13.3855751859286602
 30
0.0
 40
0.005382094828097
 50
261.4020357322713721
 51
288.845285867284872
  0
LINE
  5
370C
  8
0
 10
200.4424650666404943
 20
13.3341237688357506
 30
0.0
 11
200.4360057414398
 21
13.3320502946240893
 31
0.0
  0
LINE
  5
370D
  8
0
 10
200.4360057414398
 20
13.3320502946240893
 30
0.0
 11
200.4295463794655063
 21
13.3341241965479202
 31
0.0
  0
LINE
  5
370E
  8
0
 10
200.4360057414398
 20
13.3320502946240893
 30
0.0
 11
200.43600532553981
 21
13.3027137668240893
 31
0.0
  0
LINE
  5
370F
  8
0
 10
200.4898317169987081
 20
13.3027137111596208
 30
0.0
 11
200.4629208099588027
 21
13.3113538956240305
 31
0.0
  0
LINE
  5
3710
  8
0
 10
200.4629208099588027
 20
13.3113538956240305
 30
0.0
 11
200.4360050242368914
 21
13.3027136992487698
 31
0.0
  0
ARC
  5
3711
  8
0
 10
200.4343219550887909
 20
13.3074623480481407
 30
0.0
 40
0.0050380936054483
 50
254.7477335958037088
 51
289.515913216077422
  0
ARC
  5
3712
  8
0
 10
200.4915112293234074
 20
13.3073740129483191
 30
0.0
 40
0.0049537031007641
 50
250.1814950150233869
 51
285.5639673021275939
  0
LINE
  5
3713
  8
0
 10
200.440927096780598
 20
13.3947903693109893
 30
0.0
 11
200.4409276156808062
 21
13.4069043837463706
 31
0.0
  0
LINE
  5
3714
  8
0
 10
200.4310851787805916
 20
13.3947907472109904
 30
0.0
 11
200.4310851787805916
 21
13.4069342958600597
 31
0.0
  0
ARC
  5
3715
  8
0
 10
200.4342340686121133
 20
13.3956302322261696
 30
0.0
 40
0.0067459909209133
 50
285.2337439626555806
 51
352.8527104955477967
  0
ARC
  5
3716
  8
0
 10
200.4379353699723936
 20
13.3957663180065207
 30
0.0
 40
0.0069192876526256
 50
188.1039529332007874
 51
253.8144678125175062
  0
LINE
  5
3717
  8
0
 10
200.4947526872805952
 20
13.3947903693109893
 30
0.0
 11
200.4947530265872899
 21
13.4027116740797005
 31
0.0
  0
LINE
  5
3718
  8
0
 10
200.4849107692805887
 20
13.3947907472109904
 30
0.0
 11
200.4849107692805887
 21
13.4050814669770801
 31
0.0
  0
ARC
  5
3719
  8
0
 10
200.4880596591121957
 20
13.3956302322261696
 30
0.0
 40
0.0067459909209133
 50
285.2337439626555806
 51
352.8527104955477967
  0
ARC
  5
371A
  8
0
 10
200.4917609604723907
 20
13.3957663180065207
 30
0.0
 40
0.0069192876526256
 50
188.1039529332007874
 51
253.8144678125175062
  0
LINE
  5
371B
  8
0
 10
200.52166483088061
 20
13.3688676875109902
 30
0.0
 11
200.5216653497807897
 21
13.3809817019463697
 31
0.0
  0
LINE
  5
371C
  8
0
 10
200.5118229128806036
 20
13.3688680654109895
 30
0.0
 11
200.5118229128806036
 21
13.3810116140600606
 31
0.0
  0
ARC
  5
371D
  8
0
 10
200.5149718027122105
 20
13.3697075504261704
 30
0.0
 40
0.0067459909209133
 50
285.2337439626555806
 51
352.8527104955477967
  0
ARC
  5
371E
  8
0
 10
200.5186731040724055
 20
13.3698436362065198
 30
0.0
 40
0.0069192876526256
 50
188.1039529332007874
 51
253.8144678125175062
  0
LINE
  5
371F
  8
0
 10
200.5485783868805925
 20
13.3429452730109901
 30
0.0
 11
200.5485789057808006
 21
13.3550592874463696
 31
0.0
  0
LINE
  5
3720
  8
0
 10
200.538736468880586
 20
13.3429456509109894
 30
0.0
 11
200.538736468880586
 21
13.3550891995600605
 31
0.0
  0
ARC
  5
3721
  8
0
 10
200.541885358712193
 20
13.3437851359261703
 30
0.0
 40
0.0067459909209133
 50
285.2337439626555806
 51
352.8527104955477967
  0
ARC
  5
3722
  8
0
 10
200.545586660072388
 20
13.3439212217065197
 30
0.0
 40
0.0069192876526256
 50
188.1039529332007874
 51
253.8144678125175062
  0
LINE
  5
3723
  8
0
 10
200.5754909099402141
 20
13.3688676875239398
 30
0.0
 11
200.5754911404713141
 21
13.3742495631793403
 31
0.0
  0
LINE
  5
3724
  8
0
 10
200.5656489919402077
 20
13.3688680654239391
 30
0.0
 11
200.5656489919402077
 21
13.3790398880714996
 31
0.0
  0
ARC
  5
3725
  8
0
 10
200.5687978817717863
 20
13.3697075504391201
 30
0.0
 40
0.0067459909209133
 50
285.2337439626555806
 51
352.8527104955477967
  0
ARC
  5
3726
  8
0
 10
200.5724991831320949
 20
13.3698436362194695
 30
0.0
 40
0.0069192876526256
 50
188.1039529332007874
 51
253.8144678125175062
  0
LINE
  5
3727
  8
0
 10
200.5485773824402997
 20
13.2911002427239193
 30
0.0
 11
200.5485779013405079
 21
13.3032142571593006
 31
0.0
  0
LINE
  5
3728
  8
0
 10
200.5387354644402933
 20
13.2911006206239204
 30
0.0
 11
200.5387354644402933
 21
13.3032441692729897
 31
0.0
  0
ARC
  5
3729
  8
0
 10
200.5418843542719003
 20
13.2919401056390996
 30
0.0
 40
0.0067459909209133
 50
285.2337439626555806
 51
352.8527104955477967
  0
ARC
  5
372A
  8
0
 10
200.5455856556320953
 20
13.2920761914194507
 30
0.0
 40
0.0069192876526256
 50
188.1039529332007874
 51
253.8144678125175062
  0
LINE
  5
372B
  8
0
 10
200.4678397657806102
 20
13.2651774580109905
 30
0.0
 11
200.4678402846807899
 21
13.27729147244637
 31
0.0
  0
LINE
  5
372C
  8
0
 10
200.4579978477806037
 20
13.2651778359109898
 30
0.0
 11
200.4579978477806037
 21
13.2773213845600608
 31
0.0
  0
ARC
  5
372D
  8
0
 10
200.461146737612097
 20
13.2660173209261796
 30
0.0
 40
0.0067459909209133
 50
285.2337439626555806
 51
352.8527104955477967
  0
ARC
  5
372E
  8
0
 10
200.4648480389724057
 20
13.2661534067065201
 30
0.0
 40
0.0069192876526256
 50
188.1039529332007874
 51
253.8144678125175062
  0
LINE
  5
372F
  8
0
 10
200.4409269523401917
 20
13.2392549508239394
 30
0.0
 11
200.4409274712405136
 21
13.2513689652593207
 31
0.0
  0
LINE
  5
3730
  8
0
 10
200.431085034340299
 20
13.2392553287239405
 30
0.0
 11
200.431085034340299
 21
13.2513988773730098
 31
0.0
  0
ARC
  5
3731
  8
0
 10
200.4342339241717923
 20
13.2400948137391303
 30
0.0
 40
0.0067459909209133
 50
285.2337439626555806
 51
352.8527104955477967
  0
ARC
  5
3732
  8
0
 10
200.437935225532101
 20
13.2402308995194709
 30
0.0
 40
0.0069192876526256
 50
188.1039529332007874
 51
253.8144678125175062
  0
LINE
  5
3733
  8
0
 10
200.4678399904134096
 20
13.3688752786777894
 30
0.0
 11
200.4678405093135893
 21
13.3809892931131706
 31
0.0
  0
LINE
  5
3734
  8
0
 10
200.4579980724134032
 20
13.3688756565777904
 30
0.0
 11
200.4579980724134032
 21
13.3810192052268597
 31
0.0
  0
ARC
  5
3735
  8
0
 10
200.4611469622448965
 20
13.3697151415929802
 30
0.0
 40
0.0067459909209133
 50
285.2337439626555806
 51
352.8527104955477967
  0
ARC
  5
3736
  8
0
 10
200.4648482636052051
 20
13.3698512273733208
 30
0.0
 40
0.0069192876526256
 50
188.1039529332007874
 51
253.8144678125175062
  0
LINE
  5
3737
  8
0
 10
200.5439752433611034
 20
13.3881463830463403
 30
0.0
 11
200.5197523872396914
 21
13.3803685118240896
 31
0.0
  0
ARC
  5
3738
  8
0
 10
200.5184356745992886
 20
13.3856995054591792
 30
0.0
 40
0.0054911952537498
 50
251.9513729519950971
 51
283.8739198807627986
  0
ARC
  5
3739
  8
0
 10
200.515052382260194
 20
13.3854344676633996
 30
0.0
 40
0.0052336025389012
 50
255.4212211426477097
 51
288.7465499041491057
  0
ARC
  5
373A
  8
0
 10
200.5453318657908994
 20
13.3591581257715806
 30
0.0
 40
0.0048949976354151
 50
249.993296468310092
 51
285.8157059232776191
  0
ARC
  5
373B
  8
0
 10
200.5419773596318009
 20
13.3592962319023698
 30
0.0
 40
0.0050266783115396
 50
254.6792287366725134
 51
289.522256797885575
  0
LINE
  5
373C
  8
0
 10
200.5436571397557941
 20
13.3545585284971402
 30
0.0
 11
200.5436569225396966
 21
13.3838956117240908
 31
0.0
  0
LINE
  5
373D
  8
0
 10
200.5436569225396966
 20
13.3838956117240908
 30
0.0
 11
200.549825638363302
 21
13.3858761961597104
 31
0.0
  0
LINE
  5
373E
  8
0
 10
200.5436569225396966
 20
13.3838956117240908
 30
0.0
 11
200.5371964188545917
 21
13.3859698802514497
 31
0.0
  0
LINE
  5
373F
  8
0
 10
200.5167343702393055
 20
13.3804785104427193
 30
0.0
 11
200.5167343702393055
 21
13.3969989276092498
 31
0.0
  0
LINE
  5
3740
  8
0
 10
200.46289722457891
 20
13.3804744327730507
 30
0.0
 11
200.46289722457891
 21
13.4097149579353108
 31
0.0
  0
LINE
  5
3741
  8
0
 10
200.4360059678396908
 20
13.4064040644240894
 30
0.0
 11
200.4360059678396908
 21
13.4141510375544097
 31
0.0
  0
LINE
  5
3742
  8
0
 10
200.4833703951738073
 20
13.3341247021452602
 30
0.0
 11
200.4898313320396994
 21
13.3320502946240893
 31
0.0
  0
LINE
  5
3743
  8
0
 10
200.4898313320396994
 20
13.3320502946240893
 30
0.0
 11
200.4962906571093129
 21
13.3341261096057604
 31
0.0
  0
LINE
  5
3744
  8
0
 10
200.4898313320396994
 20
13.3320502946240893
 30
0.0
 11
200.4898317169987081
 21
13.3027137111596208
 31
0.0
  0
LINE
  5
3745
  8
0
 10
200.4329986040386018
 20
13.2507561993625096
 30
0.0
 11
200.415553707637514
 21
13.2563567861036695
 31
0.0
  0
LINE
  5
3746
  8
0
 10
200.4564596716354004
 20
13.2563560808728802
 30
0.0
 11
200.439015374978112
 21
13.2507565099544706
 31
0.0
  0
LINE
  5
3747
  8
0
 10
200.4360061122386014
 20
13.2508684599625095
 30
0.0
 11
200.4360062927385968
 21
13.2802052527625101
 31
0.0
  0
ARC
  5
3748
  8
0
 10
200.4376954490248011
 20
13.2557335367077105
 30
0.0
 40
0.0051500320886174
 50
250.8510845286735105
 51
284.8431830928789168
  0
ARC
  5
3749
  8
0
 10
200.4343199670651074
 20
13.2557154473325802
 30
0.0
 40
0.0051318975157308
 50
255.0628773683324937
 51
289.1815021536222048
  0
LINE
  5
374A
  8
0
 10
200.4868233345385988
 20
13.2507561905625106
 30
0.0
 11
200.4771626580090071
 21
13.2538576969078701
 31
0.0
  0
LINE
  5
374B
  8
0
 10
200.5167443461504888
 20
13.2584670035750598
 30
0.0
 11
200.4928401054779954
 21
13.2507565011544699
 31
0.0
  0
LINE
  5
374C
  8
0
 10
200.4898308427385984
 20
13.2508684511625106
 30
0.0
 11
200.4898310232385938
 21
13.2802052439625093
 31
0.0
  0
ARC
  5
374D
  8
0
 10
200.4915201795247981
 20
13.2557335279077098
 30
0.0
 40
0.0051500320886174
 50
250.8510845286735105
 51
284.8431830928789168
  0
ARC
  5
374E
  8
0
 10
200.4881446975649908
 20
13.2557154385325795
 30
0.0
 40
0.0051318975157308
 50
255.0628773683324937
 51
289.1815021536222048
  0
LINE
  5
374F
  8
0
 10
200.5641101829353943
 20
13.3082012943728802
 30
0.0
 11
200.5466658862779923
 21
13.3026017234544707
 31
0.0
  0
LINE
  5
3750
  8
0
 10
200.5436566235385953
 20
13.3027136734625095
 30
0.0
 11
200.5436568040385907
 21
13.3320504662625101
 31
0.0
  0
ARC
  5
3751
  8
0
 10
200.545345960324795
 20
13.3075787502077105
 30
0.0
 40
0.0051500320886174
 50
250.8510845286735105
 51
284.8431830928789168
  0
ARC
  5
3752
  8
0
 10
200.5419704783649877
 20
13.3075606608325803
 30
0.0
 40
0.0051318975157308
 50
255.0628773683324937
 51
289.1815021536222048
  0
LINE
  5
3753
  8
0
 10
200.4947524827398126
 20
13.3026009785240902
 30
0.0
 11
200.4947524827398126
 21
13.2911014974240906
 31
0.0
  0
LINE
  5
3754
  8
0
 10
200.4659279910397913
 20
13.2766772846240908
 30
0.0
 11
200.4898320298397039
 21
13.2843872867240904
 31
0.0
  0
LINE
  5
3755
  8
0
 10
200.4898320298397039
 20
13.2843872867240904
 30
0.0
 11
200.4898319437729128
 21
13.2854319212435197
 31
0.0
  0
ARC
  5
3756
  8
0
 10
200.4879071200203953
 20
13.2920723944610302
 30
0.0
 40
0.0069138724182681
 50
286.1640044198426267
 51
351.9274219691258736
  0
ARC
  5
3757
  8
0
 10
200.4646066796138939
 20
13.2816466309253993
 30
0.0
 40
0.0051409183683252
 50
250.8307365962714925
 51
284.8891401154265282
  0
ARC
  5
3758
  8
0
 10
200.4612319530162949
 20
13.2815648253220893
 30
0.0
 40
0.0050632476624414
 50
254.8638991462890999
 51
289.4580845234390836
  0
LINE
  5
3759
  8
0
 10
200.459909874339786
 20
13.2766772303240899
 30
0.0
 11
200.4360054489397953
 21
13.2843520059240898
 31
0.0
  0
LINE
  5
375A
  8
0
 10
200.4360062927385968
 20
13.2802052527625101
 30
0.0
 11
200.4424633999072967
 21
13.2822786105723196
 31
0.0
  0
LINE
  5
375B
  8
0
 10
200.4360057414398
 20
13.2802052555240895
 30
0.0
 11
200.4295463795398007
 21
13.2822791575240906
 31
0.0
  0
LINE
  5
375C
  8
0
 10
200.4360054334958932
 20
13.2843520108824897
 30
0.0
 11
200.4360053346397876
 21
13.2854317437240894
 31
0.0
  0
LINE
  5
375D
  8
0
 10
200.4310844816396866
 20
13.3032155583807299
 30
0.0
 11
200.4310844816396866
 21
13.2911012129240902
 31
0.0
  0
ARC
  5
375E
  8
0
 10
200.4380073357100116
 20
13.2921397141768107
 30
0.0
 40
0.0070003481008776
 50
188.5291570769184943
 51
253.3822085608422015
  0
LINE
  5
375F
  8
0
 10
200.4898310232385938
 20
13.2802052439625093
 30
0.0
 11
200.4962906562641081
 21
13.2822791454061306
 31
0.0
  0
LINE
  5
3760
  8
0
 10
200.4898310232385938
 20
13.2802052439625093
 30
0.0
 11
200.4833719700397978
 21
13.2822791575240906
 31
0.0
  0
LINE
  5
3761
  8
0
 10
200.5167443461504888
 20
13.2584670035750598
 30
0.0
 11
200.532794264504787
 21
13.2532781904096293
 31
0.0
  0
LINE
  5
3762
  8
0
 10
200.4947524827398126
 20
13.2513705556240904
 30
0.0
 11
200.4947524827398126
 21
13.2379445224240904
 31
0.0
  0
LINE
  5
3763
  8
0
 10
200.4849100721397122
 20
13.2513698575090295
 30
0.0
 11
200.4849100721397122
 21
13.2343471113240891
 31
0.0
  0
LINE
  5
3764
  8
0
 10
200.4360053381329863
 20
13.2325069411667595
 30
0.0
 11
200.4604950447250076
 21
13.2246452602808802
 31
0.0
  0
LINE
  5
3765
  8
0
 10
200.4705637518397907
 20
13.2518281757240892
 30
0.0
 11
200.4705637814398074
 21
13.2297411606240907
 31
0.0
  0
LINE
  5
3766
  8
0
 10
200.4705637518397907
 20
13.2518281756605294
 30
0.0
 11
200.4564590883398125
 21
13.2563567668240907
 31
0.0
  0
LINE
  5
3767
  8
0
 10
200.4705637814398074
 20
13.2518282052240899
 30
0.0
 11
200.4771626580090071
 21
13.2538576969078701
 31
0.0
  0
LINE
  5
3768
  8
0
 10
200.414014151439801
 20
13.2254467946303702
 30
0.0
 11
200.414014151439801
 21
13.2176907849240894
 31
0.0
  0
LINE
  5
3769
  8
0
 10
200.4041717408397005
 20
13.2254471990090305
 30
0.0
 11
200.4041717408397005
 21
13.2164580866240904
 31
0.0
  0
ARC
  5
376A
  8
0
 10
200.4086681014472049
 20
13.2183199913839307
 30
0.0
 40
0.0053815223657077
 50
274.5263023115015812
 51
353.2830688119717024
  0
ARC
  5
376B
  8
0
 10
200.4087217615501118
 20
13.2176421535481303
 30
0.0
 40
0.0047015638829414
 50
194.5867364223074105
 51
274.5263023114999896
  0
ARC
  5
376C
  8
0
 10
200.4641492934806877
 20
13.2306159486768493
 30
0.0
 40
0.0064738636002242
 50
293.5069347077720749
 51
352.2340872936213145
  0
ARC
  5
376D
  8
0
 10
200.4640064189235886
 20
13.2327709436627696
 30
0.0
 40
0.0088519195198303
 50
246.6292442982789055
 51
270.1017440923944832
  0
LINE
  5
376E
  8
0
 10
200.3617266536438137
 20
13.2563571348265405
 30
0.0
 11
200.3552673010397882
 21
13.2542828751240904
 31
0.0
  0
ARC
  5
376F
  8
0
 10
200.4377960005132024
 20
13.4132528065217898
 30
0.0
 40
0.0070788053577774
 50
255.3524639250007056
 51
296.2566750040995203
  0
ARC
  5
3770
  8
0
 10
200.434321898292211
 20
13.4111648982421698
 30
0.0
 40
0.0050499137502347
 50
254.802200771508808
 51
289.4804265792819251
  0
LINE
  5
3771
  8
0
 10
200.4409276156808062
 20
13.4069043837463706
 30
0.0
 11
200.4544572767439092
 21
13.4112507369093201
 31
0.0
  0
ARC
  5
3772
  8
0
 10
200.4874494802461129
 20
13.2390366516553506
 30
0.0
 40
0.0073827887718154
 50
288.7177896472683187
 51
351.4916863359105719
  0
ARC
  5
3773
  8
0
 10
200.4878960474491123
 20
13.2345382053324396
 30
0.0
 40
0.0029920838002926
 50
183.6617748325492983
 51
290.2249808786917811
  0
LINE
  5
3774
  8
0
 10
200.5436553477397865
 20
13.2843535650240891
 30
0.0
 11
200.5666635677380043
 21
13.2769663351130696
 31
0.0
  0
LINE
  5
3775
  8
0
 10
200.569929616196589
 20
13.3063333592963602
 30
0.0
 11
200.5699288961397997
 21
13.2842454303240896
 31
0.0
  0
ARC
  5
3776
  8
0
 10
200.5597193405816085
 20
13.2843716307870796
 30
0.0
 40
0.0102110833411025
 50
319.7411704204697003
 51
359.2974206520568146
  0
LINE
  5
3777
  8
0
 10
200.5699296562397933
 20
13.3063334006240908
 30
0.0
 11
200.5729736751430039
 21
13.3095045970656596
 31
0.0
  0
LINE
  5
3778
  8
0
 10
200.5729736751430039
 20
13.3095045970656596
 30
0.0
 11
200.5873365864686093
 21
13.3048931091529798
 31
0.0
  0
LINE
  5
3779
  8
0
 10
200.569929616196589
 20
13.30633335890799
 30
0.0
 11
200.5641091527398032
 21
13.3082021454240902
 31
0.0
  0
LINE
  5
377A
  8
0
 10
200.5501162477308981
 20
13.3341256268970305
 30
0.0
 11
200.5436568040377949
 21
13.3320503326714199
 31
0.0
  0
LINE
  5
377B
  8
0
 10
200.5436568040377949
 20
13.3320503326714199
 30
0.0
 11
200.5371957916642032
 21
13.33412476448758
 31
0.0
  0
LINE
  5
377C
  8
0
 10
200.4090935456397915
 20
13.4139650576240896
 30
0.0
 11
200.4090935456397915
 21
13.4172723418699
 31
0.0
  0
LINE
  5
377D
  8
0
 10
200.3617259345010098
 20
13.4118916603127403
 30
0.0
 11
200.3552673010397882
 21
13.4098179922240899
 31
0.0
  0
LINE
  5
377E
  8
0
 10
200.538791123669597
 20
13.28176751354661
 30
0.0
 11
200.5387911237397986
 21
13.2596802753240901
 31
0.0
  0
LINE
  5
377F
  8
0
 10
200.537195985839702
 20
13.2822796631240898
 30
0.0
 11
200.538791123669597
 21
13.28176751354661
 31
0.0
  0
LINE
  5
3780
  8
0
 10
200.538791123669597
 20
13.28176751354661
 30
0.0
 11
200.5419859606375041
 21
13.2838156567456291
 31
0.0
  0
ARC
  5
3781
  8
0
 10
200.5309791917414941
 20
13.2599658367951498
 30
0.0
 40
0.0078171495380234
 50
304.7318337812112077
 51
357.9065120709411758
  0
ARC
  5
3782
  8
0
 10
200.5338830427776031
 20
13.2555348474147294
 30
0.0
 40
0.0025055815624087
 50
244.243900391542013
 51
297.7367848350742747
  0
ARC
  5
3783
  8
0
 10
200.3643905083717982
 20
13.0523993663859592
 30
0.0
 40
0.892075219239725
 50
90.5859711758957218
 51
102.1250656305817017
  0
ARC
  5
3784
  8
0
 10
200.3104115451664882
 20
13.3390501714020999
 30
0.0
 40
0.6005271288834217
 50
102.834467068040496
 51
119.8841929240904989
  0
ARC
  5
3785
  8
0
 10
200.1668248477097904
 20
13.5889145848300608
 30
0.0
 40
0.3123442619669174
 50
119.8841929240904989
 51
143.7731284524018065
  0
ARC
  5
3786
  8
0
 10
200.3407950222969021
 20
13.0043747668695104
 30
0.0
 40
0.9401645612598114
 50
78.1709718329667993
 51
89.1179913605545977
  0
ARC
  5
3787
  8
0
 10
200.4001230577129888
 20
13.3390501714020999
 30
0.0
 40
0.6005271288834217
 50
60.1158070759094727
 51
77.1655329319594614
  0
ARC
  5
3788
  8
0
 10
200.5437097551696866
 20
13.5889145848300608
 30
0.0
 40
0.3123442619669174
 50
36.2268715475982006
 51
60.1158070759094727
  0
ENDSEC
  0
EOF
