  0
SECTION
  2
HEADER
  9
$ACADVER
  1
AC1009
  9
$INSBASE
 10
3787.5995997883101154
 20
-313.9276840461284905
 30
0.0
  9
$EXTMIN
 10
3780.8927569898078218
 20
-317.1330280735851943
 30
-0.0000000349181948
  9
$EXTMAX
 10
3787.8282616111850984
 20
-310.7280883869078139
 30
0.0000000814935746
  9
$LIMMIN
 10
0.0
 20
0.0
  9
$LIMMAX
 10
11.6929133858000007
 20
8.2677165353999982
  9
$ORTHOMODE
 70
     1
  9
$REGENMODE
 70
     1
  9
$FILLMODE
 70
     1
  9
$QTEXTMODE
 70
     0
  9
$MIRRTEXT
 70
     0
  9
$DRAGMODE
 70
     2
  9
$LTSCALE
 40
0.6431102362
  9
$OSMODE
 70
  4095
  9
$ATTMODE
 70
     1
  9
$TEXTSIZE
 40
0.2
  9
$TRACEWID
 40
0.05
  9
$TEXTSTYLE
  7
STANDARD
  9
$CLAYER
  8
0
  9
$CELTYPE
  6
BYLAYER
  9
$CECOLOR
 62
   256
  9
$DIMSCALE
 40
1.0
  9
$DIMASZ
 40
0.1875
  9
$DIMEXO
 40
0.0625
  9
$DIMDLI
 40
0.4443307087
  9
$DIMRND
 40
0.0
  9
$DIMDLE
 40
0.0
  9
$DIMEXE
 40
0.125
  9
$DIMTP
 40
0.01
  9
$DIMTM
 40
0.01
  9
$DIMTXT
 40
2.0
  9
$DIMCEN
 40
0.1052362205
  9
$DIMTSZ
 40
0.0
  9
$DIMTOL
 70
     1
  9
$DIMLIM
 70
     0
  9
$DIMTIH
 70
     1
  9
$DIMTOH
 70
     1
  9
$DIMSE1
 70
     0
  9
$DIMSE2
 70
     0
  9
$DIMTAD
 70
     0
  9
$DIMZIN
 70
     0
  9
$DIMBLK
  1

  9
$DIMASO
 70
     1
  9
$DIMSHO
 70
     1
  9
$DIMPOST
  1
\X
  9
$DIMAPOST
  1

  9
$DIMALT
 70
     1
  9
$DIMALTD
 70
     2
  9
$DIMALTF
 40
25.3999999999999986
  9
$DIMLFAC
 40
1.0
  9
$DIMTOFL
 70
     0
  9
$DIMTVP
 40
0.0
  9
$DIMTIX
 70
     0
  9
$DIMSOXD
 70
     0
  9
$DIMSAH
 70
     0
  9
$DIMBLK1
  1

  9
$DIMBLK2
  1

  9
$DIMSTYLE
  2
STANDARD
  9
$DIMCLRD
 70
     0
  9
$DIMCLRE
 70
     0
  9
$DIMCLRT
 70
     0
  9
$DIMTFAC
 40
1.0
  9
$DIMGAP
 40
0.09
  9
$LUNITS
 70
     2
  9
$LUPREC
 70
     4
  9
$SKETCHINC
 40
0.1
  9
$FILLETRAD
 40
0.0
  9
$AUNITS
 70
     0
  9
$AUPREC
 70
     0
  9
$MENU
  1
.
  9
$ELEVATION
 40
0.0
  9
$PELEVATION
 40
0.0
  9
$THICKNESS
 40
0.0
  9
$LIMCHECK
 70
     0
  9
$BLIPMODE
 70
     0
  9
$CHAMFERA
 40
0.0
  9
$CHAMFERB
 40
0.0
  9
$SKPOLY
 70
     0
  9
$TDCREATE
 40
2458060.468368056230247
  9
$TDUPDATE
 40
2459602.5519560179673135
  9
$TDINDWG
 40
0.4550186343
  9
$TDUSRTIMER
 40
0.4550186343
  9
$USRTIMER
 70
     1
  9
$ANGBASE
 50
0.0
  9
$ANGDIR
 70
     0
  9
$PDMODE
 70
     0
  9
$PDSIZE
 40
0.3125
  9
$PLINEWID
 40
0.0
  9
$COORDS
 70
     1
  9
$SPLFRAME
 70
     0
  9
$SPLINETYPE
 70
     6
  9
$SPLINESEGS
 70
     8
  9
$ATTDIA
 70
     1
  9
$ATTREQ
 70
     1
  9
$HANDLING
 70
     1
  9
$HANDSEED
  5
D125
  9
$SURFTAB1
 70
     6
  9
$SURFTAB2
 70
     6
  9
$SURFTYPE
 70
     6
  9
$SURFU
 70
     6
  9
$SURFV
 70
     6
  9
$UCSNAME
  2

  9
$UCSORG
 10
0.0
 20
0.0
 30
0.0
  9
$UCSXDIR
 10
1.0
 20
0.0
 30
0.0
  9
$UCSYDIR
 10
0.0
 20
1.0
 30
0.0
  9
$PUCSNAME
  2

  9
$PUCSORG
 10
0.0
 20
0.0
 30
0.0
  9
$PUCSXDIR
 10
1.0
 20
0.0
 30
0.0
  9
$PUCSYDIR
 10
0.0
 20
1.0
 30
0.0
  9
$USERI1
 70
     0
  9
$USERI2
 70
     0
  9
$USERI3
 70
     0
  9
$USERI4
 70
     0
  9
$USERI5
 70
     0
  9
$USERR1
 40
0.0
  9
$USERR2
 40
0.0
  9
$USERR3
 40
0.0
  9
$USERR4
 40
0.0
  9
$USERR5
 40
0.0
  9
$WORLDVIEW
 70
     1
  9
$SHADEDGE
 70
     3
  9
$SHADEDIF
 70
    70
  9
$TILEMODE
 70
     1
  9
$MAXACTVP
 70
    64
  9
$PLIMCHECK
 70
     0
  9
$PEXTMIN
 10
1.0000000000000000E+20
 20
1.0000000000000000E+20
 30
1.0000000000000000E+20
  9
$PEXTMAX
 10
-1.0000000000000000E+20
 20
-1.0000000000000000E+20
 30
-1.0000000000000000E+20
  9
$PLIMMIN
 10
0.0
 20
0.0
  9
$PLIMMAX
 10
12.0
 20
9.0
  9
$UNITMODE
 70
     0
  9
$VISRETAIN
 70
     1
  9
$PLINEGEN
 70
     0
  9
$PSLTSCALE
 70
     1
  0
ENDSEC
  0
SECTION
  2
TABLES
  0
TABLE
  2
VPORT
 70
     1
  0
VPORT
  2
*ACTIVE
 70
     0
 10
0.0
 20
0.0
 11
1.0
 21
1.0
 12
-1.3366342541912659
 22
-0.0028543728245722
 13
0.0
 23
0.0
 14
1.0
 24
1.0
 15
0.0
 25
0.0
 16
0.0
 26
0.0
 36
42.3111163364381184
 17
3785.6971435546879547
 27
-313.927703857421875
 37
0.0
 40
6.4557053909310982
 41
2.0410052910052912
 42
50.0
 43
0.0
 44
0.0
 50
0.0
 51
0.0
 71
     0
 72
 10000
 73
     1
 74
     1
 75
     0
 76
     0
 77
     0
 78
     0
  0
ENDTAB
  0
TABLE
  2
LTYPE
 70
     2
  0
LTYPE
  2
CONTINUOUS
 70
     0
  3
Solid line
 72
    65
 73
     0
 40
0.0
  0
LTYPE
  2
PHANTOM2
 70
     0
  3
___ _ _ ___ _ _ ___ _ _ ___ _ _
 72
    65
 73
     6
 40
1.25
 49
0.625
 49
-0.125
 49
0.125
 49
-0.125
 49
0.125
 49
-0.125
  0
ENDTAB
  0
TABLE
  2
LAYER
 70
     2
  0
LAYER
  2
0
 70
     0
 62
   255
  6
CONTINUOUS
  0
LAYER
  2
DEFPOINTS
 70
     0
 62
     7
  6
CONTINUOUS
  0
ENDTAB
  0
TABLE
  2
STYLE
 70
     1
  0
STYLE
  2
STANDARD
 70
     0
 40
0.0
 41
0.8
 50
0.0
 71
     0
 42
0.2
  3
txt
  4

  0
ENDTAB
  0
TABLE
  2
VIEW
 70
     0
  0
ENDTAB
  0
TABLE
  2
UCS
 70
     0
  0
ENDTAB
  0
TABLE
  2
APPID
 70
    11
  0
APPID
  2
ACAD
 70
     0
  0
APPID
  2
ACAD_MLEADERVER
 70
     0
  0
APPID
  2
ACAD_EXEMPT_FROM_CAD_STANDARDS
 70
     0
  0
APPID
  2
ACAD_NAV_VCDISPLAY
 70
     0
  0
APPID
  2
ACAECLAYERSTANDARD
 70
     0
  0
APPID
  2
ACCMTRANSPARENCY
 70
     0
  0
APPID
  2
ACAD_DSTYLE_DIMJAG
 70
     0
  0
APPID
  2
ACAD_DSTYLE_DIMTALN
 70
     0
  0
APPID
  2
ACDBATTR
 70
     0
  0
APPID
  2
ACADANNOTATIVE
 70
     0
  0
APPID
  2
ACAD_PSEXT
 70
     0
  0
ENDTAB
  0
TABLE
  2
DIMSTYLE
 70
     1
  0
DIMSTYLE
  2
STANDARD
 70
     0
  3

  4

  5

  6

  7

 40
1.0
 41
0.1875
 42
0.0625
 43
0.38
 44
0.125
 45
0.0
 46
0.0
 47
0.01
 48
0.01
140
0.15625
141
0.09
142
0.0
143
25.3999999999999986
144
1.0
145
0.0
146
1.0
147
0.09
 71
     1
 72
     0
 73
     1
 74
     1
 75
     0
 76
     0
 77
     0
 78
     4
170
     0
171
     2
172
     0
173
     0
174
     0
175
     0
176
     0
177
     0
178
     0
  0
ENDTAB
  0
ENDSEC
  0
SECTION
  2
BLOCKS
  0
BLOCK
  8
0
  2
$MODEL_SPACE
 70
     0
 10
0.0
 20
0.0
 30
0.0
  3
$MODEL_SPACE
  1

  0
ENDBLK
  5
21
  8
0
  0
BLOCK
 67
     1
  8
0
  2
$PAPER_SPACE
 70
     0
 10
0.0
 20
0.0
 30
0.0
  3
$PAPER_SPACE
  1

  0
ENDBLK
  5
1D
 67
     1
  8
0
  0
BLOCK
  8
0
  2
_FILLED
 70
     0
 10
0.0
 20
0.0
 30
0.0
  3
_FILLED
  1

  0
SOLID
  5
B039
  8
0
  6
BYBLOCK
 62
     0
 10
0.0
 20
0.0
 30
0.0
 11
-1.0
 21
0.1666666667
 31
0.0
 12
-1.0
 22
-0.1666666667
 32
0.0
 13
-1.0
 23
-0.1666666667
 33
0.0
  0
ENDBLK
  5
B03A
  8
0
  6
BYBLOCK
 62
     0
  0
ENDSEC
  0
SECTION
  2
ENTITIES
  0
ATTDEF
  5
9DCC
  8
DEFPOINTS
 10
3787.6006887845192068
 20
-313.9245842795846215
 30
0.0
 40
0.001
  1
K-72576
  3

  2
MODELNUMBER
 70
     0
1001
ACDBATTR
1070
     0
1070
     1
  0
ATTDEF
  5
9DCD
  8
DEFPOINTS
 10
3787.6006887845192068
 20
-313.926250946251173
 30
0.0
 40
0.001
  1
ARTIFACTS
  3

  2
TRADENAME
 70
     0
1001
ACDBATTR
1070
     0
1070
     1
  0
ATTDEF
  5
9DCE
  8
DEFPOINTS
 10
3787.6006887845192068
 20
-313.927917612917895
 30
0.0
 40
0.001
  1
TOILET TISSUE CARRIAGE
  3

  2
PRODUCT
 70
     0
1001
ACDBATTR
1070
     0
1070
     1
  0
LINE
  5
C983
  8
0
 10
3787.5548799316070472
 20
-317.1131696125195845
 30
0.0
 11
3787.5995997883101154
 21
-317.1131696125195845
 31
0.0
  0
LINE
  5
C984
  8
0
 10
3787.5459807537199595
 20
-310.7422340357865096
 30
0.0
 11
3787.5995997883101154
 21
-310.7422340357865096
 31
0.0
  0
LINE
  5
C985
  8
0
 10
3781.8577596799468665
 20
-311.8363116864196058
 30
0.0
 11
3782.2814490009100155
 21
-311.8363116864196058
 31
0.0
  0
LINE
  5
C986
  8
0
 10
3782.5440425235829025
 20
-311.8363116864196058
 30
0.0
 11
3783.6032610070969895
 21
-311.8363116864196058
 31
0.0
  0
LINE
  5
C987
  8
0
 10
3783.8887519734871603
 20
-311.8363116864196058
 30
0.0
 11
3784.9479421849027858
 21
-311.8363116864196058
 31
0.0
  0
LINE
  5
C988
  8
0
 10
3785.2105395520088678
 20
-311.8363116864196058
 30
0.0
 11
3785.9705209179851408
 21
-311.8363116864196058
 31
0.0
  0
LINE
  5
C989
  8
0
 10
3786.1817879610089221
 20
-311.8363116864196058
 30
0.0
 11
3786.3722636731090461
 21
-311.8363116864196058
 31
0.0
  0
LINE
  5
C98A
  8
0
 10
3781.850317210205958
 20
-311.523157258519575
 30
0.0
 11
3786.3716127297220737
 21
-311.523157258519575
 31
0.0
  0
LINE
  5
C98B
  8
0
 10
3781.0924942765091146
 20
-315.9880848658195873
 30
0.0
 11
3781.2905058041351367
 21
-315.9880848658195873
 31
0.0
  0
LINE
  5
C98C
  8
0
 10
3781.5323769977089796
 20
-315.9880848658195873
 30
0.0
 11
3782.2814490009100155
 21
-315.9880848658195873
 31
0.0
  0
LINE
  5
C98D
  8
0
 10
3782.5447144131089772
 20
-315.9880848658195873
 30
0.0
 11
3783.6081990009088258
 21
-315.9880848658195873
 31
0.0
  0
LINE
  5
C98E
  8
0
 10
3783.8837895520091479
 20
-315.9880848658195873
 30
0.0
 11
3784.9472738879089775
 21
-315.9880848658195873
 31
0.0
  0
LINE
  5
C98F
  8
0
 10
3785.2105395520088678
 20
-315.9880848658195873
 30
0.0
 11
3785.9693364799090887
 21
-315.9880848658195873
 31
0.0
  0
LINE
  5
C990
  8
0
 10
3786.1817879610089221
 20
-315.9880848658195873
 30
0.0
 11
3786.382787318046212
 21
-315.9880848658195873
 31
0.0
  0
LINE
  5
C991
  8
0
 10
3781.0925886310419628
 20
-316.3632738184908817
 30
0.0
 11
3781.3601286213520325
 21
-316.3632738184908817
 31
0.0
  0
LINE
  5
C992
  8
0
 10
3781.5253441717090936
 20
-316.3632738184908817
 30
0.0
 11
3783.5972261056022035
 21
-316.3632738184908817
 31
0.0
  0
LINE
  5
C993
  8
0
 10
3783.8936698631227955
 20
-316.3632738184908817
 30
0.0
 11
3785.9666454351090579
 21
-316.3632738184908817
 31
0.0
  0
LINE
  5
C994
  8
0
 10
3786.1178263983711076
 20
-316.3632738184908817
 30
0.0
 11
3786.3700894245480413
 21
-316.3632738184908817
 31
0.0
  0
ARC
  5
C995
  8
0
 10
3781.0924942765091146
 20
-316.1756793540196782
 30
0.0
 40
0.1875944882000001
 50
90.0
 51
270.028818100008607
  0
ARC
  5
C996
  8
0
 10
3786.3994942765089036
 20
-316.1756793540196782
 30
0.0
 40
0.2646032138000001
 50
225.1507815919983102
 51
134.8492111224279029
  0
ARC
  5
C997
  8
0
 10
3786.370181105904976
 20
-316.1793025084913893
 30
0.0
 40
0.191632730642579
 50
28.5580758816347604
 51
86.2281771814464122
  0
ARC
  5
C998
  8
0
 10
3786.376096973418953
 20
-316.1756099703073914
 30
0.0
 40
0.1846718804153865
 50
344.0370268016234832
 51
28.4292564111418216
  0
ARC
  5
C999
  8
0
 10
3786.373040274153027
 20
-316.1747356132812001
 30
0.0
 40
0.1878511744590831
 50
290.0034291654106937
 51
344.0370268016234832
  0
ARC
  5
C99A
  8
0
 10
3786.3691315572668827
 20
-316.163998501415108
 30
0.0
 40
0.1992776191782924
 50
270.2754045542371273
 51
290.0034291654106937
  0
LINE
  5
C99B
  8
0
 10
3786.7112265599089369
 20
-315.9093656602556734
 30
0.0
 11
3786.7112265600080718
 21
-316.4419915707866835
 31
0.0
  0
ARC
  5
C99C
  8
0
 10
3786.3994942765089036
 20
-316.1756793540196213
 30
0.0
 40
0.4099990407000237
 50
282.9853868893716822
 51
319.4928065369005026
  0
ARC
  5
C99D
  8
0
 10
3786.3994942765089036
 20
-316.1756793540196213
 30
0.0
 40
0.4099990407000031
 50
235.420810982234201
 51
282.9853868893716822
  0
ARC
  5
C99E
  8
0
 10
3786.3994942765089036
 20
-316.1756793540196213
 30
0.0
 40
0.4099990407000557
 50
205.468748988012095
 51
235.4208109822127142
  0
LINE
  5
C99F
  8
0
 10
3786.1817879610089221
 20
-316.0487600755196809
 30
0.0
 11
3786.1817879610089221
 21
-311.7624116374195751
 31
0.0
  0
LINE
  5
C9A0
  8
0
 10
3785.9061974098090104
 20
-311.8363116864196058
 30
0.0
 11
3785.9061974098090104
 21
-315.9880848658195873
 31
0.0
  0
ARC
  5
C9A1
  8
0
 10
3786.1625436098961472
 20
-316.0337005542767201
 30
0.0
 40
0.0244363301221263
 50
321.9553122230529993
 51
37.9978032564493731
  0
ARC
  5
C9A2
  8
0
 10
3786.1732312575800279
 20
-315.9752704229072719
 30
0.0
 40
0.0788452637859065
 50
244.9781388698133924
 51
266.0276340009805836
  0
ARC
  5
C9A3
  8
0
 10
3786.1687197670689784
 20
-316.034902224369489
 30
0.0
 40
0.0190477749712454
 50
267.1395790541291149
 51
313.3201743533708736
  0
ARC
  5
C9A4
  8
0
 10
3785.2941640384010498
 20
-317.7595110951745028
 30
0.0
 40
1.9102113981682709
 50
63.7214488329192505
 51
66.3220009412492715
  0
ARC
  5
C9A5
  8
0
 10
3785.954184674660155
 20
-316.2543723133695721
 30
0.0
 40
0.2667181694692164
 50
66.3220232028137815
 51
86.7433710569246017
  0
ARC
  5
C9A6
  8
0
 10
3786.3994942765089036
 20
-316.1756793540196213
 30
0.0
 40
0.4099999999998741
 50
110.3704805706239966
 51
122.0724380928839992
  0
ARC
  5
C9A7
  8
0
 10
3786.399494255528225
 20
-321.1272056711817982
 30
0.0
 40
5.337793758723647
 50
88.4679005440374482
 51
91.5320989704084269
  0
ARC
  5
C9A8
  8
0
 10
3786.3994942765089036
 20
-316.1756793540196213
 30
0.0
 40
0.4099999999999841
 50
40.5073503921964502
 51
69.6295189438003916
  0
LINE
  5
C9A9
  8
0
 10
3786.7112265599139391
 20
-315.9356793540197259
 30
0.0
 11
3786.8912695135090871
 21
-315.9357688127195729
 31
0.0
  0
LINE
  5
C9AA
  8
0
 10
3786.9212695135088325
 20
-315.8397222212195743
 30
0.0
 11
3786.9212695135088325
 21
-316.5116453617196726
 31
0.0
  0
LINE
  5
C9AB
  8
0
 10
3786.7112265600039791
 20
-316.4156793540195736
 30
0.0
 11
3786.8912695135090871
 21
-316.4156793540195736
 31
0.0
  0
ARC
  5
C9AC
  8
0
 10
3786.8912695135090871
 20
-316.4456793540197168
 30
0.0
 40
0.0300000000000011
 50
0.0000000000032569
 51
90.0
  0
ARC
  5
C9AD
  8
0
 10
3786.8911197776160407
 20
-315.9056193890048121
 30
0.0
 40
0.0301497955411382
 50
270.2845548298910785
 51
359.8860284740848101
  0
LINE
  5
C9AE
  8
0
 10
3787.5996360304088739
 20
-315.238178928019579
 30
0.0
 11
3787.5696361858090313
 21
-315.2381789366564249
 31
0.0
  0
ARC
  5
C9AF
  8
0
 10
3787.5637136416989961
 20
-315.4503838853235038
 30
0.0
 40
0.2122875803421799
 50
88.401315724265686
 51
122.0185321816655062
  0
ARC
  5
C9B0
  8
0
 10
3787.5783862620251057
 20
-315.4515055644471886
 30
0.0
 40
0.2213351771787221
 50
125.0864697980700981
 51
159.6825133574643871
  0
ARC
  5
C9B1
  8
0
 10
3787.7992751395431696
 20
-315.5471431647814029
 30
0.0
 40
0.4618711825007763
 50
158.070889509857011
 51
166.1881722407534028
  0
LINE
  5
C9B2
  8
0
 10
3787.3507589539899527
 20
-315.4368788436196951
 30
0.0
 11
3787.3508562608271859
 21
-316.9144650424029237
 31
0.0
  0
ARC
  5
C9B3
  8
0
 10
3787.727189435955097
 20
-316.8283368833110103
 30
0.0
 40
0.3860631016955198
 50
192.8907929457843977
 51
205.7902405700326938
  0
ARC
  5
C9B4
  8
0
 10
3787.5759730632407809
 20
-316.9014059600370956
 30
0.0
 40
0.2181182257682491
 50
205.7902405700326938
 51
240.2686360376312962
  0
ARC
  5
C9B5
  8
0
 10
3787.5613594987080432
 20
-316.9024328200338232
 30
0.0
 40
0.2103321687777065
 50
243.5885592401592135
 51
265.8935067168603723
  0
ARC
  5
C9B6
  8
0
 10
3787.7371135225757826
 20
-315.4180022263195724
 30
0.0
 40
1.704934470562957
 50
263.5740015682391117
 51
263.8641631802627217
  0
ARC
  5
C9B7
  8
0
 10
3787.3217192199767851
 20
-315.4298776017596992
 30
0.0
 40
0.0298717850006175
 50
269.9881338117025962
 51
346.4451326021014097
  0
LINE
  5
C9B8
  8
0
 10
3787.3217130334091962
 20
-315.4597493861197108
 30
0.0
 11
3787.3073581128091973
 21
-315.4597493861197108
 31
0.0
  0
ARC
  5
C9B9
  8
0
 10
3787.3073581128091973
 20
-315.4897493035973071
 30
0.0
 40
0.0299999174776771
 50
90.0
 51
178.4065277395461067
  0
LINE
  5
C9BA
  8
0
 10
3787.2773697966090367
 20
-315.4889150733196743
 30
0.0
 11
3787.2773697966090367
 21
-316.8624436348197264
 31
0.0
  0
ARC
  5
C9BB
  8
0
 10
3787.3073958549630333
 20
-316.8615705977546213
 30
0.0
 40
0.0300387478755871
 50
181.6654616972892882
 51
269.9280107595312757
  0
LINE
  5
C9BC
  8
0
 10
3787.3073581128091973
 20
-316.8916093219197023
 30
0.0
 11
3787.3217147534091964
 21
-316.8916093219197023
 31
0.0
  0
ARC
  5
C9BD
  8
0
 10
3787.3217147534091964
 20
-316.9216151888176114
 30
0.0
 40
0.0300058668979553
 50
13.7857318752156406
 51
90.0
  0
ARC
  5
C9BE
  8
0
 10
3786.9512695135090325
 20
-315.8397133462195825
 30
0.0
 40
0.029999999999994
 50
123.8034541505992934
 51
180.0000000000032117
  0
ARC
  5
C9BF
  8
0
 10
3786.9573879487370505
 20
-315.8489407417487769
 30
0.0
 40
0.0410715079354503
 50
56.2656030666882074
 51
123.7343969333136044
  0
ARC
  5
C9C0
  8
0
 10
3786.9638628802599669
 20
-315.8393396812181777
 30
0.0
 40
0.0294912998564635
 50
18.5033056958026094
 51
56.3681810881663026
  0
ARC
  5
C9C1
  8
0
 10
3787.0201837121571771
 20
-315.8201797097473786
 30
0.0
 40
0.0300000985840861
 50
199.0677903757197953
 51
253.8998473165185885
  0
LINE
  5
C9C2
  8
0
 10
3786.9918792540620416
 20
-315.8301227257416031
 30
0.0
 11
3786.9918792602088615
 21
-316.521395422219598
 31
0.0
  0
ARC
  5
C9C3
  8
0
 10
3786.9635078604328555
 20
-316.5116453616382159
 30
0.0
 40
0.0300000001100484
 50
303.8000605604314046
 51
341.0343027398178037
  0
ARC
  5
C9C4
  8
0
 10
3786.9573886869620765
 20
-316.5024155181798164
 30
0.0
 40
0.0410739559398456
 50
236.2691218019801056
 51
303.730878356832477
  0
ARC
  5
C9C5
  8
0
 10
3786.9512695137318588
 20
-316.5116453616639092
 30
0.0
 40
0.0300000002228558
 50
180.0000001065066897
 51
236.1999392467664052
  0
ARC
  5
C9C6
  8
0
 10
3787.0200653540500753
 20
-316.5309720183910258
 30
0.0
 40
0.0297685585849823
 50
105.9952682732980946
 51
161.2341317079697092
  0
ARC
  5
C9C7
  8
0
 10
3787.0739841752720167
 20
-316.7054931482755933
 30
0.0
 40
0.2121842379062608
 50
88.1523691504074378
 51
106.8651522897521033
  0
ARC
  5
C9C8
  8
0
 10
3787.0651043112297884
 20
-316.6719757585241268
 30
0.0
 40
0.1792472784146792
 50
14.6774937145079001
 51
84.9683601045526586
  0
ARC
  5
C9C9
  8
0
 10
3786.5674668509109324
 20
-316.8582483953330211
 30
0.0
 40
0.7099075824963382
 50
0.2070837827281566
 51
19.0483756650966107
  0
ARC
  5
C9CA
  8
0
 10
3787.0698649299470162
 20
-315.6719671527151831
 30
0.0
 40
0.1862950217359346
 50
251.8601032965258071
 51
290.1727940732909019
  0
ARC
  5
C9CB
  8
0
 10
3787.0305953925458198
 20
-315.6498568632831052
 30
0.0
 40
0.2225201334420896
 50
297.7224338681184008
 51
347.5890238754545862
  0
ARC
  5
C9CC
  8
0
 10
3786.4630798719808809
 20
-315.4779551114227161
 30
0.0
 40
0.815013243675396
 50
344.3596255003807869
 51
357.5859160274392252
  0
CIRCLE
  5
C9CD
  8
0
 10
3787.1153840619090261
 20
-316.1756793540196782
 30
0.0
 40
0.0718503937000001
  0
ARC
  5
C9CE
  8
0
 10
3787.1153840619090261
 20
-316.1756793540196782
 30
0.0
 40
0.0984251968999992
 50
299.0539634654981
 51
60.9460365345004007
  0
ARC
  5
C9CF
  8
0
 10
3787.194183876857096
 20
-315.9406092024159989
 30
0.0
 40
0.3226028132274923
 50
250.3632060523542862
 51
264.4855176072662744
  0
ARC
  5
C9D0
  8
0
 10
3787.1173861157399188
 20
-316.1537010693288039
 30
0.0
 40
0.0960982936064545
 50
211.7405938198174056
 51
250.7927540419950105
  0
ARC
  5
C9D1
  8
0
 10
3787.0816959451749426
 20
-316.1757787149206251
 30
0.0
 40
0.0541315125796117
 50
151.508724500901792
 51
211.7405938198174056
  0
ARC
  5
C9D2
  8
0
 10
3787.1111463686302159
 20
-316.1917631841980096
 30
0.0
 40
0.087640178619148
 50
115.8817015363141962
 51
151.508724500901792
  0
ARC
  5
C9D3
  8
0
 10
3787.1910839271317855
 20
-316.384669535086914
 30
0.0
 40
0.2963462117806404
 50
95.4024632643394597
 51
113.5054793076144932
  0
LINE
  5
C9D4
  8
0
 10
3781.2905057643088185
 20
-316.0659543488196732
 30
0.0
 11
3781.2905076049091804
 21
-312.4671351047197163
 31
0.0
  0
LINE
  5
C9D5
  8
0
 10
3781.6054663942090883
 20
-312.4671351048195902
 30
0.0
 11
3781.6054663942090883
 21
-315.9880848658195873
 31
0.0
  0
ARC
  5
C9D6
  8
0
 10
3781.3301400247910351
 20
-316.0498984117285772
 30
0.0
 40
0.042657646440046
 50
158.362372421113804
 51
205.0981213372355114
  0
ARC
  5
C9D7
  8
0
 10
3781.3092810238767925
 20
-316.0596686477448998
 30
0.0
 40
0.0196238575433829
 50
205.0981213372384104
 51
297.699413234537019
  0
ARC
  5
C9D8
  8
0
 10
3780.3734820435088295
 20
-314.2771898962549812
 30
0.0
 40
2.0328178946818931
 50
297.699413234537019
 51
300.4650169950741088
  0
ARC
  5
C9D9
  8
0
 10
3781.5603888347200154
 20
-316.2949739837249012
 30
0.0
 40
0.3081648807073125
 50
95.2153200691063546
 51
120.4650169950740946
  0
LINE
  5
C9DA
  8
0
 10
3782.5570395520089733
 20
-311.8363116864196058
 30
0.0
 11
3782.5570395520089733
 21
-315.9880848658195873
 31
0.0
  0
LINE
  5
C9DB
  8
0
 10
3782.2814490009100155
 20
-311.7977474555196977
 30
0.0
 11
3782.2814490009100155
 21
-316.0186296627053935
 31
0.0
  0
ARC
  5
C9DC
  8
0
 10
3782.2944599372849552
 20
-316.004885769193379
 30
0.0
 40
0.0179965103524434
 50
136.3409168815977068
 51
211.6044281901750992
  0
ARC
  5
C9DD
  8
0
 10
3782.3374033619029433
 20
-315.9857974720960101
 30
0.0
 40
0.0648755982977811
 50
206.078447400006695
 51
235.4548843495630877
  0
ARC
  5
C9DE
  8
0
 10
3782.3496877131569818
 20
-315.9664522245453782
 30
0.0
 40
0.0877799227659467
 50
236.0106492639617954
 51
286.0641081905628198
  0
ARC
  5
C9DF
  8
0
 10
3782.2172583066089828
 20
-315.5205356470680158
 30
0.0
 40
0.552943084594835
 50
286.4648705455825848
 51
297.0697597465672857
  0
ARC
  5
C9E0
  8
0
 10
3782.5811423094978636
 20
-316.2276010754316076
 30
0.0
 40
0.2422705229741374
 50
98.6478137086239713
 51
117.6027908408235021
  0
ARC
  5
C9E1
  8
0
 10
3782.2987367792538862
 20
-311.8173154675706087
 30
0.0
 40
0.0223343788306492
 50
167.3099165895908129
 51
219.281616494220799
  0
ARC
  5
C9E2
  8
0
 10
3782.3673088930249833
 20
-311.8327563902884094
 30
0.0
 40
0.0926234738694742
 50
130.8713674727360115
 51
167.3099165895908129
  0
ARC
  5
C9E3
  8
0
 10
3782.3599080404701454
 20
-311.8183923746798882
 30
0.0
 40
0.0770127913185412
 50
115.4863835535350063
 51
133.701790036446198
  0
ARC
  5
C9E4
  8
0
 10
3782.3495893961980983
 20
-311.8034429619597745
 30
0.0
 40
0.0591483110449255
 50
61.2080502226488576
 51
112.6937064550042038
  0
ARC
  5
C9E5
  8
0
 10
3782.2393181739198553
 20
-312.0456226161546738
 30
0.0
 40
0.3251142292754122
 50
57.5452241798121307
 51
64.7353291765711276
  0
ARC
  5
C9E6
  8
0
 10
3783.7270060862720129
 20
-309.7063478169196173
 30
0.0
 40
2.4471451220286342
 50
237.5452241798122088
 51
239.3348809855789057
  0
ARC
  5
C9E7
  8
0
 10
3782.5733707878721361
 20
-311.6626966575144024
 30
0.0
 40
0.1760747720373172
 50
237.5574034129571999
 51
260.4117173538817269
  0
ARC
  5
C9E8
  8
0
 10
3781.6054663942090883
 20
-312.4277650260195855
 30
0.0
 40
0.0393700786999993
 50
270.0
 51
90.0
  0
ARC
  5
C9E9
  8
0
 10
3781.2905057643088185
 20
-312.4277650260195855
 30
0.0
 40
0.0393700787000008
 50
90.0
 51
270.0
  0
LINE
  5
C9EA
  8
0
 10
3781.6054663942090883
 20
-312.3883949473196253
 30
0.0
 11
3781.2905057643088185
 21
-312.3883949473196253
 31
0.0
  0
LINE
  5
C9EB
  8
0
 10
3781.6054663942090883
 20
-312.4671351047197163
 30
0.0
 11
3781.2905057643088185
 21
-312.4671351047197163
 31
0.0
  0
LINE
  5
C9EC
  8
0
 10
3781.6045768795088406
 20
-312.3883949473196253
 30
0.0
 11
3781.6045777473091221
 21
-312.3807344721196273
 31
0.0
  0
ARC
  5
C9ED
  8
0
 10
3782.4696162680002089
 20
-312.3808324660964217
 30
0.0
 40
0.865038526241272
 50
160.6017843529131994
 51
180.5009069113127964
  0
ARC
  5
C9EE
  8
0
 10
3782.2849600384238329
 20
-312.2712424710525738
 30
0.0
 40
0.6558151167603351
 50
144.8054843953921136
 51
164.2770469587819093
  0
ARC
  5
C9EF
  8
0
 10
3781.8598669279222122
 20
-311.9726093749474103
 30
0.0
 40
0.1363139772438779
 50
90.8857582115876141
 51
144.4014808976336042
  0
ARC
  5
C9F0
  8
0
 10
3782.4717828162019941
 20
-312.3807344721199115
 30
0.0
 40
1.1803679525928421
 50
160.6522000333272047
 51
180.3718467433722026
  0
ARC
  5
C9F1
  8
0
 10
3782.2036968628531213
 20
-312.233546765225924
 30
0.0
 40
0.8800834194913669
 50
140.7315036942420079
 51
163.9128654891194117
  0
ARC
  5
C9F2
  8
0
 10
3781.8595641629099191
 20
-311.9703520561295136
 30
0.0
 40
0.4472903901757642
 50
91.1845752132954033
 51
138.9304012037854932
  0
LINE
  5
C9F3
  8
0
 10
3785.2105395520088678
 20
-311.797747435919689
 30
0.0
 11
3785.2105395520088678
 21
-315.9880848658195873
 31
0.0
  0
LINE
  5
C9F4
  8
0
 10
3784.9349490009090005
 20
-315.9880848658195873
 30
0.0
 11
3784.9349490009090005
 21
-311.8363116864196058
 31
0.0
  0
ARC
  5
C9F5
  8
0
 10
3784.9334673662588102
 20
-311.7143611600865825
 30
0.0
 40
0.1228065602794945
 50
276.7690065946820823
 51
297.9499130422656208
  0
ARC
  5
C9F6
  8
0
 10
3784.3154544673129749
 20
-310.566524110919886
 30
0.0
 40
1.4264416368503381
 50
298.2686692509957993
 51
303.0317725512946936
  0
ARC
  5
C9F7
  8
0
 10
3785.1808236078668415
 20
-311.9077658809089826
 30
0.0
 40
0.1698222598092402
 50
109.2247562561780967
 51
121.1359442992959004
  0
ARC
  5
C9F8
  8
0
 10
3785.1434596137009976
 20
-311.800810490265917
 30
0.0
 40
0.0565283418251944
 50
42.7877931281179116
 51
109.1612448721459998
  0
ARC
  5
C9F9
  8
0
 10
3785.1093060410230464
 20
-311.8441374250635931
 30
0.0
 40
0.1113564315131626
 50
24.6194938837723001
 51
47.2153357634684028
  0
ARC
  5
C9FA
  8
0
 10
3785.1675620245810023
 20
-311.8185926325296009
 30
0.0
 40
0.0477659929813577
 50
358.7934321842265035
 51
25.8745679004884401
  0
ARC
  5
C9FB
  8
0
 10
3785.1988106270150638
 20
-311.819439616616819
 30
0.0
 40
0.0165075637726132
 50
315.2770956020999051
 51
359.4487268230021186
  0
ARC
  5
C9FC
  8
0
 10
3786.3994942765089036
 20
-311.6797344721196055
 30
0.0
 40
0.2646041466000008
 50
216.2806771273666868
 51
143.7193230606569898
  0
ARC
  5
C9FD
  8
0
 10
3786.3994942765089036
 20
-311.6797344721196055
 30
0.0
 40
0.4100000000000002
 50
237.9275619071160008
 51
249.6295189439105968
  0
ARC
  5
C9FE
  8
0
 10
3786.3994942765089036
 20
-311.6797344721196055
 30
0.0
 40
0.4100000000000002
 50
290.3712067263379026
 51
319.4926495938095741
  0
ARC
  5
C9FF
  8
0
 10
3786.3994942765089036
 20
-311.6797344721196055
 30
0.0
 40
0.4100000000000002
 50
40.5073504061904686
 51
157.5488473285527107
  0
ARC
  5
CA00
  8
0
 10
3786.3715680859409076
 20
-311.6810540941402792
 30
0.0
 40
0.1578968419319218
 50
0.4788547485842872
 51
89.9838001765530464
  0
ARC
  5
CA01
  8
0
 10
3786.3715675435350931
 20
-311.678415844949825
 30
0.0
 40
0.157897376006846
 50
270.2526034110513251
 51
359.5215078824689954
  0
LINE
  5
CA02
  8
0
 10
3786.1817879610089221
 20
-311.7624116374195751
 30
0.0
 11
3786.1321842623087832
 21
-311.762405998419581
 31
0.0
  0
ARC
  5
CA03
  8
0
 10
3786.1297025663648128
 20
-311.774841959185494
 30
0.0
 40
0.057006890189379
 50
336.0571627264678227
 51
7.0220250189013891
  0
ARC
  5
CA04
  8
0
 10
3786.1476909867487848
 20
-311.7726262393936167
 30
0.0
 40
0.0388825231077397
 50
7.0220250189013891
 51
37.1517496312512634
  0
ARC
  5
CA05
  8
0
 10
3786.1683273189310057
 20
-311.7569897841282796
 30
0.0
 40
0.0129912709325721
 50
37.1517496312303308
 51
101.8233686320626958
  0
ARC
  5
CA06
  8
0
 10
3786.1765760933708407
 20
-311.7963941462842854
 30
0.0
 40
0.0532497611759703
 50
101.8233686320626958
 51
125.945512920836407
  0
ARC
  5
CA07
  8
0
 10
3784.6176531098840314
 20
-309.6464241144768721
 30
0.0
 40
2.6024256719509959
 50
304.5791957245523918
 51
305.9455129208363928
  0
ARC
  5
CA08
  8
0
 10
3785.9478384989511142
 20
-311.5898506484002723
 30
0.0
 40
0.247502596743487
 50
275.2582599338044247
 51
306.3813409870267037
  0
LINE
  5
CA09
  8
0
 10
3786.2616990009100846
 20
-312.0746311677195877
 30
0.0
 11
3786.5372895520090424
 21
-312.0746311677195877
 31
0.0
  0
LINE
  5
CA0A
  8
0
 10
3786.5372895520090424
 20
-312.0746311677195877
 30
0.0
 11
3786.5372895520090424
 21
-315.7911930933195777
 31
0.0
  0
LINE
  5
CA0B
  8
0
 10
3786.2616990009100846
 20
-312.0746311677195877
 30
0.0
 11
3786.2616990009100846
 21
-315.7911908025300249
 31
0.0
  0
LINE
  5
CA0C
  8
0
 10
3786.5128722292088241
 20
-312.0746311677195877
 30
0.0
 11
3786.5128722292088241
 21
-312.0640920450110798
 31
0.0
  0
LINE
  5
CA0D
  8
0
 10
3786.5422156799681943
 20
-312.0640918591888067
 30
0.0
 11
3786.2567777410768031
 21
-312.0640936667724077
 31
0.0
  0
LINE
  5
CA0E
  8
0
 10
3786.2861163237089386
 20
-312.0746311677195877
 30
0.0
 11
3786.2863370067780124
 21
-312.0640934795833914
 31
0.0
  0
LINE
  5
CA0F
  8
0
 10
3786.7112265599089369
 20
-311.4134207783556008
 30
0.0
 11
3786.7112265599089369
 21
-311.9460518197196279
 31
0.0
  0
LINE
  5
CA10
  8
0
 10
3787.5430689080071716
 20
-312.6172247306196255
 30
0.0
 11
3787.5995997883101154
 21
-312.6172247306196255
 31
0.0
  0
LINE
  5
CA11
  8
0
 10
3786.7112265599089369
 20
-311.4397403407127172
 30
0.0
 11
3786.8794584899092115
 21
-311.4398239308197276
 31
0.0
  0
LINE
  5
CA12
  8
0
 10
3786.9094584899089568
 20
-311.3437773393196721
 30
0.0
 11
3786.9094584899089568
 21
-312.0157004798197136
 31
0.0
  0
LINE
  5
CA13
  8
0
 10
3786.7112265599089369
 20
-311.9197344721197283
 30
0.0
 11
3786.8794584899092115
 21
-311.9197344721197283
 31
0.0
  0
ARC
  5
CA14
  8
0
 10
3786.8794584899092115
 20
-311.9497344721195873
 30
0.0
 40
0.0300000000000011
 50
0.0000000000032569
 51
90.0
  0
ARC
  5
CA15
  8
0
 10
3786.8793087540170745
 20
-311.4096745071047962
 30
0.0
 40
0.0301497955411382
 50
270.2845548298910785
 51
359.8860284740848101
  0
ARC
  5
CA16
  8
0
 10
3787.5519026180991204
 20
-310.954439003423488
 30
0.0
 40
0.2122875803421799
 50
88.401315724265686
 51
88.4014992530951247
  0
ARC
  5
CA17
  8
0
 10
3787.5519026180991204
 20
-310.954439003423488
 30
0.0
 40
0.2122875803421799
 50
91.5985007469048753
 51
122.0185321816655062
  0
ARC
  5
CA18
  8
0
 10
3787.5665752384247753
 20
-310.9555606825471727
 30
0.0
 40
0.2213351771787221
 50
125.0864697980700981
 51
159.6825133574643871
  0
ARC
  5
CA19
  8
0
 10
3787.7874641159442035
 20
-311.0511982828813871
 30
0.0
 40
0.4618711825007763
 50
158.070889509857011
 51
166.1881722407534028
  0
LINE
  5
CA1A
  8
0
 10
3787.3389479303900771
 20
-310.9409339617196792
 30
0.0
 11
3787.3390452372268555
 21
-312.4185201605029079
 31
0.0
  0
ARC
  5
CA1B
  8
0
 10
3787.7153784123552214
 20
-312.3323920014109945
 30
0.0
 40
0.3860631016955198
 50
192.8907929457843977
 51
205.7902405700326938
  0
ARC
  5
CA1C
  8
0
 10
3787.5641620396409053
 20
-312.4054610781370798
 30
0.0
 40
0.2181182257682491
 50
205.7902405700326938
 51
240.2686360376312962
  0
ARC
  5
CA1D
  8
0
 10
3787.5532965913689623
 20
-312.3966391855495885
 30
0.0
 40
0.2208225264796174
 50
243.854243381421611
 51
267.345321519522372
  0
ARC
  5
CA1E
  8
0
 10
3787.3099081963769095
 20
-310.9339327198596834
 30
0.0
 40
0.0298717850006175
 50
269.9881338117025962
 51
346.4451326021014097
  0
LINE
  5
CA1F
  8
0
 10
3787.3099020098088658
 20
-310.9638045042195813
 30
0.0
 11
3787.295547089208867
 21
-310.9638045042195813
 31
0.0
  0
ARC
  5
CA20
  8
0
 10
3787.295547089208867
 20
-310.9938044216974049
 30
0.0
 40
0.0299999174776771
 50
90.0
 51
178.4065277395461067
  0
LINE
  5
CA21
  8
0
 10
3787.2655587730100706
 20
-310.9929701914197153
 30
0.0
 11
3787.2655587730100706
 21
-312.3664987529195969
 31
0.0
  0
ARC
  5
CA22
  8
0
 10
3787.2955848313617935
 20
-312.3656257158546055
 30
0.0
 40
0.0300387478755871
 50
181.6654616972892882
 51
269.9280107595312757
  0
LINE
  5
CA23
  8
0
 10
3787.295547089208867
 20
-312.3956644400195728
 30
0.0
 11
3787.309903729808866
 21
-312.3956644400195728
 31
0.0
  0
ARC
  5
CA24
  8
0
 10
3787.309903729808866
 20
-312.4256703069175956
 30
0.0
 40
0.0300058668979553
 50
13.7857318752156406
 51
90.0
  0
ARC
  5
CA25
  8
0
 10
3786.9394584899091569
 20
-311.3437684643196235
 30
0.0
 40
0.029999999999994
 50
123.8034541505992934
 51
180.0000000000032117
  0
ARC
  5
CA26
  8
0
 10
3786.9455769251380843
 20
-311.3529958598487042
 30
0.0
 40
0.0410715079354503
 50
56.2656030666882074
 51
123.7343969333117997
  0
ARC
  5
CA27
  8
0
 10
3786.9520518566600913
 20
-311.3433947993182187
 30
0.0
 40
0.0294912998564635
 50
18.5033056958026094
 51
56.3681810881663026
  0
ARC
  5
CA28
  8
0
 10
3787.0083726885568467
 20
-311.3242348278474765
 30
0.0
 40
0.0300000985840861
 50
199.0677903757197953
 51
253.8998473165185885
  0
LINE
  5
CA29
  8
0
 10
3786.9800682304630755
 20
-311.3341778438415872
 30
0.0
 11
3786.9800682366089859
 21
-312.0254505403195822
 31
0.0
  0
ARC
  5
CA2A
  8
0
 10
3786.9516968368329799
 20
-312.0157004797383138
 30
0.0
 40
0.0300000001100484
 50
303.8000605604314046
 51
341.0343027398178037
  0
ARC
  5
CA2B
  8
0
 10
3786.9455776633622008
 20
-312.0064706362798006
 30
0.0
 40
0.0410739559398456
 50
236.2691218019801056
 51
303.730878356832477
  0
ARC
  5
CA2C
  8
0
 10
3786.9394584901319831
 20
-312.0157004797638933
 30
0.0
 40
0.0300000002228558
 50
180.0000001065066897
 51
236.1999392467664052
  0
ARC
  5
CA2D
  8
0
 10
3787.0082543304501996
 20
-312.0350271364911237
 30
0.0
 40
0.0297685585849823
 50
105.9952682732980946
 51
161.2341317079697092
  0
ARC
  5
CA2E
  8
0
 10
3787.0621731516721411
 20
-312.2095482663755774
 30
0.0
 40
0.2121842379062608
 50
88.1523691504074378
 51
106.8651522897521033
  0
ARC
  5
CA2F
  8
0
 10
3787.0532932876290033
 20
-312.176030876624111
 30
0.0
 40
0.1792472784146792
 50
14.6774937145079001
 51
84.9683601045526586
  0
ARC
  5
CA30
  8
0
 10
3786.5556558273110568
 20
-312.3623035134330053
 30
0.0
 40
0.7099075824963382
 50
0.2070837827281566
 51
19.0483756650966107
  0
ARC
  5
CA31
  8
0
 10
3787.0580539063457763
 20
-311.1760222708152241
 30
0.0
 40
0.1862950217359346
 50
251.8601032965258071
 51
290.1727940732909019
  0
ARC
  5
CA32
  8
0
 10
3787.0187843689459442
 20
-311.1539119813830894
 30
0.0
 40
0.2225201334420896
 50
297.7224338681184008
 51
347.5890238754545862
  0
ARC
  5
CA33
  8
0
 10
3786.4512688483810052
 20
-310.9820102295227002
 30
0.0
 40
0.815013243675396
 50
344.3596255003807869
 51
357.5859160274392252
  0
CIRCLE
  5
CA34
  8
0
 10
3787.106722644608908
 20
-311.6797344721196055
 30
0.0
 40
0.086614173200001
  0
ARC
  5
CA35
  8
0
 10
3787.106722644608908
 20
-311.6797344721196055
 30
0.0
 40
0.1062992125999997
 50
178.6756418930544044
 51
181.6522793145832111
  0
ARC
  5
CA36
  8
0
 10
3787.106722644608908
 20
-311.6797344721196055
 30
0.0
 40
0.1062992125999997
 50
292.0435303768915105
 51
67.9564696596804794
  0
LINE
  5
CA37
  8
0
 10
3787.1466178990090157
 20
-311.5812058403196261
 30
0.0
 11
3787.106722644608908
 21
-311.5898255790197027
 31
0.0
  0
ARC
  5
CA38
  8
0
 10
3787.1500800501839876
 20
-311.7904992636563861
 30
0.0
 40
0.2053041459003874
 50
102.1918765501943938
 51
108.9260593025941972
  0
ARC
  5
CA39
  8
0
 10
3787.12566470583306
 20
-311.7425689904250135
 30
0.0
 40
0.1522333244478191
 50
107.4682948966325995
 51
127.5571065558495008
  0
ARC
  5
CA3A
  8
0
 10
3787.0762003920808638
 20
-311.684428678841698
 30
0.0
 40
0.0760853620431462
 50
124.7146140836792938
 51
174.6069843039622072
  0
ARC
  5
CA3B
  8
0
 10
3787.071223266133984
 20
-311.6766066299508111
 30
0.0
 40
0.0710261326129471
 50
185.002031127808209
 51
226.7084344536633864
  0
ARC
  5
CA3C
  8
0
 10
3787.1212777465661929
 20
-311.6260843500376723
 30
0.0
 40
0.1421341576224245
 50
225.9869899666965125
 51
252.3696648421199882
  0
ARC
  5
CA3D
  8
0
 10
3787.2615118378012085
 20
-311.1601149682709888
 30
0.0
 40
0.62873502743882
 50
253.0515868034877087
 51
253.0857593482658956
  0
ARC
  5
CA3E
  8
0
 10
3787.2615118378012085
 20
-311.1601149682709888
 30
0.0
 40
0.62873502743882
 50
253.7377576572282862
 51
259.470704062460527
  0
ARC
  5
CA3F
  8
0
 10
3785.9612272078561546
 20
-316.1534230382222859
 30
0.0
 40
0.209920716380964
 50
271.479015692179189
 51
288.9771412742932739
  0
ARC
  5
CA40
  8
0
 10
3785.8701291135771498
 20
-315.8885119376179205
 30
0.0
 40
0.490057743574558
 50
288.9771512937264788
 51
298.1338585359367244
  0
ARC
  5
CA41
  8
0
 10
3786.6424522275510753
 20
-317.332889650790321
 30
0.0
 40
1.147840290702187
 50
116.2095588090499945
 51
118.1338585359365965
  0
ARC
  5
CA42
  8
0
 10
3786.2017569793879375
 20
-316.4376556976171173
 30
0.0
 40
0.1500145881533495
 50
103.5481162397741031
 51
116.2095588090499945
  0
ARC
  5
CA43
  8
0
 10
3786.1716961020279086
 20
-316.3129047511893077
 30
0.0
 40
0.0216929026035547
 50
49.4222439958522699
 51
103.5481162397741031
  0
ARC
  5
CA44
  8
0
 10
3786.1591055608510032
 20
-316.314425697164495
 30
0.0
 40
0.0322003253605411
 50
315.0299855617275853
 51
33.9807511496374914
  0
ARC
  5
CA45
  8
0
 10
3786.1316589261191439
 20
-316.2946333254815272
 30
0.0
 40
0.0658276169255691
 50
290.8124957253725142
 51
319.7309308918348734
  0
ARC
  5
CA46
  8
0
 10
3786.1161439579868784
 20
-316.2534551706050934
 30
0.0
 40
0.1098315347662854
 50
270.8777124336206725
 51
290.7454842232957049
  0
LINE
  5
CA47
  8
0
 10
3785.2105395520088678
 20
-315.9880848658195873
 30
0.0
 11
3785.2105395520088678
 21
-316.0188360673270722
 31
0.0
  0
ARC
  5
CA48
  8
0
 10
3785.1986501108867742
 20
-316.0043809162128809
 30
0.0
 40
0.0168412688300315
 50
336.6595804829506733
 51
45.0607128275634707
  0
ARC
  5
CA49
  8
0
 10
3785.1685785112417761
 20
-315.994849152977622
 30
0.0
 40
0.0483320147467286
 50
320.9534390987573147
 51
340.4111849085479093
  0
ARC
  5
CA4A
  8
0
 10
3785.1485607579811585
 20
-315.9792391676709826
 30
0.0
 40
0.0737136340851379
 50
302.4816527779181001
 51
321.3319502084221995
  0
ARC
  5
CA4B
  8
0
 10
3785.1388287325571582
 20
-315.952844721125814
 30
0.0
 40
0.1013810451836059
 50
274.7749959616576234
 51
299.1085594620013239
  0
ARC
  5
CA4C
  8
0
 10
3785.1564101448698239
 20
-315.854435673740511
 30
0.0
 40
0.1996476535470978
 50
243.1611245205818079
 51
267.3754259331068965
  0
ARC
  5
CA4D
  8
0
 10
3786.3287993749549969
 20
-313.2062552606440136
 30
0.0
 40
3.095491826592133
 50
245.0762804619452027
 51
245.9295367386704925
  0
ARC
  5
CA4E
  8
0
 10
3784.8207422576679164
 20
-316.4444622872907189
 30
0.0
 40
0.4766614791653526
 50
64.7163635016080008
 51
70.988333800063117
  0
ARC
  5
CA4F
  8
0
 10
3784.9419760569057871
 20
-316.0898553453613999
 30
0.0
 40
0.1019082799358934
 50
70.4844441971304718
 51
87.020063056193834
  0
ARC
  5
CA50
  8
0
 10
3784.0303624776688594
 20
-316.9054353992518145
 30
0.0
 40
0.6939353690798157
 50
122.5755755405502043
 51
128.6215823553619941
  0
ARC
  5
CA51
  8
0
 10
3783.7660596196819824
 20
-316.4917681326634806
 30
0.0
 40
0.2030416858991615
 50
108.2632479128109964
 51
122.5755755405502043
  0
ARC
  5
CA52
  8
0
 10
3783.7461594834821881
 20
-316.4314659556432048
 30
0.0
 40
0.139540756975563
 50
65.0962579848986564
 51
108.2632479128109964
  0
ARC
  5
CA53
  8
0
 10
3783.6542427318518094
 20
-316.6294497868055942
 30
0.0
 40
0.3578210507079457
 50
53.6580822934724324
 51
65.0962579848986564
  0
ARC
  5
CA54
  8
0
 10
3783.7074155113850793
 20
-316.5665661601731244
 30
0.0
 40
0.2757144532440938
 50
47.5044061419106498
 51
54.8146981797988815
  0
LINE
  5
CA55
  8
0
 10
3783.6149442205892228
 20
-316.3495811304504741
 30
0.0
 11
3783.8775212332279807
 21
-316.349581130448712
 31
0.0
  0
LINE
  5
CA56
  8
0
 10
3783.0353643552089125
 20
-315.9788289603196745
 30
0.0
 11
3783.6081990009088258
 21
-315.9788289603196745
 31
0.0
  0
LINE
  5
CA57
  8
0
 10
3783.8837895520091479
 20
-315.9788289603196745
 30
0.0
 11
3784.4566241977090613
 21
-315.9788289603196745
 31
0.0
  0
LINE
  5
CA58
  8
0
 10
3784.4566241977090613
 20
-315.9788289603196745
 30
0.0
 11
3784.4566241977090613
 21
-312.0046793540195722
 31
0.0
  0
LINE
  5
CA59
  8
0
 10
3783.0353643552089125
 20
-312.0046793540195722
 30
0.0
 11
3783.0353643552089125
 21
-315.9788289603196745
 31
0.0
  0
ARC
  5
CA5A
  8
0
 10
3781.3635385196907919
 20
-316.2962323781794112
 30
0.0
 40
0.0671281023546042
 50
206.0116853677114079
 51
267.088299905768281
  0
ARC
  5
CA5B
  8
0
 10
3781.330229225974108
 20
-316.3132024105070172
 30
0.0
 40
0.0297575531027526
 50
150.6218789858544085
 51
204.7733367528767019
  0
ARC
  5
CA5C
  8
0
 10
3781.3151203576248918
 20
-316.3046966003705052
 30
0.0
 40
0.0124189629388647
 50
93.2749287238931402
 51
150.6218789858544085
  0
ARC
  5
CA5D
  8
0
 10
3781.3184545200269895
 20
-316.3629651505228253
 30
0.0
 40
0.070782826551257
 50
58.891846886551491
 51
93.2749287238931402
  0
ARC
  5
CA5E
  8
0
 10
3782.0889033927578566
 20
-314.9152491208179185
 30
0.0
 40
1.569285848547685
 50
242.118055284647113
 51
245.1779725179864045
  0
ARC
  5
CA5F
  8
0
 10
3781.5371265258140738
 20
-316.1129113130674
 30
0.0
 40
0.2506395978096811
 50
244.7257439592520996
 51
267.3055811817250742
  0
ARC
  5
CA60
  8
0
 10
3784.4450938651339129
 20
-315.9903022085683801
 30
0.0
 40
0.0114670057837791
 50
11.14935545876933
 51
89.3851472806823182
  0
ARC
  5
CA61
  8
0
 10
3783.0471741645528709
 20
-315.9906365307618898
 30
0.0
 40
0.0118075705046618
 50
89.9941078678027253
 51
167.5196868117762108
  0
LINE
  5
CA62
  8
0
 10
3783.6081990009088258
 20
-315.9925476997195801
 30
0.0
 11
3783.6081990009088258
 21
-311.8309948303867145
 31
0.0
  0
LINE
  5
CA63
  8
0
 10
3783.8837895520091479
 20
-311.831283890753582
 30
0.0
 11
3783.8837895520091479
 21
-315.9922004133189262
 31
0.0
  0
ARC
  5
CA64
  8
0
 10
3783.671295994537104
 20
-315.9180245257194883
 30
0.0
 40
0.0976469869885499
 50
225.8473030438306068
 51
233.779404632796286
  0
ARC
  5
CA65
  8
0
 10
3783.9413758039609093
 20
-315.5492854451413791
 30
0.0
 40
0.554715486235308
 50
233.779404632796286
 51
240.5859835209508049
  0
ARC
  5
CA66
  8
0
 10
3783.7521963193189549
 20
-315.8848329838431255
 30
0.0
 40
0.1695129055873019
 50
240.5859835209508049
 51
263.8561667513855014
  0
ARC
  5
CA67
  8
0
 10
3783.7487027560569004
 20
-315.9172880721404226
 30
0.0
 40
0.1368703300048637
 50
263.8561667513855014
 51
301.715815482023288
  0
ARC
  5
CA68
  8
0
 10
3783.6549971712738625
 20
-315.713058198707472
 30
0.0
 40
0.360924271088136
 50
297.3216983123484738
 51
310.3585862664978094
  0
LINE
  5
CA69
  8
0
 10
3782.80386459950887
 20
-311.8668604520196936
 30
0.0
 11
3783.6081990009088258
 21
-311.8668604520196936
 31
0.0
  0
LINE
  5
CA6A
  8
0
 10
3783.8837895520091479
 20
-311.8668604520196936
 30
0.0
 11
3784.6848286778090369
 21
-311.8668604520196936
 31
0.0
  0
ARC
  5
CA6B
  8
0
 10
3784.6848286778090369
 20
-311.8968052522030234
 30
0.0
 40
0.0299448001833422
 50
47.2563052996083712
 51
90.0
  0
ARC
  5
CA6C
  8
0
 10
3784.6509826231890656
 20
-311.9357793804189782
 30
0.0
 40
0.0815549023153312
 50
311.6525271262240722
 51
48.3776835478334988
  0
ARC
  5
CA6D
  8
0
 10
3784.6848589310438911
 20
-311.9747461500984969
 30
0.0
 40
0.0299305051929793
 50
275.7366015369814249
 51
312.7739053744606963
  0
LINE
  5
CA6E
  8
0
 10
3784.6878506463090162
 20
-312.0045267609195889
 30
0.0
 11
3783.8837895520091479
 21
-312.0045918871351205
 31
0.0
  0
LINE
  5
CA6F
  8
0
 10
3783.6081990009088258
 20
-312.0046142090329226
 30
0.0
 11
3782.8039061517088157
 21
-312.0046793540195722
 31
0.0
  0
ARC
  5
CA70
  8
0
 10
3782.803974566236775
 20
-311.9741453281080226
 30
0.0
 40
0.0305341025563503
 50
227.8090795660930041
 51
269.8716233116173839
  0
ARC
  5
CA71
  8
0
 10
3782.8376110015537961
 20
-311.9358164153842949
 30
0.0
 40
0.0815268800941088
 50
131.6565896695537106
 51
228.3855224086607052
  0
ARC
  5
CA72
  8
0
 10
3782.8040728558457886
 20
-311.8973855953194061
 30
0.0
 40
0.0305258537010264
 50
90.3908916633586585
 51
132.5685375678243929
  0
ARC
  5
CA73
  8
0
 10
3783.6050838398809901
 20
-311.837021166106183
 30
0.0
 40
0.0019560370099293
 50
127.6306867341397009
 51
158.7331070711564109
  0
ARC
  5
CA74
  8
0
 10
3783.7957446791160692
 20
-312.0158254303908052
 30
0.0
 40
0.263316790410157
 50
134.8904479324305044
 51
136.7699563973905015
  0
ARC
  5
CA75
  8
0
 10
3784.0119529099879401
 20
-312.2433768050192953
 30
0.0
 40
0.5771646874209136
 50
123.557972838924897
 51
134.1537538025633012
  0
ARC
  5
CA76
  8
0
 10
3783.7699022543379215
 20
-311.8838764621374935
 30
0.0
 40
0.1438134310143014
 50
109.5296034412106962
 51
122.3696201401955932
  0
ARC
  5
CA77
  8
0
 10
3783.7460918144388415
 20
-311.8169351721574003
 30
0.0
 40
0.0727636905307122
 50
68.1319194362885838
 51
109.4803603821773947
  0
ARC
  5
CA78
  8
0
 10
3783.7188714265630551
 20
-311.8898262800353223
 30
0.0
 40
0.1505604783044755
 50
57.8131819805919989
 51
68.850453200278821
  0
ARC
  5
CA79
  8
0
 10
3783.5632560190629192
 20
-312.1307863835672265
 30
0.0
 40
0.4373950570172344
 50
49.1495873917908526
 51
57.375036806068259
  0
ARC
  5
CA7A
  8
0
 10
3783.5289914677859997
 20
-312.1864315399556062
 30
0.0
 40
0.5020075032326941
 50
44.2219326556567296
 51
50.3456034956380378
  0
ARC
  5
CA7B
  8
0
 10
3783.0945738010391324
 20
-311.8368604520896952
 30
0.0
 40
0.0299999999299822
 50
270.0000180865412176
 51
351.5891422303163836
  0
ARC
  5
CA7C
  8
0
 10
3783.2292551913160423
 20
-311.8567905371947973
 30
0.0
 40
0.1061480270482742
 50
168.876333219319605
 51
171.5806052792875107
  0
ARC
  5
CA7D
  8
0
 10
3784.1529904747130786
 20
-311.8750930908552164
 30
0.0
 40
0.2141424684195753
 50
9.0777859243703922
 51
10.4338935817986602
  0
ARC
  5
CA7E
  8
0
 10
3784.3944132281872044
 20
-311.8365194281419122
 30
0.0
 40
0.0303424459412305
 50
189.077785924367106
 51
269.4452803802207086
  0
LINE
  5
CA7F
  8
0
 10
3783.5099284393090784
 20
-311.2147907910197091
 30
0.0
 11
3783.9787589512088744
 21
-311.2147661032195742
 31
0.0
  0
ARC
  5
CA80
  8
0
 10
3783.9857621812238904
 20
-311.2439658614791256
 30
0.0
 40
0.030027838967208
 50
103.486990689621507
 51
180.0087851085455952
  0
LINE
  5
CA81
  8
0
 10
3783.9557343426099578
 20
-311.243970465619725
 30
0.0
 11
3783.9557343426099578
 21
-311.2603150188195968
 31
0.0
  0
ARC
  5
CA82
  8
0
 10
3783.9857356354000331
 20
-311.2603150188195968
 30
0.0
 40
0.0300012927911944
 50
180.0
 51
253.5037760620608083
  0
ARC
  5
CA83
  8
0
 10
3783.9536471251290095
 20
-311.3774106989191068
 30
0.0
 40
0.091419844543217
 50
49.4936611055564271
 51
75.0594374635456631
  0
ARC
  5
CA84
  8
0
 10
3783.9842509753470949
 20
-311.3434994336826094
 30
0.0
 40
0.0457746390748511
 50
338.1976813813295166
 51
51.0493225070454599
  0
ARC
  5
CA85
  8
0
 10
3784.2575856643279621
 20
-311.4583499041160053
 30
0.0
 40
0.2507169533058771
 50
157.0281492018629024
 51
194.9846289787415117
  0
LINE
  5
CA86
  8
0
 10
3783.9772164732980855
 20
-311.2890813436844724
 30
0.0
 11
3783.5114765738089773
 21
-311.2890814118197227
 31
0.0
  0
ARC
  5
CA87
  8
0
 10
3783.5349203229288833
 20
-311.3771219991677981
 30
0.0
 40
0.0911084759690641
 50
104.9109148830121967
 51
130.7919714338326003
  0
ARC
  5
CA88
  8
0
 10
3783.506369487127813
 20
-311.3443869096453795
 30
0.0
 40
0.047673053074895
 50
130.5165715947076137
 51
177.3470236473008868
  0
ARC
  5
CA89
  8
0
 10
3783.5093498671189991
 20
-311.3431847497437275
 30
0.0
 40
0.0506123054893117
 50
178.8628183757163868
 51
200.0630624421374932
  0
ARC
  5
CA8A
  8
0
 10
3783.2326468848541481
 20
-311.4584581540653971
 30
0.0
 40
0.2492022076854074
 50
344.9479076512499205
 51
23.1348397867930089
  0
ARC
  5
CA8B
  8
0
 10
3783.8798723412601248
 20
-310.7416749324603984
 30
0.0
 40
0.483315443036546
 50
281.8061171732047114
 51
299.4242729568182995
  0
ARC
  5
CA8C
  8
0
 10
3784.0240046575090673
 20
-310.9771713748116895
 30
0.0
 40
0.2076220433631782
 50
296.7058330459593094
 51
342.3350660522847875
  0
ARC
  5
CA8D
  8
0
 10
3784.068146795209941
 20
-311.006376630958016
 30
0.0
 40
0.1573622899705823
 50
347.5976024752304738
 51
28.0590893294486392
  0
ARC
  5
CA8E
  8
0
 10
3783.9753746251299162
 20
-311.0633919051383032
 30
0.0
 40
0.2661329818665363
 50
29.4964125458406912
 51
58.6260395415277316
  0
ARC
  5
CA8F
  8
0
 10
3784.0600952830341157
 20
-310.9203896352257743
 30
0.0
 40
0.099954436026468
 50
57.4126501612690276
 51
89.8931844897284975
  0
LINE
  5
CA90
  8
0
 10
3784.0602816262171473
 20
-310.8204353728975207
 30
0.0
 11
3783.4285979797091386
 21
-310.8204351870197115
 31
0.0
  0
ARC
  5
CA91
  8
0
 10
3783.4285979502969894
 20
-310.9203894455960722
 30
0.0
 40
0.0999542585764929
 50
89.9999831402633248
 51
122.587376472034407
  0
ARC
  5
CA92
  8
0
 10
3783.5175871978171926
 20
-311.0683573706666039
 30
0.0
 40
0.2725967961058072
 50
121.5966066065773958
 51
148.2398078308966944
  0
ARC
  5
CA93
  8
0
 10
3783.4145191560178318
 20
-311.0054206123242011
 30
0.0
 40
0.1518363863679394
 50
147.9609781621890079
 51
227.1475901638185917
  0
ARC
  5
CA94
  8
0
 10
3783.5831091278141685
 20
-310.8162221600825887
 30
0.0
 40
0.4052312509384012
 50
227.8660847041396948
 51
259.5958758071047896
  0
ARC
  5
CA95
  8
0
 10
3783.5029899331448178
 20
-311.2439455301317253
 30
0.0
 40
0.0299690119385351
 50
359.9523274779115809
 51
76.6132605538227409
  0
LINE
  5
CA96
  8
0
 10
3783.5329589347088586
 20
-311.243973180119724
 30
0.0
 11
3783.5329589347088586
 21
-311.2603150188195968
 31
0.0
  0
ARC
  5
CA97
  8
0
 10
3783.5029576419728983
 20
-311.2603150188195968
 30
0.0
 40
0.0300012927366034
 50
286.4962242584260252
 51
359.9999999999968168
  0
LINE
  5
CA98
  8
0
 10
3783.4617917517362002
 20
-311.360500382219584
 30
0.0
 11
3784.0267513910071102
 21
-311.360500382219584
 31
0.0
  0
ARC
  5
CA99
  8
0
 10
3783.4609225749832149
 20
-310.7909017337012187
 30
0.0
 40
0.0297759477802042
 50
277.3171405405008727
 51
291.2636795403183214
  0
ARC
  5
CA9A
  8
0
 10
3783.7815667186669089
 20
-311.618465561803589
 30
0.0
 40
0.8577343992037421
 50
101.8411797070906033
 51
111.1761968399963934
  0
ARC
  5
CA9B
  8
0
 10
3783.7443466387039734
 20
-311.449530794137786
 30
0.0
 40
0.6847592621181356
 50
78.3063113510612681
 51
101.693688742357395
  0
ARC
  5
CA9C
  8
0
 10
3783.7072651844109714
 20
-311.6179162981555919
 30
0.0
 40
0.8571683781802759
 50
68.8188743791023398
 51
78.1603555590166366
  0
ARC
  5
CA9D
  8
0
 10
3784.0278127191731983
 20
-310.7906712609046735
 30
0.0
 40
0.0300097745338526
 50
248.8299109039888037
 51
262.6636186468468281
  0
ARC
  5
CA9F
  8
0
 10
3781.3113433611670189
 20
-316.0707137557246824
 30
0.0
 40
0.2965997160406907
 50
279.4671329028067248
 51
294.289776344020197
  0
ARC
  5
CAA0
  8
0
 10
3786.1188734852889866
 20
-316.1943740530138029
 30
0.0
 40
0.1689030111313134
 50
244.0820118060881043
 51
269.6448018006497023
  0
LINE
  5
CAA1
  8
0
 10
3787.5995997883101154
 20
-312.6172247306196255
 30
0.0
 11
3787.5995997883101154
 21
-310.7422340357865096
 31
0.0
  0
LINE
  5
CAA2
  8
0
 10
3787.5995997883101154
 20
-315.238178928030095
 30
0.0
 11
3787.5995997883101154
 21
-317.1131696125195845
 31
0.0
  0
ENDSEC
  0
EOF
