  0
SECTION
  2
HEADER
  9
$ACADVER
  1
AC1009
  9
$INSBASE
 10
3783.1474261180160283
 20
-337.2207234825012847
 30
0.0
  9
$EXTMIN
 10
3780.15363141241005
 20
-340.0814267428004882
 30
-0.0000000349181948
  9
$EXTMAX
 10
3786.2196201638021194
 20
-333.3576689044634236
 30
0.0000000814935746
  9
$LIMMIN
 10
0.0
 20
0.0
  9
$LIMMAX
 10
11.6929133858000007
 20
8.2677165353999982
  9
$ORTHOMODE
 70
     0
  9
$REGENMODE
 70
     1
  9
$FILLMODE
 70
     1
  9
$QTEXTMODE
 70
     0
  9
$MIRRTEXT
 70
     0
  9
$DRAGMODE
 70
     2
  9
$LTSCALE
 40
0.6431102362
  9
$OSMODE
 70
  4095
  9
$ATTMODE
 70
     1
  9
$TEXTSIZE
 40
0.2
  9
$TRACEWID
 40
0.05
  9
$TEXTSTYLE
  7
STANDARD
  9
$CLAYER
  8
0
  9
$CELTYPE
  6
BYLAYER
  9
$CECOLOR
 62
   256
  9
$DIMSCALE
 40
1.0
  9
$DIMASZ
 40
0.1875
  9
$DIMEXO
 40
0.0625
  9
$DIMDLI
 40
0.4443307087
  9
$DIMRND
 40
0.0
  9
$DIMDLE
 40
0.0
  9
$DIMEXE
 40
0.125
  9
$DIMTP
 40
0.01
  9
$DIMTM
 40
0.01
  9
$DIMTXT
 40
2.0
  9
$DIMCEN
 40
0.1052362205
  9
$DIMTSZ
 40
0.0
  9
$DIMTOL
 70
     1
  9
$DIMLIM
 70
     0
  9
$DIMTIH
 70
     1
  9
$DIMTOH
 70
     1
  9
$DIMSE1
 70
     0
  9
$DIMSE2
 70
     0
  9
$DIMTAD
 70
     0
  9
$DIMZIN
 70
     0
  9
$DIMBLK
  1

  9
$DIMASO
 70
     1
  9
$DIMSHO
 70
     1
  9
$DIMPOST
  1
\X
  9
$DIMAPOST
  1

  9
$DIMALT
 70
     1
  9
$DIMALTD
 70
     2
  9
$DIMALTF
 40
25.3999999999999986
  9
$DIMLFAC
 40
1.0
  9
$DIMTOFL
 70
     0
  9
$DIMTVP
 40
0.0
  9
$DIMTIX
 70
     0
  9
$DIMSOXD
 70
     0
  9
$DIMSAH
 70
     0
  9
$DIMBLK1
  1

  9
$DIMBLK2
  1

  9
$DIMSTYLE
  2
STANDARD
  9
$DIMCLRD
 70
     0
  9
$DIMCLRE
 70
     0
  9
$DIMCLRT
 70
     0
  9
$DIMTFAC
 40
1.0
  9
$DIMGAP
 40
0.09
  9
$LUNITS
 70
     2
  9
$LUPREC
 70
     4
  9
$SKETCHINC
 40
0.1
  9
$FILLETRAD
 40
0.0
  9
$AUNITS
 70
     0
  9
$AUPREC
 70
     0
  9
$MENU
  1
.
  9
$ELEVATION
 40
0.0
  9
$PELEVATION
 40
0.0
  9
$THICKNESS
 40
0.0
  9
$LIMCHECK
 70
     0
  9
$BLIPMODE
 70
     0
  9
$CHAMFERA
 40
0.0
  9
$CHAMFERB
 40
0.0
  9
$SKPOLY
 70
     0
  9
$TDCREATE
 40
2458060.468368056230247
  9
$TDUPDATE
 40
2459602.552905092947185
  9
$TDINDWG
 40
0.4696019676
  9
$TDUSRTIMER
 40
0.4696019676
  9
$USRTIMER
 70
     1
  9
$ANGBASE
 50
0.0
  9
$ANGDIR
 70
     0
  9
$PDMODE
 70
     0
  9
$PDSIZE
 40
0.3125
  9
$PLINEWID
 40
0.0
  9
$COORDS
 70
     1
  9
$SPLFRAME
 70
     0
  9
$SPLINETYPE
 70
     6
  9
$SPLINESEGS
 70
     8
  9
$ATTDIA
 70
     1
  9
$ATTREQ
 70
     1
  9
$HANDLING
 70
     1
  9
$HANDSEED
  5
D5A0
  9
$SURFTAB1
 70
     6
  9
$SURFTAB2
 70
     6
  9
$SURFTYPE
 70
     6
  9
$SURFU
 70
     6
  9
$SURFV
 70
     6
  9
$UCSNAME
  2

  9
$UCSORG
 10
0.0
 20
0.0
 30
0.0
  9
$UCSXDIR
 10
1.0
 20
0.0
 30
0.0
  9
$UCSYDIR
 10
0.0
 20
1.0
 30
0.0
  9
$PUCSNAME
  2

  9
$PUCSORG
 10
0.0
 20
0.0
 30
0.0
  9
$PUCSXDIR
 10
1.0
 20
0.0
 30
0.0
  9
$PUCSYDIR
 10
0.0
 20
1.0
 30
0.0
  9
$USERI1
 70
     0
  9
$USERI2
 70
     0
  9
$USERI3
 70
     0
  9
$USERI4
 70
     0
  9
$USERI5
 70
     0
  9
$USERR1
 40
0.0
  9
$USERR2
 40
0.0
  9
$USERR3
 40
0.0
  9
$USERR4
 40
0.0
  9
$USERR5
 40
0.0
  9
$WORLDVIEW
 70
     1
  9
$SHADEDGE
 70
     3
  9
$SHADEDIF
 70
    70
  9
$TILEMODE
 70
     1
  9
$MAXACTVP
 70
    64
  9
$PLIMCHECK
 70
     0
  9
$PEXTMIN
 10
1.0000000000000000E+20
 20
1.0000000000000000E+20
 30
1.0000000000000000E+20
  9
$PEXTMAX
 10
-1.0000000000000000E+20
 20
-1.0000000000000000E+20
 30
-1.0000000000000000E+20
  9
$PLIMMIN
 10
0.0
 20
0.0
  9
$PLIMMAX
 10
12.0
 20
9.0
  9
$UNITMODE
 70
     0
  9
$VISRETAIN
 70
     1
  9
$PLINEGEN
 70
     0
  9
$PSLTSCALE
 70
     1
  0
ENDSEC
  0
SECTION
  2
TABLES
  0
TABLE
  2
VPORT
 70
     1
  0
VPORT
  2
*ACTIVE
 70
     0
 10
0.0
 20
0.0
 11
1.0
 21
1.0
 12
0.3650925849806295
 22
-0.0067334925772684
 13
0.0
 23
0.0
 14
1.0
 24
1.0
 15
0.0
 25
0.0
 16
0.0
 26
0.0
 36
33.8834243633382286
 17
3782.821533203125
 27
-336.7128143310546875
 37
0.0
 40
6.7770505028418322
 41
2.0410052910052912
 42
50.0
 43
0.0
 44
0.0
 50
0.0
 51
0.0
 71
     0
 72
 10000
 73
     1
 74
     1
 75
     0
 76
     0
 77
     0
 78
     0
  0
ENDTAB
  0
TABLE
  2
LTYPE
 70
     2
  0
LTYPE
  2
CONTINUOUS
 70
     0
  3
Solid line
 72
    65
 73
     0
 40
0.0
  0
LTYPE
  2
PHANTOM2
 70
     0
  3
___ _ _ ___ _ _ ___ _ _ ___ _ _
 72
    65
 73
     6
 40
1.25
 49
0.625
 49
-0.125
 49
0.125
 49
-0.125
 49
0.125
 49
-0.125
  0
ENDTAB
  0
TABLE
  2
LAYER
 70
     2
  0
LAYER
  2
0
 70
     0
 62
   255
  6
CONTINUOUS
  0
LAYER
  2
DEFPOINTS
 70
     0
 62
     7
  6
CONTINUOUS
  0
ENDTAB
  0
TABLE
  2
STYLE
 70
     1
  0
STYLE
  2
STANDARD
 70
     0
 40
0.0
 41
0.8
 50
0.0
 71
     0
 42
0.2
  3
txt
  4

  0
ENDTAB
  0
TABLE
  2
VIEW
 70
     0
  0
ENDTAB
  0
TABLE
  2
UCS
 70
     0
  0
ENDTAB
  0
TABLE
  2
APPID
 70
    11
  0
APPID
  2
ACAD
 70
     0
  0
APPID
  2
ACAD_MLEADERVER
 70
     0
  0
APPID
  2
ACAD_EXEMPT_FROM_CAD_STANDARDS
 70
     0
  0
APPID
  2
ACAD_NAV_VCDISPLAY
 70
     0
  0
APPID
  2
ACAECLAYERSTANDARD
 70
     0
  0
APPID
  2
ACCMTRANSPARENCY
 70
     0
  0
APPID
  2
ACAD_DSTYLE_DIMJAG
 70
     0
  0
APPID
  2
ACAD_DSTYLE_DIMTALN
 70
     0
  0
APPID
  2
ACDBATTR
 70
     0
  0
APPID
  2
ACADANNOTATIVE
 70
     0
  0
APPID
  2
ACAD_PSEXT
 70
     0
  0
ENDTAB
  0
TABLE
  2
DIMSTYLE
 70
     1
  0
DIMSTYLE
  2
STANDARD
 70
     0
  3

  4

  5

  6

  7

 40
1.0
 41
0.1875
 42
0.0625
 43
0.38
 44
0.125
 45
0.0
 46
0.0
 47
0.01
 48
0.01
140
0.15625
141
0.09
142
0.0
143
25.3999999999999986
144
1.0
145
0.0
146
1.0
147
0.09
 71
     1
 72
     0
 73
     1
 74
     1
 75
     0
 76
     0
 77
     0
 78
     4
170
     0
171
     2
172
     0
173
     0
174
     0
175
     0
176
     0
177
     0
178
     0
  0
ENDTAB
  0
ENDSEC
  0
SECTION
  2
BLOCKS
  0
BLOCK
  8
0
  2
$MODEL_SPACE
 70
     0
 10
0.0
 20
0.0
 30
0.0
  3
$MODEL_SPACE
  1

  0
ENDBLK
  5
21
  8
0
  0
BLOCK
 67
     1
  8
0
  2
$PAPER_SPACE
 70
     0
 10
0.0
 20
0.0
 30
0.0
  3
$PAPER_SPACE
  1

  0
ENDBLK
  5
1D
 67
     1
  8
0
  0
BLOCK
  8
0
  2
_FILLED
 70
     0
 10
0.0
 20
0.0
 30
0.0
  3
_FILLED
  1

  0
SOLID
  5
B73F
  8
0
  6
BYBLOCK
 62
     0
 10
0.0
 20
0.0
 30
0.0
 11
-1.0
 21
0.1666666667
 31
0.0
 12
-1.0
 22
-0.1666666667
 32
0.0
 13
-1.0
 23
-0.1666666667
 33
0.0
  0
ENDBLK
  5
B740
  8
0
  6
BYBLOCK
 62
     0
  0
ENDSEC
  0
SECTION
  2
ENTITIES
  0
ATTDEF
  5
9DCC
  8
DEFPOINTS
 10
3783.146715636224144
 20
-337.2233008257639995
 30
0.0
 40
0.001
  1
K-72576
  3

  2
MODELNUMBER
 70
     0
1001
ACDBATTR
1070
     0
1070
     1
  0
ATTDEF
  5
9DCD
  8
DEFPOINTS
 10
3783.146715636224144
 20
-337.2249674924307214
 30
0.0
 40
0.001
  1
ARTIFACTS
  3

  2
TRADENAME
 70
     0
1001
ACDBATTR
1070
     0
1070
     1
  0
ATTDEF
  5
9DCE
  8
DEFPOINTS
 10
3783.146715636224144
 20
-337.2266341590972729
 30
0.0
 40
0.001
  1
TOILET TISSUE CARRIAGE
  3

  2
PRODUCT
 70
     0
1001
ACDBATTR
1070
     0
1070
     1
  0
ARC
  5
D171
  8
0
 10
3783.1474270682169845
 20
-337.2190742556012992
 30
0.0
 40
2.8410935380004481
 50
241.2455426768528071
 51
298.7545469412934267
  0
ARC
  5
D172
  8
0
 10
3783.1474270682169845
 20
-337.2190742556012992
 30
0.0
 40
2.8410935380004481
 50
301.2446904909064074
 51
82.1909818051049399
  0
ARC
  5
D173
  8
0
 10
3783.1474270682169845
 20
-337.2190742556012992
 30
0.0
 40
2.8410935380004481
 50
97.7947287581459932
 51
238.7552398003587086
  0
ARC
  5
D174
  8
0
 10
3783.1474261180160283
 20
-337.2207234825012847
 30
0.0
 40
2.4969039295644588
 50
315.0267365379796729
 51
82.2899878433870242
  0
ARC
  5
D175
  8
0
 10
3783.1474261180160283
 20
-337.2207234825012847
 30
0.0
 40
2.4969039295644588
 50
97.7100164768876454
 51
240.9726802003399939
  0
CIRCLE
  5
D176
  8
0
 10
3783.1474261180160283
 20
-337.2207234825012847
 30
0.0
 40
0.9879835515163499
  0
CIRCLE
  5
D177
  8
0
 10
3783.1474261180160283
 20
-337.2207234825012847
 30
0.0
 40
0.6497750827235224
  0
ARC
  5
D178
  8
0
 10
3784.4741632505160851
 20
-339.5170840479012782
 30
0.0
 40
0.1968503936999999
 50
102.4909420367479953
 51
318.2764055203714975
  0
ARC
  5
D179
  8
0
 10
3784.4741632505160851
 20
-339.5170840479012782
 30
0.0
 40
0.1614173227999998
 50
116.8340168993925943
 51
287.8732321924136954
  0
ARC
  5
D17A
  8
0
 10
3781.8206690741158127
 20
-339.5170689013012861
 30
0.0
 40
0.1968771884317285
 50
221.6997786968667867
 51
77.534105678074738
  0
ARC
  5
D17B
  8
0
 10
3781.820690675916012
 20
-339.5170853337012886
 30
0.0
 40
0.1614173228000001
 50
252.1273960624997983
 51
44.4796100559676901
  0
ARC
  5
D17C
  8
0
 10
3781.8093970892969082
 20
-335.4125367558681887
 30
0.0
 40
4.7332446380846047
 50
303.2021771674758952
 51
310.9865052698050931
  0
LINE
  5
D17D
  8
0
 10
3783.2729261180161302
 20
-338.200703710907419
 30
0.0
 11
3783.272933466916129
 21
-339.5974883891012723
 31
0.0
  0
ARC
  5
D17E
  8
0
 10
3783.3529567493469585
 20
-339.5969577763386837
 30
0.0
 40
0.0800250415865421
 50
180.3799072643240891
 51
272.7768534038773964
  0
ARC
  5
D17F
  8
0
 10
3783.1474261180160283
 20
-337.2207234825012847
 30
0.0
 40
2.4650760315374258
 50
301.3954508196109146
 51
355.41708669181088
  0
ARC
  5
D180
  8
0
 10
3783.1474261180160283
 20
-337.2207234825012847
 30
0.0
 40
2.4650760315374258
 50
4.8875161864114052
 51
81.1371248454247933
  0
ARC
  5
D181
  8
0
 10
3783.1474261180160283
 20
-337.2207234825012847
 30
0.0
 40
2.4650760315374258
 50
241.3621484317536101
 51
265.1273531631816809
  0
ARC
  5
D182
  8
0
 10
3783.1474261180160283
 20
-337.2207234825012847
 30
0.0
 40
2.4650760315374258
 50
184.8012161486047091
 51
238.6018765317558064
  0
ARC
  5
D183
  8
0
 10
3783.1474261180160283
 20
-337.2207234825012847
 30
0.0
 40
2.4650760315374258
 50
274.8731342089484997
 51
298.6394518712505146
  0
ARC
  5
D184
  8
0
 10
3783.1474261775160812
 20
-337.2207156234013041
 30
0.0
 40
2.8100922754279889
 50
299.3249765690545132
 51
83.1533966819518184
  0
ARC
  5
D185
  8
0
 10
3783.1474261775160812
 20
-337.2207156234013041
 30
0.0
 40
2.8100922754279889
 50
96.846606749746357
 51
240.6750995746037063
  0
LINE
  5
D186
  8
0
 10
3783.0219261180159265
 20
-338.2004490050013032
 30
0.0
 11
3783.0219546014732259
 21
-339.5973378041896922
 31
0.0
  0
ARC
  5
D187
  8
0
 10
3782.942289925958903
 20
-339.5973394286035045
 30
0.0
 40
0.0796646755314154
 50
266.9415659455906962
 51
0.0011682976252307
  0
ARC
  5
D188
  8
0
 10
3783.1474354849619885
 20
-339.4233167517165271
 30
0.0
 40
0.3288562092183197
 50
230.4508167233609868
 51
309.5496705990145756
  0
LINE
  5
D189
  8
0
 10
3784.1271939363250567
 20
-337.0935758507013134
 30
0.0
 11
3785.5262309297659158
 21
-337.0935679911012812
 31
0.0
  0
LINE
  5
D18A
  8
0
 10
3784.1276159406529587
 20
-337.3445758529455247
 30
0.0
 11
3785.527482779015827
 21
-337.3446010492012874
 31
0.0
  0
ARC
  5
D18B
  8
0
 10
3785.5274813885598633
 20
-337.4218527387894824
 30
0.0
 40
0.0772516896007262
 50
353.9071992112066027
 51
89.9989687311169462
  0
ARC
  5
D18C
  8
0
 10
3785.5264504463812045
 20
-337.0162875760083807
 30
0.0
 40
0.0772906779029746
 50
269.5481741587311149
 51
5.6768903813064382
  0
LINE
  5
D18D
  8
0
 10
3782.1673536602161221
 20
-337.3445758507012897
 30
0.0
 11
3780.7690112539157781
 21
-337.3445832424013133
 31
0.0
  0
ARC
  5
D18E
  8
0
 10
3780.7690116669259623
 20
-337.4227152927811062
 30
0.0
 40
0.0781320503808205
 50
90.0003028680197161
 51
183.1787937920458944
  0
LINE
  5
D18F
  8
0
 10
3782.1677284992160821
 20
-337.0935758507013134
 30
0.0
 11
3780.7691774413169696
 21
-337.0935917673691051
 31
0.0
  0
ARC
  5
D190
  8
0
 10
3780.7691765435579327
 20
-337.0147082141833721
 30
0.0
 40
0.0788835531907724
 50
184.1593533679973973
 51
270.0006520733481921
  0
LINE
  5
D191
  8
0
 10
3783.2729261084159589
 20
-336.2409979729013116
 30
0.0
 11
3783.2729297088158091
 21
-335.012504159801324
 31
0.0
  0
LINE
  5
D192
  8
0
 10
3783.0219261180159265
 20
-336.2407432540952072
 30
0.0
 11
3783.0219278273161763
 21
-335.0125036571013197
 31
0.0
  0
LINE
  5
D193
  8
0
 10
3782.2099256921169399
 20
-333.3654340967012786
 30
0.0
 11
3784.0849265439160263
 21
-333.3654340967012786
 31
0.0
  0
LINE
  5
D194
  8
0
 10
3784.0849265439160263
 20
-333.3654340967012786
 30
0.0
 11
3784.0849265439160263
 21
-333.419489554740494
 31
0.0
  0
ARC
  5
D195
  8
0
 10
3783.872394576600982
 20
-333.4133669790783188
 30
0.0
 40
0.2126201379540599
 50
328.568415539463615
 51
358.3498917508970862
  0
ARC
  5
D196
  8
0
 10
3783.8420508260578572
 20
-333.3644245841032898
 30
0.0
 40
0.2653047288293347
 50
279.5846435448852958
 51
322.9580231645645085
  0
LINE
  5
D197
  8
0
 10
3783.8862252502158299
 20
-333.6260258444012834
 30
0.0
 11
3782.4086270226298439
 21
-333.6260255929909135
 31
0.0
  0
ARC
  5
D198
  8
0
 10
3782.4288508048680342
 20
-333.4123524336928881
 30
0.0
 40
0.2189846814526025
 50
181.3364406341929964
 51
207.3519074796319046
  0
ARC
  5
D199
  8
0
 10
3782.4484146293298181
 20
-333.3738409750496885
 30
0.0
 40
0.2553040053994388
 50
213.0204491349321927
 51
261.0342491359658084
  0
LINE
  5
D19A
  8
0
 10
3782.8699098473161939
 20
-334.2538435672012724
 30
0.0
 11
3783.4249424411159453
 21
-334.2538435672012724
 31
0.0
  0
ARC
  5
D19B
  8
0
 10
3783.1474645653261177
 20
-334.5965381563839856
 30
0.0
 40
0.4409462019430533
 50
42.0904747831760986
 51
51.0031032258348915
  0
LINE
  5
D19C
  8
0
 10
3783.3874261180158101
 20
-334.2538435672012724
 30
0.0
 11
3783.3874261180158101
 21
-334.0856116372012821
 31
0.0
  0
LINE
  5
D19D
  8
0
 10
3783.4833921257159091
 20
-334.0556116372013093
 30
0.0
 11
3782.8114601102161032
 21
-334.0556116372013093
 31
0.0
  0
ARC
  5
D19E
  8
0
 10
3783.4834286987279484
 20
-334.0256801322324804
 30
0.0
 40
0.0299315273129461
 50
269.9299908840486069
 51
326.2736612573232833
  0
ARC
  5
D19F
  8
0
 10
3783.4741587138441901
 20
-334.0194916621750281
 30
0.0
 40
0.0410773687531097
 50
326.2736612573232833
 51
33.7263387426766812
  0
ARC
  5
D1A0
  8
0
 10
3783.8933637757918405
 20
-333.6551723766381201
 30
0.0
 40
0.0300079804191627
 50
103.7618965691303998
 51
179.9841717048506098
  0
LINE
  5
D1A1
  8
0
 10
3783.8633560859161662
 20
-333.6551640886012819
 30
0.0
 11
3783.8633563625248826
 21
-333.6695234159702181
 31
0.0
  0
ARC
  5
D1A2
  8
0
 10
3783.8333571149410091
 20
-333.6695239938576947
 30
0.0
 40
0.0299992475905178
 50
271.5278149834538226
 51
0.0011037115626265
  0
LINE
  5
D1A3
  8
0
 10
3783.8341569529611661
 20
-333.6995122504013125
 30
0.0
 11
3782.4606952736749008
 21
-333.6995125766869137
 31
0.0
  0
ARC
  5
D1A4
  8
0
 10
3782.460695266735911
 20
-333.6703030422876282
 30
0.0
 40
0.029209534399313
 50
178.4697027511946033
 51
270.000013611446775
  0
LINE
  5
D1A5
  8
0
 10
3782.4314961501158905
 20
-333.6695229856013043
 30
0.0
 11
3782.431496439914099
 21
-333.6551640886012819
 31
0.0
  0
ARC
  5
D1A6
  8
0
 10
3782.4014991991730312
 20
-333.6551636880735145
 30
0.0
 40
0.0299972407447214
 50
359.999234977838114
 51
76.2541244134642113
  0
ARC
  5
D1A7
  8
0
 10
3783.4174261180160102
 20
-334.0856116372012821
 30
0.0
 40
0.029999999999994
 50
90.0
 51
180.0000000000098055
  0
LINE
  5
D1A8
  8
0
 10
3782.9074261180157919
 20
-334.2538435672012724
 30
0.0
 11
3782.9074261180157919
 21
-334.0856116372012821
 31
0.0
  0
ARC
  5
D1A9
  8
0
 10
3782.8774261180160465
 20
-334.0856116372012821
 30
0.0
 40
0.0299999999999994
 50
0.0
 51
90.0
  0
ARC
  5
D1AA
  8
0
 10
3783.4830951606268172
 20
-334.0136550392140862
 30
0.0
 40
0.0304044753888295
 50
33.9288076651069375
 51
70.6364453397110168
  0
ARC
  5
D1AB
  8
0
 10
3783.5024202195240832
 20
-333.957402517710193
 30
0.0
 40
0.0290765120871501
 50
194.5991876301256127
 51
251.4625828860910985
  0
ARC
  5
D1AC
  8
0
 10
3783.6130622650921396
 20
-333.8893550257612901
 30
0.0
 40
0.1579285319366053
 50
164.8120285035386132
 51
208.5080124619933883
  0
ARC
  5
D1AD
  8
0
 10
3783.607113599027798
 20
-333.9080853956029955
 30
0.0
 40
0.1583170188136628
 50
111.0266611829263041
 51
157.6878117352011088
  0
ARC
  5
D1AE
  8
0
 10
3783.8227363657479145
 20
-334.3391915032884754
 30
0.0
 40
0.6397814111612919
 50
91.0239433138629863
 51
115.2021384582789949
  0
LINE
  5
D1AF
  8
0
 10
3783.4929114818160087
 20
-333.9848733718013136
 30
0.0
 11
3782.8017013953731293
 21
-333.9850048662241875
 31
0.0
  0
ARC
  5
D1B0
  8
0
 10
3783.4796277022760478
 20
-334.0064425414499283
 30
0.0
 40
0.0358966748967339
 50
348.535124871602477
 51
67.7779527865391458
  0
ARC
  5
D1B1
  8
0
 10
3783.5057644299631647
 20
-333.9424668263184799
 30
0.0
 40
0.0332120847561392
 50
198.7309296502484983
 51
247.7779527865392026
  0
ARC
  5
D1B2
  8
0
 10
3783.6452967335981157
 20
-333.8774540033879248
 30
0.0
 40
0.1869843949088267
 50
170.9307075699707923
 51
203.8741534645187983
  0
ARC
  5
D1B3
  8
0
 10
3782.8131861533479423
 20
-334.022435815351173
 30
0.0
 40
0.0332206920505969
 50
186.9167964099877963
 51
267.0217497132363178
  0
ARC
  5
D1B4
  8
0
 10
3782.8267796846598685
 20
-334.0207867738321852
 30
0.0
 40
0.046913881286727
 50
149.0855451470351909
 51
186.9167964099877963
  0
ARC
  5
D1B5
  8
0
 10
3782.8089457233531903
 20
-334.0101072564452807
 30
0.0
 40
0.0261268115676215
 50
106.0976725110081986
 51
149.0855451470351909
  0
ARC
  5
D1B6
  8
0
 10
3782.7916767111842091
 20
-333.9565351580433799
 30
0.0
 40
0.0301830842857578
 50
289.3980614299113086
 51
343.8743301719429155
  0
ARC
  5
D1B7
  8
0
 10
3782.6374733456727881
 20
-333.9062566218537995
 30
0.0
 40
0.1923617249373092
 50
342.2445216688747109
 51
16.2743072490266805
  0
ARC
  5
D1B8
  8
0
 10
3782.636696819853114
 20
-333.9297058172921879
 30
0.0
 40
0.2009189320987054
 50
22.6444018499412216
 51
74.364006775116124
  0
ARC
  5
D1B9
  8
0
 10
3782.4592086216880489
 20
-334.4486733976751793
 30
0.0
 40
0.7491623203248567
 50
71.9889867412378237
 51
89.8853698426069911
  0
ARC
  5
D1BA
  8
0
 10
3783.4524261180081339
 20
-334.3210835641045264
 30
0.0
 40
0.0300000000082039
 50
359.9999999939715281
 51
42.0900327980766775
  0
LINE
  5
D1BB
  8
0
 10
3783.4824261180160647
 20
-334.3210835641012864
 30
0.0
 11
3783.4824065471480026
 21
-334.8111505457007979
 31
0.0
  0
ARC
  5
D1BC
  8
0
 10
3783.4551338695309823
 20
-334.8111494565641237
 30
0.0
 40
0.0272726776384497
 50
315.8001901069151245
 51
359.997711888001902
  0
ARC
  5
D1BD
  8
0
 10
3783.1475085020101687
 20
-334.5347490345877191
 30
0.0
 40
0.4408111841122587
 50
293.1399260097487058
 51
317.9206038466152222
  0
ARC
  5
D1BE
  8
0
 10
3783.1474296927749492
 20
-334.5345583835289176
 30
0.0
 40
0.4410174671902403
 50
246.8681090243134122
 51
293.139607348004688
  0
ARC
  5
D1BF
  8
0
 10
3783.1474261180160283
 20
-334.5345758507012874
 30
0.0
 40
0.4409999999999992
 50
222.0906551089690879
 51
246.8676446034374976
  0
ARC
  5
D1C0
  8
0
 10
3782.8397070278119827
 20
-334.8111710887682761
 30
0.0
 40
0.0272615530889302
 50
179.9124961216350016
 51
224.2109230895322014
  0
LINE
  5
D1C1
  8
0
 10
3782.8124454747239724
 20
-334.8111710887682761
 30
0.0
 11
3782.812426118015992
 21
-334.32108493870129
 31
0.0
  0
ARC
  5
D1C2
  8
0
 10
3782.8424266120860011
 20
-334.321083753785615
 30
0.0
 40
0.0300004940924766
 50
137.9017051935923917
 51
180.0022629850323028
  0
ARC
  5
D1C3
  8
0
 10
3783.1479093899679356
 20
-334.5970891429225276
 30
0.0
 40
0.4417026952226776
 50
129.0045117615264871
 51
137.901990884485997
  0
ARC
  5
D1C4
  8
0
 10
3782.7598786540829678
 20
-334.8435903001496854
 30
0.0
 40
0.0590119123523716
 50
24.0977575890960907
 51
82.4820758411374158
  0
ARC
  5
D1C5
  8
0
 10
3783.3533196452699485
 20
-335.0135993073282066
 30
0.0
 40
0.0804010120587432
 50
112.7845002713643936
 51
179.2196184416278015
  0
ARC
  5
D1C6
  8
0
 10
3782.9431294282480849
 20
-335.0125434281894172
 30
0.0
 40
0.0787984091047125
 50
0.028918294337309
 51
66.8315299780776826
  0
ARC
  5
D1C7
  8
0
 10
3783.5415057705217805
 20
-334.3457999424638274
 30
0.0
 40
0.059079446504838
 50
180.045218549973697
 51
262.1637534152392845
  0
ARC
  5
D1C8
  8
0
 10
3783.5346636579520236
 20
-334.8432493663707987
 30
0.0
 40
0.0586428927256797
 50
97.2914653897381356
 51
155.6968091393748068
  0
ARC
  5
D1C9
  8
0
 10
3783.1474261180160283
 20
-337.2207234825012847
 30
0.0
 40
2.4650760315374258
 50
98.8636230438759469
 51
175.3394322048756067
  0
ARC
  5
D1CA
  8
0
 10
3782.753176680605975
 20
-334.34547747040898
 30
0.0
 40
0.0594286021344202
 50
278.6409950509597024
 51
355.5641174683988197
  0
LINE
  5
D1CC
  8
0
 10
3782.2099256921169399
 20
-333.3654340967012786
 30
0.0
 11
3782.2099256921169399
 21
-333.4174598515846242
 31
0.0
  0
CIRCLE
  5
D1CD
  8
0
 10
3783.1474261093931091
 20
-337.2207234825012847
 30
0.0
 40
0.2833260753542142
  0
CIRCLE
  5
D1CE
  8
0
 10
3783.1473888908790286
 20
-337.2207234825012847
 30
0.0
 40
0.498044350546897
  0
CIRCLE
  5
D1CF
  8
0
 10
3783.1470202968939702
 20
-337.2207234825012847
 30
0.0
 40
0.4820198771675149
  0
ENDSEC
  0
EOF
