  0
SECTION
  2
HEADER
  9
$ACADVER
  1
AC1009
  9
$INSBASE
 10
-3.953727731799999
 20
30.9273572381000008
 30
0.0
  9
$EXTMIN
 10
-17.4570688165063999
 20
20.4408246214353007
 30
-0.0000000349181948
  9
$EXTMAX
 10
9.5478264341113999
 20
30.9402457591119884
 30
0.0000000814935746
  9
$LIMMIN
 10
0.0
 20
0.0
  9
$LIMMAX
 10
22.0
 20
17.0
  9
$ORTHOMODE
 70
     0
  9
$REGENMODE
 70
     1
  9
$FILLMODE
 70
     1
  9
$QTEXTMODE
 70
     0
  9
$MIRRTEXT
 70
     0
  9
$DRAGMODE
 70
     2
  9
$LTSCALE
 40
1.2099999999999991
  9
$OSMODE
 70
  4095
  9
$ATTMODE
 70
     1
  9
$TEXTSIZE
 40
0.2
  9
$TRACEWID
 40
0.05
  9
$TEXTSTYLE
  7
STANDARD
  9
$CLAYER
  8
0
  9
$CELTYPE
  6
BYLAYER
  9
$CECOLOR
 62
   256
  9
$DIMSCALE
 40
1.0
  9
$DIMASZ
 40
0.1875
  9
$DIMEXO
 40
0.0625
  9
$DIMDLI
 40
0.8359999999999999
  9
$DIMRND
 40
0.0
  9
$DIMDLE
 40
0.0
  9
$DIMEXE
 40
0.125
  9
$DIMTP
 40
0.0
  9
$DIMTM
 40
0.0
  9
$DIMTXT
 40
0.15625
  9
$DIMCEN
 40
0.198
  9
$DIMTSZ
 40
0.0
  9
$DIMTOL
 70
     0
  9
$DIMLIM
 70
     0
  9
$DIMTIH
 70
     1
  9
$DIMTOH
 70
     1
  9
$DIMSE1
 70
     0
  9
$DIMSE2
 70
     0
  9
$DIMTAD
 70
     0
  9
$DIMZIN
 70
     0
  9
$DIMBLK
  1

  9
$DIMASO
 70
     1
  9
$DIMSHO
 70
     1
  9
$DIMPOST
  1

  9
$DIMAPOST
  1

  9
$DIMALT
 70
     0
  9
$DIMALTD
 70
     2
  9
$DIMALTF
 40
25.3999999999999986
  9
$DIMLFAC
 40
1.0
  9
$DIMTOFL
 70
     0
  9
$DIMTVP
 40
0.0
  9
$DIMTIX
 70
     0
  9
$DIMSOXD
 70
     0
  9
$DIMSAH
 70
     0
  9
$DIMBLK1
  1

  9
$DIMBLK2
  1

  9
$DIMSTYLE
  2
STANDARD
  9
$DIMCLRD
 70
     0
  9
$DIMCLRE
 70
     0
  9
$DIMCLRT
 70
     0
  9
$DIMTFAC
 40
1.0
  9
$DIMGAP
 40
0.09
  9
$LUNITS
 70
     2
  9
$LUPREC
 70
     4
  9
$SKETCHINC
 40
0.1
  9
$FILLETRAD
 40
0.0
  9
$AUNITS
 70
     0
  9
$AUPREC
 70
     0
  9
$MENU
  1
.
  9
$ELEVATION
 40
0.0
  9
$PELEVATION
 40
0.0
  9
$THICKNESS
 40
0.0
  9
$LIMCHECK
 70
     0
  9
$BLIPMODE
 70
     0
  9
$CHAMFERA
 40
0.0
  9
$CHAMFERB
 40
0.0
  9
$SKPOLY
 70
     0
  9
$TDCREATE
 40
2457564.58648148085922
  9
$TDUPDATE
 40
2459590.8874189821071923
  9
$TDINDWG
 40
0.1006184722
  9
$TDUSRTIMER
 40
0.1006184722
  9
$USRTIMER
 70
     1
  9
$ANGBASE
 50
0.0
  9
$ANGDIR
 70
     0
  9
$PDMODE
 70
     0
  9
$PDSIZE
 40
0.3125
  9
$PLINEWID
 40
0.0
  9
$COORDS
 70
     1
  9
$SPLFRAME
 70
     0
  9
$SPLINETYPE
 70
     6
  9
$SPLINESEGS
 70
     8
  9
$ATTDIA
 70
     1
  9
$ATTREQ
 70
     1
  9
$HANDLING
 70
     1
  9
$HANDSEED
  5
1380
  9
$SURFTAB1
 70
     6
  9
$SURFTAB2
 70
     6
  9
$SURFTYPE
 70
     6
  9
$SURFU
 70
     6
  9
$SURFV
 70
     6
  9
$UCSNAME
  2

  9
$UCSORG
 10
0.0
 20
0.0
 30
0.0
  9
$UCSXDIR
 10
1.0
 20
0.0
 30
0.0
  9
$UCSYDIR
 10
0.0
 20
1.0
 30
0.0
  9
$PUCSNAME
  2

  9
$PUCSORG
 10
0.0
 20
0.0
 30
0.0
  9
$PUCSXDIR
 10
1.0
 20
0.0
 30
0.0
  9
$PUCSYDIR
 10
0.0
 20
1.0
 30
0.0
  9
$USERI1
 70
     0
  9
$USERI2
 70
     0
  9
$USERI3
 70
     0
  9
$USERI4
 70
     0
  9
$USERI5
 70
     0
  9
$USERR1
 40
0.0
  9
$USERR2
 40
0.0
  9
$USERR3
 40
0.0
  9
$USERR4
 40
0.0
  9
$USERR5
 40
0.0
  9
$WORLDVIEW
 70
     1
  9
$SHADEDGE
 70
     3
  9
$SHADEDIF
 70
    70
  9
$TILEMODE
 70
     1
  9
$MAXACTVP
 70
    48
  9
$PLIMCHECK
 70
     0
  9
$PEXTMIN
 10
1.0000000000000000E+20
 20
1.0000000000000000E+20
 30
1.0000000000000000E+20
  9
$PEXTMAX
 10
-1.0000000000000000E+20
 20
-1.0000000000000000E+20
 30
-1.0000000000000000E+20
  9
$PLIMMIN
 10
0.0
 20
0.0
  9
$PLIMMAX
 10
12.0
 20
9.0
  9
$UNITMODE
 70
     0
  9
$VISRETAIN
 70
     1
  9
$PLINEGEN
 70
     0
  9
$PSLTSCALE
 70
     1
  0
ENDSEC
  0
SECTION
  2
TABLES
  0
TABLE
  2
VPORT
 70
     1
  0
VPORT
  2
*ACTIVE
 70
     0
 10
0.0
 20
0.0
 11
1.0
 21
1.0
 12
-0.0008934593975027
 22
-0.0002325887035752
 13
0.0
 23
0.0
 14
1.0
 24
1.0
 15
0.0
 25
0.0
 16
-0.0000000000000169
 26
0.0
 36
76.9573842683678038
 17
-3.9537277317999999
 27
25.6907677789772215
 37
0.0
 40
16.2411396609911804
 41
1.67063492063492
 42
50.0
 43
0.0
 44
0.0
 50
0.0
 51
0.0
 71
     0
 72
   100
 73
     1
 74
     1
 75
     0
 76
     0
 77
     0
 78
     0
  0
ENDTAB
  0
TABLE
  2
LTYPE
 70
     1
  0
LTYPE
  2
CONTINUOUS
 70
     0
  3
Solid line
 72
    65
 73
     0
 40
0.0
  0
ENDTAB
  0
TABLE
  2
LAYER
 70
     2
  0
LAYER
  2
0
 70
     0
 62
     7
  6
CONTINUOUS
  0
LAYER
  2
DEFPOINTS
 70
     0
 62
     7
  6
CONTINUOUS
  0
ENDTAB
  0
TABLE
  2
STYLE
 70
     1
  0
STYLE
  2
STANDARD
 70
     0
 40
0.0
 41
0.8
 50
0.0
 71
     0
 42
0.2
  3
txt
  4

  0
ENDTAB
  0
TABLE
  2
VIEW
 70
     0
  0
ENDTAB
  0
TABLE
  2
UCS
 70
     0
  0
ENDTAB
  0
TABLE
  2
APPID
 70
     5
  0
APPID
  2
ACAD
 70
     0
  0
APPID
  2
ACAD_MLEADERVER
 70
     0
  0
APPID
  2
ACAD_EXEMPT_FROM_CAD_STANDARDS
 70
     0
  0
APPID
  2
ACAD_NAV_VCDISPLAY
 70
     0
  0
APPID
  2
ACDBATTR
 70
     0
  0
ENDTAB
  0
TABLE
  2
DIMSTYLE
 70
     1
  0
DIMSTYLE
  2
STANDARD
 70
     0
  3

  4

  5

  6

  7

 40
1.0
 41
0.1875
 42
0.0625
 43
0.38
 44
0.125
 45
0.0
 46
0.0
 47
1.5
 48
1.5
140
0.15625
141
0.09
142
0.0
143
25.3999999999999986
144
1.0
145
0.0
146
1.0
147
0.09
 71
     0
 72
     0
 73
     1
 74
     1
 75
     0
 76
     0
 77
     0
 78
     4
170
     0
171
     2
172
     0
173
     0
174
     0
175
     0
176
     0
177
     0
178
     0
  0
ENDTAB
  0
ENDSEC
  0
SECTION
  2
BLOCKS
  0
BLOCK
  8
0
  2
$MODEL_SPACE
 70
     0
 10
0.0
 20
0.0
 30
0.0
  3
$MODEL_SPACE
  1

  0
ENDBLK
  5
21
  8
0
  0
BLOCK
 67
     1
  8
0
  2
$PAPER_SPACE
 70
     0
 10
0.0
 20
0.0
 30
0.0
  3
$PAPER_SPACE
  1

  0
ENDBLK
  5
1D
 67
     1
  8
0
  0
ENDSEC
  0
SECTION
  2
ENTITIES
  0
LINE
  5
2E5
  8
0
 10
-17.2331180324000002
 20
21.2652370069999996
 30
0.0
 11
-17.2331180324000002
 21
20.5896235284000007
 31
0.0
  0
LINE
  5
2E9
  8
0
 10
-16.9185768526000011
 20
21.2791459831999994
 30
0.0
 11
-16.9185768526000011
 21
20.5757145522000009
 31
0.0
  0
LINE
  5
2EC
  8
0
 10
-16.8353163869000007
 20
21.2513059171000016
 30
0.0
 11
-16.8353163869000007
 21
20.6035546182999987
 31
0.0
  0
LINE
  5
2ED
  8
0
 10
-16.5757709981000012
 20
21.2449634017613818
 30
0.0
 11
-16.5757709981000012
 21
20.6098971336386292
 31
0.0
  0
LINE
  5
2F0
  8
0
 10
-16.4654797220000013
 20
29.7619924765999997
 30
0.0
 11
-16.4654797220000013
 21
29.7096962267999984
 31
0.0
  0
LINE
  5
2F1
  8
0
 10
-16.4591323189000001
 20
21.2587231884152494
 30
0.0
 11
-16.4591323189000001
 21
20.5961373469847508
 31
0.0
  0
LINE
  5
2F2
  8
0
 10
-16.4458497382999909
 20
29.317194047200001
 30
0.0
 11
-16.4458497382999909
 21
29.4412097953000007
 31
0.0
  0
LINE
  5
2F4
  8
0
 10
-16.2647473650000016
 20
26.6754617638000013
 30
0.0
 11
-16.2647473650000016
 21
26.6199802008999988
 31
0.0
  0
LINE
  5
2F5
  8
0
 10
-16.2568733602999984
 20
28.0337294803000106
 30
0.0
 11
-16.2568733602999984
 21
26.7975090079000005
 31
0.0
  0
LINE
  5
2F6
  8
0
 10
-16.2549048563999996
 20
21.3383220493999985
 30
0.0
 11
-16.2549048563999996
 21
23.0809735748000016
 31
0.0
  0
LINE
  5
2F7
  8
0
 10
-16.2549048563999996
 20
23.8644381416999991
 30
0.0
 11
-16.2549048563999996
 21
25.5396349921000017
 31
0.0
  0
LINE
  5
2F8
  8
0
 10
-16.2549048563999996
 20
26.3230995589999992
 30
0.0
 11
-16.2549048563999996
 21
28.0388475905000014
 31
0.0
  0
LINE
  5
2F9
  8
0
 10
-16.2549048563999996
 20
28.8227058583000009
 30
0.0
 11
-16.2549048563999996
 21
29.317194047200001
 31
0.0
  0
LINE
  5
30F
  8
0
 10
-15.4722313026999991
 20
21.2555012995000006
 30
0.0
 11
-15.4722313911604008
 21
20.5987812447205911
 31
0.0
  0
LINE
  5
312
  8
0
 10
-15.4480050821999999
 20
21.2593286168999995
 30
0.0
 11
-15.4480050821999999
 21
20.5955319185000008
 31
0.0
  0
LINE
  5
318
  8
0
 10
-15.3280946022000002
 20
21.2415504474999999
 30
0.0
 11
-15.3280946022000002
 21
20.6133100879000004
 31
0.0
  0
LINE
  5
31B
  8
0
 10
-14.9513908117999996
 20
21.2632203787000016
 30
0.0
 11
-14.9513908117999996
 21
20.5916401568000005
 31
0.0
  0
LINE
  5
31D
  8
0
 10
-14.8212992603
 20
21.2778239685000017
 30
0.0
 11
-14.8212992603
 21
20.5770365668999986
 31
0.0
  0
LINE
  5
31F
  8
0
 10
-14.6840387146999998
 20
20.5770365668999986
 30
0.0
 11
-14.6840387146999998
 21
21.2778239685000017
 31
0.0
  0
LINE
  5
323
  8
0
 10
-14.96946684120309
 20
23.1774302677000001
 30
0.0
 11
-14.9694718199000008
 21
23.1085403294000002
 31
0.0
  0
LINE
  5
361
  8
0
 10
-14.6840387146999998
 20
20.5770365668999986
 30
0.0
 11
-14.8212992603
 21
20.5770365668999986
 31
0.0
  0
LINE
  5
363
  8
0
 10
-16.8608551533999993
 20
20.5888475904999986
 30
0.0
 11
-16.9000142004000011
 21
20.5888475904999986
 31
0.0
  0
LINE
  5
37E
  8
0
 10
-16.2745898957999984
 20
23.0809735748000016
 30
0.0
 11
-15.6328576123000005
 21
23.0809735748000016
 31
0.0
  0
LINE
  5
382
  8
0
 10
7.0620163565837313
 20
23.1085364033999987
 30
0.0
 11
-14.9694718199000008
 21
23.1085364033999987
 31
0.0
  0
LINE
  5
386
  8
0
 10
-15.6194093970044996
 20
23.1702925056219691
 30
0.0
 11
-16.2880379819000005
 21
23.1702922527999995
 31
0.0
  0
LINE
  5
38A
  8
0
 10
7.7083624114744209
 20
23.1774302677000001
 30
0.0
 11
-15.6158178750744199
 21
23.1774302677000001
 31
0.0
  0
LINE
  5
38B
  8
0
 10
7.6703420905245974
 20
23.6774302677000001
 30
0.0
 11
-15.5777975541246008
 21
23.6774302677000001
 31
0.0
  0
LINE
  5
38C
  8
0
 10
-16.2877677642999998
 20
23.7791082281999984
 30
0.0
 11
-15.6196797436142596
 21
23.7791082281999984
 31
0.0
  0
LINE
  5
393
  8
0
 10
-15.6302896418999993
 20
23.8644381416999991
 30
0.0
 11
-16.2771578661999996
 21
23.8644381416999991
 31
0.0
  0
LINE
  5
3BD
  8
0
 10
-16.2549048563999996
 20
24.9220637499000013
 30
0.0
 11
-16.3489195926000015
 21
24.9220637499000013
 31
0.0
  0
LINE
  5
3BE
  8
0
 10
-16.3431677089911709
 20
24.9509825043000006
 30
0.0
 11
-16.2549048563999996
 21
24.9509825043000006
 31
0.0
  0
LINE
  5
3C2
  8
0
 10
-16.2688266331999998
 20
25.5396349921000017
 30
0.0
 11
-15.6386208749000009
 21
25.5396349921000017
 31
0.0
  0
LINE
  5
3C7
  8
0
 10
-15.6196419881842594
 20
25.6253215143000013
 30
0.0
 11
-16.2878055199000009
 21
25.6253215143000013
 31
0.0
  0
LINE
  5
3CA
  8
0
 10
-16.2879439270000006
 20
26.2352429015999995
 30
0.0
 11
-15.6195035811048601
 21
26.2352429015999995
 31
0.0
  0
LINE
  5
3CF
  8
0
 10
-15.6288633028999993
 20
26.3230995589999992
 30
0.0
 11
-16.2785842052000014
 21
26.3230995589999992
 31
0.0
  0
LINE
  5
40B
  8
0
 10
-16.2549048563999996
 20
26.6754617638000013
 30
0.0
 11
-16.2647473650000016
 21
26.6754617638000013
 31
0.0
  0
LINE
  5
40F
  8
0
 10
-16.2549048563999996
 20
26.7975090079000005
 30
0.0
 11
-16.268684372700001
 21
26.7975090079000005
 31
0.0
  0
LINE
  5
410
  8
0
 10
-16.2772602134000017
 20
28.0337294803000106
 30
0.0
 11
-16.2549048563999996
 21
28.0337294803000106
 31
0.0
  0
LINE
  5
414
  8
0
 10
-16.2657713117
 20
28.0388475905000014
 30
0.0
 11
-15.6416761964000006
 21
28.0388475905000014
 31
0.0
  0
LINE
  5
419
  8
0
 10
-15.61944659511121
 20
28.1256226582000011
 30
0.0
 11
-16.2880009129887817
 21
28.1256226582000011
 31
0.0
  0
LINE
  5
44A
  8
0
 10
-16.2885599222621202
 20
28.7325432855999985
 30
0.0
 11
-15.6188875858378804
 21
28.7325432855999985
 31
0.0
  0
LINE
  5
453
  8
0
 10
-15.6298370322999993
 20
28.8227058583000009
 30
0.0
 11
-16.2776104757999995
 21
28.8227058583000009
 31
0.0
  0
LINE
  5
454
  8
0
 10
-16.4458497382999909
 20
29.317194047200001
 30
0.0
 11
-15.4615977697999991
 21
29.317194047200001
 31
0.0
  0
LINE
  5
457
  8
0
 10
-15.4590115878999992
 20
29.4412097953000007
 30
0.0
 11
-16.4484359202000014
 21
29.4412097953000007
 31
0.0
  0
LINE
  5
463
  8
0
 10
-15.3497062873698997
 20
29.7919924766000008
 30
0.0
 11
-16.5577009384
 21
29.7919924766000008
 31
0.0
  0
LINE
  5
46B
  8
0
 10
-15.4220292602560907
 20
29.6756487026691183
 30
0.0
 11
-16.4851067245111587
 21
29.6758291665446698
 31
0.0
  0
LINE
  5
4A9
  8
0
 10
-17.1057848531189798
 20
30.4858277621000013
 30
0.0
 11
-14.8016626549810297
 21
30.4858277621000013
 31
0.0
  0
LINE
  5
4AF
  8
0
 10
-17.1558837263000008
 20
30.6070276527999994
 30
0.0
 11
-14.7515637817999803
 21
30.60702765280001
 31
0.0
  0
LINE
  5
4B2
  8
0
 10
-14.4527866659999997
 20
30.9273572381000008
 30
0.0
 11
-17.4546608421000009
 21
30.9273572381000008
 31
0.0
  0
ARC
  5
67D
  8
0
 10
-17.0564160531000013
 20
20.5320283239999988
 30
0.0
 40
0.0888500248
 50
270.0
 51
306.5969739207000089
  0
ARC
  5
67E
  8
0
 10
-17.1493419224000014
 20
20.657166973799999
 30
0.0
 40
0.2447182347
 50
306.5969664550999028
 51
340.5586567333000971
  0
ARC
  5
67F
  8
0
 10
-17.0564160531000013
 20
20.623005921299999
 30
0.0
 40
0.1798276221
 50
190.6981864358000109
 51
270.0
  0
ARC
  5
680
  8
0
 10
-16.9000142004000011
 20
20.5691625512000016
 30
0.0
 40
0.0196850394
 50
90.0
 51
160.558656733499987
  0
ARC
  5
681
  8
0
 10
-16.8608551533999993
 20
20.6183751495999985
 30
0.0
 40
0.0295275591
 50
270.0
 51
329.8727602731000275
  0
ARC
  5
683
  8
0
 10
-17.0564160531000013
 20
21.2318546141000013
 30
0.0
 40
0.1798276221
 50
90.0
 51
169.3018135641999891
  0
ARC
  5
687
  8
0
 10
-16.7035982794999995
 20
20.5271166144999988
 30
0.0
 40
0.1522906045
 50
32.9269585453000104
 51
149.8727602728999955
  0
ARC
  5
688
  8
0
 10
-16.4447813499000013
 20
20.5826632805999985
 30
0.0
 40
0.0196850394
 50
59.1666965467999972
 51
136.8050721291000116
  0
ARC
  5
689
  8
0
 10
-16.5123669572000011
 20
20.6461191321999991
 30
0.0
 40
0.073021268
 50
209.7388303276999864
 51
316.8050721290999832
  0
ARC
  5
68D
  8
0
 10
-16.3109802331151812
 20
23.1585767864783101
 30
0.0
 40
0.0257604161033852
 50
320.1364937463233105
 51
27.0535187814059697
  0
ARC
  5
68E
  8
0
 10
-16.3084201807866904
 20
23.7896786860838887
 30
0.0
 40
0.0232003637674682
 50
332.8954218680332247
 51
41.0137295940598392
  0
ARC
  5
68F
  8
0
 10
-16.2615737027689988
 20
23.1173199557919986
 30
0.0
 40
0.0386067441289178
 50
140.1364939664680946
 51
250.2967800484169913
  0
ARC
  5
691
  8
0
 10
-16.2624283835999996
 20
23.8296780981000005
 30
0.0
 40
0.0377520634000003
 50
112.9646822740667034
 51
221.0137292705965137
  0
ARC
  5
695
  8
0
 10
-16.2225530163000009
 20
24.6770053687999997
 30
0.0
 40
0.0540053739
 50
126.8017843112610024
 51
233.1982156889037867
  0
ARC
  5
698
  8
0
 10
-15.3950917881000002
 20
20.6465975989000015
 30
0.0
 40
0.0735358443
 50
223.9820122216999891
 51
328.7963300647999745
  0
ARC
  5
699
  8
0
 10
-15.4621696067999999
 20
20.5818619873000017
 30
0.0
 40
0.0196850394
 50
43.9820122211999873
 51
120.7398571594000032
  0
ARC
  5
69A
  8
0
 10
-15.9528030293
 20
21.4068749672000003
 30
0.0
 40
0.9401938968999999
 50
239.1666965462999883
 51
300.7398571590999836
  0
ARC
  5
69C
  8
0
 10
-15.4450161518000009
 20
20.9274302677000001
 30
0.0
 40
1.8197312242999999
 50
169.3018135641999891
 51
190.6981864358000109
  0
ARC
  5
69F
  8
0
 10
-15.1480870226000004
 20
20.4012086128999997
 30
0.0
 40
0.2781901588
 50
46.7483179040999914
 51
130.3208047013999931
  0
ARC
  5
6A1
  8
0
 10
-15.3153570692999992
 20
20.5983015559999991
 30
0.0
 40
0.0196850394
 50
130.3208047008000108
 51
148.7963300645999993
  0
ARC
  5
6A2
  8
0
 10
-14.9709581842000006
 20
20.5894910373000002
 30
0.0
 40
0.0196850394
 50
6.2677755111999991
 51
46.7483179035999896
  0
ARC
  5
6A3
  8
0
 10
-14.8212992603
 20
20.5573515274999998
 30
0.0
 40
0.0196850394
 50
90.0
 51
149.4916604212999971
  0
ARC
  5
6A4
  8
0
 10
-14.8907867461999999
 20
20.5982964093999996
 30
0.0
 40
0.0609685039
 50
186.2677755112
 51
329.4916604216999758
  0
ARC
  5
6AD
  8
0
 10
-15.6924743489999994
 20
23.4744359648999996
 30
0.0
 40
0.6687297201
 50
152.8965500369000097
 51
207.0524979003999988
  0
ARC
  5
6B3
  8
0
 10
-14.9812819665852697
 20
23.1203975564814996
 30
0.0
 40
0.0118110084894316
 50
269.4539479793215833
 51
0.0481007719121213
  0
ARC
  5
6B4
  8
0
 10
-14.9694522386765794
 20
24.3684526172518687
 30
0.0
 40
1.259922132202858
 50
250.9640746190499954
 51
269.4569084563852925
  0
ARC
  5
6B5
  8
0
 10
-14.9694718207000008
 20
24.3683751496000092
 30
0.0
 40
0.7086613772
 50
195.444493487115011
 51
257.1614460967348919
  0
ARC
  5
6B8
  8
0
 10
-16.8207290986999993
 20
25.3690818028999985
 30
0.0
 40
0.6347219111
 50
318.7982394840000211
 51
333.0563003774303183
  0
ARC
  5
6B9
  8
0
 10
-16.2411253185999911
 20
24.9585572362000008
 30
0.0
 40
0.1138041339
 50
198.7034037489000013
 51
263.0454958737003039
  0
ARC
  5
6BA
  8
0
 10
-16.2355689307000013
 20
26.7374901258000008
 30
0.0
 40
0.0685485141
 50
118.8877352166000065
 51
244.8074845154000059
  0
ARC
  5
6BB
  8
0
 10
-16.2606503109000009
 20
26.2878716284000014
 30
0.0
 40
0.0395301361
 50
116.9798110132999938
 51
219.8299626191000016
  0
ARC
  5
6BC
  8
0
 10
-16.2643879047000013
 20
25.5751512386999984
 30
0.0
 40
0.0357925423
 50
138.4372350095999877
 51
262.8762580317999777
  0
ARC
  5
6BD
  8
0
 10
-16.235219807
 20
26.6199802008999988
 30
0.0
 40
0.0295275591
 50
180.0000008224000112
 51
228.0441401266000128
  0
ARC
  5
6BE
  8
0
 10
-16.3209513484999995
 20
24.9315323301999996
 30
0.0
 40
0.0295275591
 50
138.7982401092000089
 51
198.703403753200007
  0
ARC
  5
6BF
  8
0
 10
-16.3101608920163486
 20
26.2465770838930084
 30
0.0
 40
0.0249410750170273
 50
332.9711941309992085
 51
39.8299626046712092
  0
ARC
  5
6C0
  8
0
 10
-16.3088489463350292
 20
25.6145739584251402
 30
0.0
 40
0.0236291293268973
 50
318.4372348745349086
 51
27.0548651428084206
  0
ARC
  5
6C6
  8
0
 10
-16.2627788721999984
 20
28.0682138035999991
 30
0.0
 40
0.0374015748
 50
175.3698324940964142
 51
247.2205244220000111
  0
ARC
  5
6C7
  8
0
 10
-16.2648486663000007
 20
28.074167322200001
 30
0.0
 40
0.0353317806
 50
138.8983379722999985
 51
268.5036221799999794
  0
ARC
  5
6C8
  8
0
 10
-16.3159257275999998
 20
28.7464704403000013
 30
0.0
 40
0.0307059105
 50
333.0281040534999875
 51
38.8393414824999965
  0
ARC
  5
6C9
  8
0
 10
-16.3105911620000015
 20
28.114073381299999
 30
0.0
 40
0.0253713449999935
 50
318.8983379716988793
 51
27.0774413189118413
  0
ARC
  5
6CA
  8
0
 10
-16.3070886741999992
 20
28.747841188999999
 30
0.0
 40
0.0218688572
 50
333.9853803701000174
 51
358.3561282629406151
  0
ARC
  5
6CB
  8
0
 10
-16.3070886741999992
 20
28.747841188999999
 30
0.0
 40
0.0218688572
 50
19.0739381096000002
 51
41.6182169795999926
  0
ARC
  5
6CC
  8
0
 10
-16.3061752795253412
 20
28.1072304124413712
 30
0.0
 40
0.0209554624603422
 50
8.6770607214702675
 51
26.0320995448788288
  0
ARC
  5
6CD
  8
0
 10
-16.2627788721999984
 20
28.7872064724999994
 30
0.0
 40
0.0374015748
 50
177.7203220206999958
 51
221.618216979500005
  0
ARC
  5
6CE
  8
0
 10
-16.2633575822999994
 20
28.7887957762000006
 30
0.0
 40
0.0367836735
 50
112.7977133138000028
 51
218.8393414829000108
  0
ARC
  5
6CF
  8
0
 10
-15.6904068592999995
 20
25.9304177889999998
 30
0.0
 40
0.6707972097
 50
152.972239266999992
 51
207.0537645477000126
  0
ARC
  5
6D9
  8
0
 10
-15.6505741478000004
 20
28.4274302677000001
 30
0.0
 40
0.7086614173000001
 50
153.9854074046000108
 51
160.6915174209999861
  0
ARC
  5
6DA
  8
0
 10
-15.6505741478000004
 20
28.4274302677000001
 30
0.0
 40
0.7086614173000001
 50
194.211523604372104
 51
206.0311569094000106
  0
ARC
  5
6DB
  8
0
 10
-15.6933384486881895
 20
28.4296309481306793
 30
0.0
 40
0.6678656203119263
 50
153.0281040658740892
 51
207.0774413249303052
  0
ARC
  5
8C1
  8
0
 10
-17.1644021416284609
 20
30.9162122230753518
 30
0.0
 40
0.2904725883096836
 50
177.8011036864803884
 51
244.8976434701226026
  0
ARC
  5
8C2
  8
0
 10
-16.9945538937252607
 20
31.2787605884195017
 30
0.0
 40
0.6908346051513157
 50
244.8976434701224036
 51
256.4950787738837903
  0
ARC
  5
8C3
  8
0
 10
-17.1629591322495401
 20
30.577567613492139
 30
0.0
 40
0.03029777690478
 50
0.4445494725427768
 51
76.4950787738848277
  0
LINE
  5
8C4
  8
0
 10
-17.1326622672999989
 20
30.5778026871000002
 30
0.0
 11
-17.1326619250090602
 21
30.5156614001191215
 31
0.0
  0
ARC
  5
8C5
  8
0
 10
-17.1026626003794604
 20
30.5156644685858112
 30
0.0
 40
0.0299993247865245
 50
180.0058604716224977
 51
264.00393953770282
  0
ARC
  5
8C6
  8
0
 10
-17.3070773583600896
 20
28.951153157150511
 30
0.0
 40
1.5478193743919659
 50
68.7771166059394403
 51
82.5279993637212641
  0
ARC
  5
8C7
  8
0
 10
-16.8938552402361104
 20
30.0420671555191383
 30
0.0
 40
0.3814304256312013
 50
18.8963354593757593
 51
67.3183337370935533
  0
ARC
  5
8C8
  8
0
 10
-16.9630049308631108
 20
30.0565329897532791
 30
0.0
 40
0.4436381572834142
 50
344.0669725614309868
 51
14.2313525333791393
  0
ARC
  5
8C9
  8
0
 10
-16.566861284122961
 20
29.9444916630348601
 30
0.0
 40
0.0319721557575848
 50
280.2071849345447845
 51
342.2571632407793913
  0
ARC
  5
8CA
  8
0
 10
-16.5550570862955411
 20
29.8789338603973711
 30
0.0
 40
0.0346398894970453
 50
100.2071849345400949
 51
128.6714639662394006
  0
ARC
  5
8CB
  8
0
 10
-16.5338162939433388
 20
29.8523939397718614
 30
0.0
 40
0.0686331042105359
 50
128.671463966240907
 51
230.4210423417821119
  0
ARC
  5
8CC
  8
0
 10
-16.5566425987377706
 20
29.8247810355603207
 30
0.0
 40
0.0328069591546733
 50
230.4210423417862046
 51
268.1513052405168764
  0
LINE
  5
8D1
  8
0
 10
-16.5611777388300716
 20
29.9130287315647792
 30
0.0
 11
-15.3465271596849995
 21
29.913076316041689
 31
0.0
  0
ARC
  5
8D2
  8
0
 10
-16.4972955284540284
 20
29.7606591753691987
 30
0.0
 40
0.0318437314473725
 50
2.3996833355975031
 51
79.7275113203214119
  0
ARC
  5
8D3
  8
0
 10
-16.5050853823469197
 20
29.7100281686941194
 30
0.0
 40
0.0396070513537276
 50
300.0024763432227815
 51
359.5198053988241895
  0
LINE
  5
8D4
  8
0
 10
-16.4852803741999985
 20
29.6757283120000004
 30
0.0
 11
-16.5057396049740284
 21
29.663914990569161
 31
0.0
  0
ARC
  5
8D5
  8
0
 10
-16.495253817045171
 20
29.6457548857806685
 30
0.0
 40
0.0209700060662322
 50
120.002476343215406
 51
180.1471002177526088
  0
LINE
  5
8D6
  8
0
 10
-16.5162237539999985
 20
29.6457010477999994
 30
0.0
 11
-16.5162237539999985
 21
29.4894185427000011
 31
0.0
  0
ARC
  5
8D7
  8
0
 10
-16.4930080681374207
 20
29.4906977695696888
 30
0.0
 40
0.0232509030244924
 50
183.1539131315363136
 51
236.8460875953057041
  0
LINE
  5
8D8
  8
0
 10
-16.5057237537881214
 20
29.4712320091199409
 30
0.0
 11
-16.4582916832999899
 21
29.4438470904051108
 31
0.0
  0
ARC
  5
8D9
  8
0
 10
-16.4484491390282095
 20
29.4608948939215409
 30
0.0
 40
0.0196851030598576
 50
240.000024393800004
 51
270.038474938172385
  0
LINE
  5
8E6
  8
0
 10
-15.4419677860999993
 20
29.7619924765999997
 30
0.0
 11
-15.4419677860999993
 21
29.7096962267999984
 31
0.0
  0
LINE
  5
8E7
  8
0
 10
-15.4615977697999991
 20
29.317194047200001
 30
0.0
 11
-15.4615977697999991
 21
29.4412097953000007
 31
0.0
  0
LINE
  5
8E8
  8
0
 10
-15.6525426516999993
 20
28.8227058583000009
 30
0.0
 11
-15.6525426516999993
 21
29.317194047200001
 31
0.0
  0
ARC
  5
8E9
  8
0
 10
-14.7430453664715397
 20
30.9162122230753518
 30
0.0
 40
0.2904725883096836
 50
295.1023565298773974
 51
2.1988963135196271
  0
ARC
  5
8EA
  8
0
 10
-14.9128936143747293
 20
31.2787605884195017
 30
0.0
 40
0.6908346051513157
 50
283.5049212261163234
 51
295.1023565298776248
  0
ARC
  5
8EB
  8
0
 10
-14.7444883758504606
 20
30.577567613492139
 30
0.0
 40
0.03029777690478
 50
103.5049212261150018
 51
179.5554505274571966
  0
LINE
  5
8EC
  8
0
 10
-14.7747852408
 20
30.5778026871000002
 30
0.0
 11
-14.7747855830909405
 21
30.5156614001191215
 31
0.0
  0
ARC
  5
8ED
  8
0
 10
-14.8047849077205296
 20
30.5156644685858112
 30
0.0
 40
0.0299993247865245
 50
275.99606046229718
 51
359.9941395283775023
  0
ARC
  5
8EE
  8
0
 10
-14.6003701497399003
 20
28.951153157150511
 30
0.0
 40
1.5478193743919659
 50
97.4720006362787217
 51
111.2228833940605028
  0
ARC
  5
8EF
  8
0
 10
-15.0135922678638796
 20
30.0420671555191383
 30
0.0
 40
0.3814304256312013
 50
112.681666262906603
 51
161.1036645406242087
  0
ARC
  5
8F0
  8
0
 10
-14.9444425772368898
 20
30.0565329897532791
 30
0.0
 40
0.4436381572834142
 50
165.7686474666207914
 51
195.9330274385690132
  0
ARC
  5
8F1
  8
0
 10
-15.3405862239770308
 20
29.9444916630348601
 30
0.0
 40
0.0319721557575848
 50
197.7428367592206087
 51
259.7928150654551018
  0
ARC
  5
8F2
  8
0
 10
-15.3523904218044507
 20
29.8789338603973711
 30
0.0
 40
0.0346398894970453
 50
51.3285360337606491
 51
79.792815065459834
  0
ARC
  5
8F3
  8
0
 10
-15.3736312141566493
 20
29.8523939397718614
 30
0.0
 40
0.0686331042105359
 50
309.5789576582179166
 51
51.3285360337591001
  0
ARC
  5
8F4
  8
0
 10
-15.3508049093622194
 20
29.8247810355603207
 30
0.0
 40
0.0328069591546733
 50
271.919049366145714
 51
309.5789576582138807
  0
ARC
  5
8F6
  8
0
 10
-15.4101519796459598
 20
29.7606591753691987
 30
0.0
 40
0.0318437314473725
 50
100.2724886796787018
 51
177.6003166644024986
  0
ARC
  5
8F7
  8
0
 10
-15.4023621257530703
 20
29.7100281686941194
 30
0.0
 40
0.0396070513537276
 50
180.4801946011758105
 51
239.9975236567773038
  0
LINE
  5
8F8
  8
0
 10
-15.4221671339000004
 20
29.6757283120000004
 30
0.0
 11
-15.4017079031259598
 21
29.663914990569161
 31
0.0
  0
ARC
  5
8F9
  8
0
 10
-15.4121936910548296
 20
29.6457548857806685
 30
0.0
 40
0.0209700060662322
 50
359.8528997822472775
 51
59.9975236567846011
  0
LINE
  5
8FA
  8
0
 10
-15.3912237541000003
 20
29.6457010477999994
 30
0.0
 11
-15.3912237541000003
 21
29.4894185427000011
 31
0.0
  0
ARC
  5
8FB
  8
0
 10
-15.4144394399625799
 20
29.4906977695696888
 30
0.0
 40
0.0232509030244924
 50
303.1539124046943243
 51
356.8460868684637148
  0
LINE
  5
8FC
  8
0
 10
-15.4017237543118704
 20
29.4712320091199409
 30
0.0
 11
-15.4491558248
 21
29.4438470904051108
 31
0.0
  0
ARC
  5
8FD
  8
0
 10
-15.4589983690717894
 20
29.4608948939215409
 30
0.0
 40
0.0196851030598576
 50
269.9615250618275013
 51
299.999975606199996
  0
ARC
  5
A66
  8
0
 10
-16.4986921090529997
 20
29.6215306281787001
 30
0.0
 40
0.0177786862177888
 50
101.5921098390487032
 51
170.437383700919014
  0
ARC
  5
A67
  8
0
 10
-16.3425321151098188
 20
29.1410944396649789
 30
0.0
 40
0.5228492374134103
 50
72.0878414010139892
 51
107.7884841102700051
  0
ARC
  5
A68
  8
0
 10
-15.9537237595249994
 20
28.6209628803381584
 30
0.0
 40
1.042866978295423
 50
77.3714436635547429
 51
102.6285563364453992
  0
ARC
  5
A69
  8
0
 10
-15.5648225882305091
 20
29.1402574746094203
 30
0.0
 40
0.5236742076353832
 50
72.1680407948058331
 51
107.8936572990991039
  0
ARC
  5
A6A
  8
0
 10
-15.4084438890710107
 20
29.6213194388349592
 30
0.0
 40
0.01790320921468
 50
15.8780341965000193
 51
77.1418638700213535
  0
ARC
  5
A6B
  8
0
 10
-16.4986921090529997
 20
29.5135889624213092
 30
0.0
 40
0.0177786862177888
 50
189.5626162990809007
 51
258.4078901609512968
  0
ARC
  5
A6C
  8
0
 10
-16.3425321151098188
 20
29.9940251509350198
 30
0.0
 40
0.5228492374134103
 50
252.2115158897300091
 51
287.912158598986025
  0
ARC
  5
A6D
  8
0
 10
-15.9537237595249994
 20
30.5141567102618403
 30
0.0
 40
1.042866978295423
 50
257.3714436635544871
 51
282.6285563364452855
  0
ARC
  5
A6E
  8
0
 10
-15.5648225882305091
 20
29.994862115990589
 30
0.0
 40
0.5236742076353832
 50
252.1063427009009956
 51
287.8319592051942095
  0
ARC
  5
A6F
  8
0
 10
-15.4084438890710107
 20
29.5138001517650501
 30
0.0
 40
0.01790320921468
 50
282.8581361299786181
 51
344.1219658034997906
  0
LINE
  5
A70
  8
0
 10
-16.1817253636501306
 20
29.6386007348499803
 30
0.0
 11
-16.1817253636499991
 21
29.4965188557500113
 31
0.0
  0
LINE
  5
A71
  8
0
 10
-15.7257221554001294
 20
29.6386007348499589
 30
0.0
 11
-15.7257221553999997
 21
29.4965188557500113
 31
0.0
  0
LINE
  5
BEA
  8
0
 10
-15.6427001431000008
 20
26.6754617638000013
 30
0.0
 11
-15.6427001431000008
 21
26.6199802008999988
 31
0.0
  0
LINE
  5
BEB
  8
0
 10
-15.6505741478000004
 20
28.0337294803000106
 30
0.0
 11
-15.6505741478000004
 21
26.7975090079000005
 31
0.0
  0
LINE
  5
BEC
  8
0
 10
-15.6525426516999993
 20
21.3389447532424512
 30
0.0
 11
-15.6525426516999993
 21
23.0809735748000016
 31
0.0
  0
LINE
  5
BED
  8
0
 10
-15.6525426516999993
 20
23.8644381416999991
 30
0.0
 11
-15.6525426516999993
 21
25.5396349921000017
 31
0.0
  0
LINE
  5
BEE
  8
0
 10
-15.6525426516999993
 20
26.3230995589999992
 30
0.0
 11
-15.6525426516999993
 21
28.0388475905000014
 31
0.0
  0
LINE
  5
BEF
  8
0
 10
-15.6525426516999993
 20
24.9220637499000013
 30
0.0
 11
-15.5585279154999991
 21
24.9220637499000013
 31
0.0
  0
LINE
  5
BF0
  8
0
 10
-15.5642797991088209
 20
24.9509825043000006
 30
0.0
 11
-15.6525426516999993
 21
24.9509825043000006
 31
0.0
  0
LINE
  5
BF1
  8
0
 10
-15.6525426516999993
 20
26.6754617638000013
 30
0.0
 11
-15.6427001431000008
 21
26.6754617638000013
 31
0.0
  0
LINE
  5
BF2
  8
0
 10
-15.6525426516999993
 20
26.7975090079000005
 30
0.0
 11
-15.6387631353999907
 21
26.7975090079000005
 31
0.0
  0
LINE
  5
BF3
  8
0
 10
-15.6301872947000007
 20
28.0337294803000106
 30
0.0
 11
-15.6525426516999993
 21
28.0337294803000106
 31
0.0
  0
ARC
  5
BF4
  8
0
 10
-15.5964672749848106
 20
23.1585767864783101
 30
0.0
 40
0.0257604161033852
 50
152.9464812185939877
 51
219.8635062536768032
  0
ARC
  5
BF5
  8
0
 10
-15.5990273273132996
 20
23.7896786860838887
 30
0.0
 40
0.0232003637674682
 50
138.9862704059401892
 51
207.104578131966889
  0
ARC
  5
BF6
  8
0
 10
-15.6458738053309894
 20
23.1173199557919986
 30
0.0
 40
0.0386067441289178
 50
289.7032199515829802
 51
39.8635060335319196
  0
ARC
  5
BF7
  8
0
 10
-15.6450191244999992
 20
23.8296780981000005
 30
0.0
 40
0.0377520634000003
 50
318.9862707294035999
 51
67.035317725933254
  0
ARC
  5
BF8
  8
0
 10
-15.6848944917999997
 20
24.6770053687999997
 30
0.0
 40
0.0540053739
 50
306.8017843110961849
 51
53.1982156887390403
  0
ARC
  5
BF9
  8
0
 10
-16.2149731591000013
 20
23.4744359648999996
 30
0.0
 40
0.6687297201
 50
332.9475020996000012
 51
333.6320455911028944
  0
ARC
  5
BFA
  8
0
 10
-15.0867184093999995
 20
25.3690818028999985
 30
0.0
 40
0.6347219111
 50
206.9436996225695964
 51
221.2017605160000926
  0
ARC
  5
BFB
  8
0
 10
-15.6663221895000007
 20
24.9585572362000008
 30
0.0
 40
0.1138041339
 50
276.9545041262995824
 51
341.2965962511000271
  0
ARC
  5
BFC
  8
0
 10
-15.6718785773999993
 20
26.7374901258000008
 30
0.0
 40
0.0685485141
 50
295.1925154846001078
 51
61.1122647833999721
  0
ARC
  5
BFD
  8
0
 10
-15.6467971971999997
 20
26.2878716284000014
 30
0.0
 40
0.0395301361
 50
320.1700373808999984
 51
63.020188986699992
  0
ARC
  5
BFE
  8
0
 10
-15.6430596033999993
 20
25.5751512386999984
 30
0.0
 40
0.0357925423
 50
277.1237419682000223
 51
41.5627649903999625
  0
ARC
  5
BFF
  8
0
 10
-15.6722277011000006
 20
26.6199802008999988
 30
0.0
 40
0.0295275591
 50
311.955859873399902
 51
359.9999991775999888
  0
ARC
  5
C00
  8
0
 10
-15.5864961595999993
 20
24.9315323301999996
 30
0.0
 40
0.0295275591
 50
341.296596246799993
 51
41.2017598908000622
  0
ARC
  5
C01
  8
0
 10
-15.5972866160836503
 20
26.2465770838930084
 30
0.0
 40
0.0249410750170273
 50
140.1700373953287908
 51
207.0288058690007063
  0
ARC
  5
C02
  8
0
 10
-15.5985985617649696
 20
25.6145739584251402
 30
0.0
 40
0.0236291293268973
 50
152.9451348571915901
 51
221.5627651254652051
  0
ARC
  5
C03
  8
0
 10
-15.6446686359000005
 20
28.0682138035999991
 30
0.0
 40
0.0374015748
 50
292.7794755780000173
 51
4.6301675059036089
  0
ARC
  5
C04
  8
0
 10
-15.6425988417999999
 20
28.074167322200001
 30
0.0
 40
0.0353317806
 50
271.4963778200000206
 51
41.1016620277000087
  0
ARC
  5
C05
  8
0
 10
-15.5915217805000008
 20
28.7464704403000013
 30
0.0
 40
0.0307059105
 50
141.1606585174999111
 51
206.9718959465000978
  0
ARC
  5
C06
  8
0
 10
-15.5968563460999992
 20
28.114073381299999
 30
0.0
 40
0.0253713449999935
 50
152.9225586810881907
 51
221.101662028301206
  0
ARC
  5
C07
  8
0
 10
-15.6003588338999997
 20
28.747841188999999
 30
0.0
 40
0.0218688572
 50
181.6438717370594134
 51
206.0146196299000962
  0
ARC
  5
C08
  8
0
 10
-15.6003588338999997
 20
28.747841188999999
 30
0.0
 40
0.0218688572
 50
138.3817830203998938
 51
160.9260618904000069
  0
ARC
  5
C09
  8
0
 10
-15.6012722285746506
 20
28.1072304124413712
 30
0.0
 40
0.0209554624603422
 50
153.9679004551211108
 51
171.3229392785297023
  0
ARC
  5
C0A
  8
0
 10
-15.6446686359000005
 20
28.7872064724999994
 30
0.0
 40
0.0374015748
 50
318.3817830204998813
 51
2.2796779792999962
  0
ARC
  5
C0B
  8
0
 10
-15.6440899257999995
 20
28.7887957762000006
 30
0.0
 40
0.0367836735
 50
321.1606585170998756
 51
67.2022866862000967
  0
ARC
  5
C0C
  8
0
 10
-16.2170406488000012
 20
25.9304177889999998
 30
0.0
 40
0.6707972097
 50
332.9462354523000158
 51
337.8430778392763045
  0
ARC
  5
C0D
  8
0
 10
-16.2568733602999984
 20
28.4274302677000001
 30
0.0
 40
0.7086614173000001
 50
20.6573108381715791
 51
26.0145925954000212
  0
ARC
  5
C0E
  8
0
 10
-16.2568733602999984
 20
28.4274302677000001
 30
0.0
 40
0.7086614173000001
 50
333.9688430906001031
 51
339.3426891618283889
  0
ARC
  5
C0F
  8
0
 10
-16.2141090594118005
 20
28.4296309481306793
 30
0.0
 40
0.6678656203119263
 50
332.9225586750696948
 51
337.813545126322424
  0
LINE
  5
C38
  8
0
 10
-15.5933790964274106
 20
26.1774302677000001
 30
0.0
 11
7.6859236328274099
 21
26.1774302677000108
 31
0.0
  0
LINE
  5
C39
  8
0
 10
-15.5957788596902898
 20
25.6774302677000108
 30
0.0
 11
7.6883233960903086
 21
25.6774302676999611
 31
0.0
  0
LINE
  5
C3A
  8
0
 10
-15.5939155541123604
 20
28.6774302677000001
 30
0.0
 11
7.6863183533660786
 21
28.6774302677000001
 31
0.0
  0
LINE
  5
C3B
  8
0
 10
-15.5956922876591797
 20
28.1774302677000001
 30
0.0
 11
7.6863183533660813
 21
28.1774302677000108
 31
0.0
  0
LINE
  5
C3C
  8
0
 10
-14.6840387146999998
 20
21.1774302677000001
 30
0.0
 11
6.776583251099999
 21
21.1774302677000001
 31
0.0
  0
LINE
  5
C3D
  8
0
 10
-14.6840387146999998
 20
20.6774302677000001
 30
0.0
 11
6.776583251099999
 21
20.6774302677000001
 31
0.0
  0
ARC
  5
C3E
  8
0
 10
-16.2149731591000013
 20
23.4744359648999996
 30
0.0
 40
0.6687297201
 50
17.6710752408856813
 51
27.1034499630999512
  0
ARC
  5
C40
  8
0
 10
-14.9262264391539894
 20
23.3764388370692515
 30
0.0
 40
0.7177330695858961
 50
155.2055576084339918
 51
196.0975632235553974
  0
ARC
  5
C41
  8
0
 10
-16.2170406488000012
 20
25.9304177889999998
 30
0.0
 40
0.6707972097
 50
21.6069411565440888
 51
27.0277607330000187
  0
ARC
  5
C42
  8
0
 10
-16.2141090594118005
 20
28.4296309481306793
 30
0.0
 40
0.6678656203119263
 50
21.779259253366039
 51
26.9718959341259108
  0
ARC
  5
C44
  8
0
 10
-14.9235547737421008
 20
28.4250450059439785
 30
0.0
 40
0.7162973518101744
 50
159.3690612065979053
 51
200.2237431730895878
  0
ARC
  5
C45
  8
0
 10
-14.9198909943045201
 20
25.9241920848253713
 30
0.0
 40
0.7195247049036823
 50
159.3932432430665074
 51
200.0567757527537083
  0
LINE
  5
C46
  8
0
 10
-14.6840387146999998
 20
21.2778239685000017
 30
0.0
 11
-14.8212992603
 21
21.2778239685000017
 31
0.0
  0
LINE
  5
C47
  8
0
 10
-16.8608551533999993
 20
21.2660129449000017
 30
0.0
 11
-16.9000142004000011
 21
21.2660129449000017
 31
0.0
  0
ARC
  5
C48
  8
0
 10
-17.0564160531000013
 20
21.3228322114000015
 30
0.0
 40
0.0888500248
 50
53.4030260793000906
 51
90.0000000000000284
  0
ARC
  5
C49
  8
0
 10
-17.1493419224000014
 20
21.1976935616000013
 30
0.0
 40
0.2447182347
 50
19.4413432667001196
 51
53.4030335449001399
  0
ARC
  5
C4B
  8
0
 10
-16.9000142004000011
 20
21.2856979841999987
 30
0.0
 40
0.0196850394
 50
199.441343266499814
 51
270.0
  0
ARC
  5
C4C
  8
0
 10
-16.8608551533999993
 20
21.2364853857999982
 30
0.0
 40
0.0295275591
 50
30.1272397269000294
 51
90.0000000000000284
  0
ARC
  5
C4D
  8
0
 10
-16.7035982794999995
 20
21.3277439209000015
 30
0.0
 40
0.1522906045
 50
210.1272397271000898
 51
327.0730414546999896
  0
ARC
  5
C4E
  8
0
 10
-16.4447813499000013
 20
21.2721972547999982
 30
0.0
 40
0.0196850394
 50
223.1949278709001021
 51
300.833303453200017
  0
ARC
  5
C4F
  8
0
 10
-16.5123669572000011
 20
21.2087414032000012
 30
0.0
 40
0.073021268
 50
43.1949278709001234
 51
150.2611696723000136
  0
ARC
  5
C50
  8
0
 10
-15.3950917881000002
 20
21.2082629364999988
 30
0.0
 40
0.0735358443
 50
31.2036699352000113
 51
136.0179877783000109
  0
ARC
  5
C51
  8
0
 10
-15.4621696067999999
 20
21.2729985480999986
 30
0.0
 40
0.0196850394
 50
239.2601428405999116
 51
316.0179877788000908
  0
ARC
  5
C52
  8
0
 10
-15.9528030293
 20
20.4479855682
 30
0.0
 40
0.9401938968999999
 50
59.2601428409000732
 51
71.3757716620894342
  0
ARC
  5
C53
  8
0
 10
-15.1480870226000004
 20
21.4536519225000006
 30
0.0
 40
0.2781901588
 50
229.6791952985998932
 51
313.2516820958999801
  0
ARC
  5
C54
  8
0
 10
-15.3153570692999992
 20
21.2565589794000012
 30
0.0
 40
0.0196850394
 50
211.203669935399887
 51
229.6791952991999892
  0
ARC
  5
C55
  8
0
 10
-14.9709581842000006
 20
21.2653694981000001
 30
0.0
 40
0.0196850394
 50
313.2516820964000885
 51
353.7322244888001137
  0
ARC
  5
C56
  8
0
 10
-14.8212992603
 20
21.2975090079000005
 30
0.0
 40
0.0196850394
 50
210.5083395787000029
 51
270.0
  0
ARC
  5
C57
  8
0
 10
-14.8907867461999999
 20
21.2565641260000007
 30
0.0
 40
0.0609685039
 50
30.5083395783001592
 51
173.7322244888001137
  0
ARC
  5
C58
  8
0
 10
-15.9544493824572999
 20
22.0405580195686213
 30
0.0
 40
0.7638120512020157
 50
246.8360763517331122
 51
293.2823848885295774
  0
ARC
  5
C59
  8
0
 10
-15.9528030293
 20
20.4479855682
 30
0.0
 40
0.9401938968999999
 50
108.7426895781738949
 51
120.833303453700097
  0
LINE
  5
C5A
  8
0
 10
9.3256625687999986
 20
21.2652370069999996
 30
0.0
 11
9.3256625687999986
 21
20.5896235284000007
 31
0.0
  0
LINE
  5
C5B
  8
0
 10
9.0111213889999995
 20
21.2791459831999994
 30
0.0
 11
9.0111213889999995
 21
20.5757145522000009
 31
0.0
  0
LINE
  5
C5C
  8
0
 10
8.927860923299999
 20
21.2513059171000016
 30
0.0
 11
8.927860923299999
 21
20.6035546182999987
 31
0.0
  0
LINE
  5
C5D
  8
0
 10
8.668315534499996
 20
21.2449634017613818
 30
0.0
 11
8.668315534499996
 21
20.6098971336386292
 31
0.0
  0
LINE
  5
C5E
  8
0
 10
8.5580242583999997
 20
29.7619924765999997
 30
0.0
 11
8.5580242583999997
 21
29.7096962267999984
 31
0.0
  0
LINE
  5
C5F
  8
0
 10
8.5516768552999984
 20
21.2587231884152494
 30
0.0
 11
8.5516768553000002
 21
20.5961373469847508
 31
0.0
  0
LINE
  5
C60
  8
0
 10
8.5383942746999963
 20
29.317194047200001
 30
0.0
 11
8.5383942746999963
 21
29.4412097953000007
 31
0.0
  0
LINE
  5
C61
  8
0
 10
8.3572919014
 20
26.6754617638000013
 30
0.0
 11
8.3572919014
 21
26.6199802008999988
 31
0.0
  0
LINE
  5
C62
  8
0
 10
8.3494178966999968
 20
28.0337294803000106
 30
0.0
 11
8.3494178966999968
 21
26.7975090079000005
 31
0.0
  0
LINE
  5
C63
  8
0
 10
8.3474493927999962
 20
21.3383220493999985
 30
0.0
 11
8.3474493927999962
 21
23.0809735748000016
 31
0.0
  0
LINE
  5
C64
  8
0
 10
8.3474493927999962
 20
23.8644381416999991
 30
0.0
 11
8.3474493927999962
 21
25.5396349921000017
 31
0.0
  0
LINE
  5
C65
  8
0
 10
8.3474493927999962
 20
26.3230995589999992
 30
0.0
 11
8.3474493927999962
 21
28.0388475905000014
 31
0.0
  0
LINE
  5
C66
  8
0
 10
8.3474493927999962
 20
28.8227058583000009
 30
0.0
 11
8.3474493927999962
 21
29.317194047200001
 31
0.0
  0
LINE
  5
C68
  8
0
 10
7.5405496185999992
 20
21.2593286168999995
 30
0.0
 11
7.5405496185999992
 21
20.5955319185000008
 31
0.0
  0
LINE
  5
C69
  8
0
 10
7.4206391385999986
 20
21.2415504474999999
 30
0.0
 11
7.4206391385999986
 21
20.6133100879000004
 31
0.0
  0
LINE
  5
C6A
  8
0
 10
7.0439353481999998
 20
21.2632203787000016
 30
0.0
 11
7.0439353481999998
 21
20.5916401568000005
 31
0.0
  0
LINE
  5
C6B
  8
0
 10
6.9138437966999993
 20
21.2778239685000017
 30
0.0
 11
6.9138437966999993
 21
20.5770365668999986
 31
0.0
  0
LINE
  5
C6C
  8
0
 10
6.776583251099999
 20
20.5770365668999986
 30
0.0
 11
6.776583251099999
 21
21.2778239685000017
 31
0.0
  0
LINE
  5
C6D
  8
0
 10
7.0620113776030893
 20
23.1774302677000001
 30
0.0
 11
7.0620163565837322
 21
23.1085364033999987
 31
0.0
  0
LINE
  5
C6E
  8
0
 10
6.776583251099999
 20
20.5770365668999986
 30
0.0
 11
6.9138437966999993
 21
20.5770365668999986
 31
0.0
  0
LINE
  5
C6F
  8
0
 10
8.9533996897999977
 20
20.5888475904999986
 30
0.0
 11
8.9925587367999995
 21
20.5888475904999986
 31
0.0
  0
LINE
  5
C70
  8
0
 10
8.3671344321999968
 20
23.0809735748000016
 30
0.0
 11
7.7254021486999989
 21
23.0809735748000016
 31
0.0
  0
LINE
  5
C71
  8
0
 10
7.7119539334045024
 20
23.1702925056219691
 30
0.0
 11
8.3805825182999971
 21
23.1702922527999995
 31
0.0
  0
LINE
  5
C72
  8
0
 10
8.3803123006999982
 20
23.7791082281999984
 30
0.0
 11
7.7122242800142571
 21
23.7791082281999984
 31
0.0
  0
LINE
  5
C73
  8
0
 10
7.7228341783000003
 20
23.8644381416999991
 30
0.0
 11
8.3697024025999962
 21
23.8644381416999991
 31
0.0
  0
LINE
  5
C74
  8
0
 10
8.3474493927999962
 20
24.9220637499000013
 30
0.0
 11
8.4414641289999999
 21
24.9220637499000013
 31
0.0
  0
LINE
  5
C75
  8
0
 10
8.4357122453911728
 20
24.9509825043000006
 30
0.0
 11
8.3474493927999962
 21
24.9509825043000006
 31
0.0
  0
LINE
  5
C76
  8
0
 10
8.3613711695999982
 20
25.5396349921000017
 30
0.0
 11
7.7311654113000001
 21
25.5396349921000017
 31
0.0
  0
LINE
  5
C77
  8
0
 10
7.712186524584256
 20
25.6253215143000013
 30
0.0
 11
8.3803500562999993
 21
25.6253215143000013
 31
0.0
  0
LINE
  5
C78
  8
0
 10
8.3804884633999972
 20
26.2352429015999995
 30
0.0
 11
7.7120481175048621
 21
26.2352429015999995
 31
0.0
  0
LINE
  5
C79
  8
0
 10
7.7214078392999976
 20
26.3230995589999992
 30
0.0
 11
8.3711287415999998
 21
26.3230995589999992
 31
0.0
  0
LINE
  5
C7A
  8
0
 10
8.3474493927999962
 20
26.6754617638000013
 30
0.0
 11
8.3572919014
 21
26.6754617638000013
 31
0.0
  0
LINE
  5
C7B
  8
0
 10
8.3474493927999962
 20
26.7975090079000005
 30
0.0
 11
8.3612289090999994
 21
26.7975090079000005
 31
0.0
  0
LINE
  5
C7C
  8
0
 10
8.3698047497999966
 20
28.0337294803000106
 30
0.0
 11
8.3474493927999962
 21
28.0337294803000106
 31
0.0
  0
LINE
  5
C7D
  8
0
 10
8.3583158480999984
 20
28.0388475905000014
 30
0.0
 11
7.734220732799999
 21
28.0388475905000014
 31
0.0
  0
LINE
  5
C7E
  8
0
 10
7.7119911315112066
 20
28.1256226582000011
 30
0.0
 11
8.3805454493887837
 21
28.1256226582000011
 31
0.0
  0
LINE
  5
C7F
  8
0
 10
8.3811044586621151
 20
28.7325432855999985
 30
0.0
 11
7.7114321222378841
 21
28.7325432855999985
 31
0.0
  0
LINE
  5
C80
  8
0
 10
7.7223815686999977
 20
28.8227058583000009
 30
0.0
 11
8.3701550121999961
 21
28.8227058583000009
 31
0.0
  0
LINE
  5
C81
  8
0
 10
8.5383942746999963
 20
29.317194047200001
 30
0.0
 11
7.5541423062000002
 21
29.317194047200001
 31
0.0
  0
LINE
  5
C82
  8
0
 10
7.5515561242999976
 20
29.4412097953000007
 30
0.0
 11
8.5409804565999998
 21
29.4412097953000007
 31
0.0
  0
LINE
  5
C83
  8
0
 10
7.4422508237698972
 20
29.7919924766000008
 30
0.0
 11
8.6502454747999984
 21
29.7919924766000008
 31
0.0
  0
LINE
  5
C84
  8
0
 10
7.5145737966560953
 20
29.6756487026691183
 30
0.0
 11
8.577651260911157
 21
29.6758291665446698
 31
0.0
  0
LINE
  5
C85
  8
0
 10
9.1983293895189782
 20
30.4858277621000013
 30
0.0
 11
6.8942071913810317
 21
30.4858277621000013
 31
0.0
  0
LINE
  5
C86
  8
0
 10
9.2484282626999992
 20
30.6070276527999994
 30
0.0
 11
6.8441083181999813
 21
30.60702765280001
 31
0.0
  0
LINE
  5
C87
  8
0
 10
6.5453312023999981
 20
30.9273572381000008
 30
0.0
 11
9.5472053784999993
 21
30.9273572381000008
 31
0.0
  0
ARC
  5
C88
  8
0
 10
9.1489605894999961
 20
20.5320283239999988
 30
0.0
 40
0.0888500248
 50
233.4030260792999059
 51
270.0
  0
ARC
  5
C89
  8
0
 10
9.2418864587999998
 20
20.657166973799999
 30
0.0
 40
0.2447182347
 50
199.4413432666999029
 51
233.4030335449000972
  0
ARC
  5
C8A
  8
0
 10
9.1489605894999961
 20
20.623005921299999
 30
0.0
 40
0.1798276221
 50
270.0
 51
349.3018135642000175
  0
ARC
  5
C8B
  8
0
 10
8.9925587367999995
 20
20.5691625512000016
 30
0.0
 40
0.0196850394
 50
19.4413432664999917
 51
90.0
  0
ARC
  5
C8C
  8
0
 10
8.9533996897999977
 20
20.6183751495999985
 30
0.0
 40
0.0295275591
 50
210.127239726900001
 51
270.0
  0
ARC
  5
C8D
  8
0
 10
9.1489605894999961
 20
21.2318546141000013
 30
0.0
 40
0.1798276221
 50
10.6981864358000198
 51
90.0
  0
ARC
  5
C8E
  8
0
 10
8.7961428158999961
 20
20.5271166144999988
 30
0.0
 40
0.1522906045
 50
30.1272397271000116
 51
147.0730414546999896
  0
ARC
  5
C8F
  8
0
 10
8.5373258862999997
 20
20.5826632805999985
 30
0.0
 40
0.0196850394
 50
43.1949278709000026
 51
120.8333034532000028
  0
ARC
  5
C90
  8
0
 10
8.6049114935999995
 20
20.6461191321999991
 30
0.0
 40
0.073021268
 50
223.1949278708999884
 51
330.2611696722999
  0
ARC
  5
C91
  8
0
 10
8.4035247695151831
 20
23.1585767864783101
 30
0.0
 40
0.0257604161033852
 50
152.9464812185939877
 51
219.8635062536766895
  0
ARC
  5
C92
  8
0
 10
8.4009647171866924
 20
23.7896786860838887
 30
0.0
 40
0.0232003637674682
 50
138.986270405940104
 51
207.1045781319668038
  0
ARC
  5
C93
  8
0
 10
8.3541182391690043
 20
23.1173199557919986
 30
0.0
 40
0.0386067441289178
 50
289.7032199515829802
 51
39.863506033531948
  0
ARC
  5
C94
  8
0
 10
8.354972919999998
 20
23.8296780981000005
 30
0.0
 40
0.0377520634000003
 50
318.9862707294034863
 51
67.0353177259333251
  0
ARC
  5
C95
  8
0
 10
8.3150975526999993
 20
24.6770053687999997
 30
0.0
 40
0.0540053739
 50
306.8017843110961849
 51
53.1982156887389905
  0
ARC
  5
C96
  8
0
 10
7.4876363244999986
 20
20.6465975989000015
 30
0.0
 40
0.0735358443
 50
211.2036699352001108
 51
316.0179877782999824
  0
ARC
  5
C97
  8
0
 10
7.5547141431999991
 20
20.5818619873000017
 30
0.0
 40
0.0196850394
 50
59.260142840600011
 51
136.0179877788000056
  0
ARC
  5
C98
  8
0
 10
8.0453475656999984
 20
21.4068749672000003
 30
0.0
 40
0.9401938968999999
 50
239.2601428409001016
 51
300.8333034537000117
  0
ARC
  5
C99
  8
0
 10
7.5375606882000001
 20
20.9274302677000001
 30
0.0
 40
1.8197312242999999
 50
349.3018135642000175
 51
10.6981864358000198
  0
ARC
  5
C9A
  8
0
 10
7.2406315589999988
 20
20.4012086128999997
 30
0.0
 40
0.2781901588
 50
49.6791952986000283
 51
133.2516820959000086
  0
ARC
  5
C9B
  8
0
 10
7.4079016057000002
 20
20.5983015559999991
 30
0.0
 40
0.0196850394
 50
31.2036699354000113
 51
49.6791952992000034
  0
ARC
  5
C9C
  8
0
 10
7.063502720599999
 20
20.5894910373000002
 30
0.0
 40
0.0196850394
 50
133.2516820963998896
 51
173.7322244888
  0
ARC
  5
C9D
  8
0
 10
6.9138437966999993
 20
20.5573515274999998
 30
0.0
 40
0.0196850394
 50
30.50833957870001
 51
90.0
  0
ARC
  5
C9E
  8
0
 10
6.9833312825999974
 20
20.5982964093999996
 30
0.0
 40
0.0609685039
 50
210.5083395782999958
 51
353.7322244888001137
  0
ARC
  5
C9F
  8
0
 10
7.7850188854000004
 20
23.4744359648999996
 30
0.0
 40
0.6687297201
 50
332.9475020996000012
 51
27.1034499630999903
  0
ARC
  5
CA0
  8
0
 10
7.0738265029852716
 20
23.1203975564814996
 30
0.0
 40
0.0118110084894316
 50
179.9518992280877967
 51
270.5460520206784167
  0
ARC
  5
CA1
  8
0
 10
7.0619967750765831
 20
24.3684526172518687
 30
0.0
 40
1.259922132202858
 50
270.5430915436147075
 51
289.0359253809500046
  0
ARC
  5
CA2
  8
0
 10
7.0620163570999983
 20
24.3683751496000092
 30
0.0
 40
0.7086613772
 50
282.8385539032651081
 51
344.5555065128850174
  0
ARC
  5
CA3
  8
0
 10
8.9132736350999977
 20
25.3690818028999985
 30
0.0
 40
0.6347219111
 50
206.9436996225697101
 51
221.2017605160000073
  0
ARC
  5
CA4
  8
0
 10
8.3336698549999966
 20
24.9585572362000008
 30
0.0
 40
0.1138041339
 50
276.9545041262996961
 51
341.2965962511000271
  0
ARC
  5
CA5
  8
0
 10
8.3281134670999961
 20
26.7374901258000008
 30
0.0
 40
0.0685485141
 50
295.1925154845999941
 51
61.1122647834000006
  0
ARC
  5
CA6
  8
0
 10
8.3531948472999993
 20
26.2878716284000014
 30
0.0
 40
0.0395301361
 50
320.1700373808999984
 51
63.0201889867000205
  0
ARC
  5
CA7
  8
0
 10
8.3569324410999997
 20
25.5751512386999984
 30
0.0
 40
0.0357925423
 50
277.1237419682000223
 51
41.5627649904000265
  0
ARC
  5
CA8
  8
0
 10
8.3277643433999984
 20
26.6199802008999988
 30
0.0
 40
0.0295275591
 50
311.9558598734000157
 51
359.9999991775999888
  0
ARC
  5
CA9
  8
0
 10
8.4134958848999961
 20
24.9315323301999996
 30
0.0
 40
0.0295275591
 50
341.296596246799993
 51
41.2017598908000195
  0
ARC
  5
CAA
  8
0
 10
8.4027054284163452
 20
26.2465770838930084
 30
0.0
 40
0.0249410750170273
 50
140.1700373953287055
 51
207.0288058690007915
  0
ARC
  5
CAB
  8
0
 10
8.4013934827350276
 20
25.6145739584251402
 30
0.0
 40
0.0236291293268973
 50
152.9451348571915901
 51
221.5627651254650914
  0
ARC
  5
CAC
  8
0
 10
8.3553234086000003
 20
28.0682138035999991
 30
0.0
 40
0.0374015748
 50
292.7794755780000173
 51
4.6301675059036054
  0
ARC
  5
CAD
  8
0
 10
8.3573932026999991
 20
28.074167322200001
 30
0.0
 40
0.0353317806
 50
271.4963778200000206
 51
41.1016620277000087
  0
ARC
  5
CAE
  8
0
 10
8.4084702639999982
 20
28.7464704403000013
 30
0.0
 40
0.0307059105
 50
141.1606585174999964
 51
206.9718959465000125
  0
ARC
  5
CAF
  8
0
 10
8.4031356983999963
 20
28.114073381299999
 30
0.0
 40
0.0253713449999935
 50
152.9225586810881055
 51
221.1016620283010923
  0
ARC
  5
CB0
  8
0
 10
8.3996332105999976
 20
28.747841188999999
 30
0.0
 40
0.0218688572
 50
181.6438717370594134
 51
206.0146196299000962
  0
ARC
  5
CB1
  8
0
 10
8.3996332105999976
 20
28.747841188999999
 30
0.0
 40
0.0218688572
 50
138.3817830204000074
 51
160.9260618904000069
  0
ARC
  5
CB2
  8
0
 10
8.3987198159253431
 20
28.1072304124413712
 30
0.0
 40
0.0209554624603422
 50
153.9679004551211108
 51
171.3229392785297023
  0
ARC
  5
CB3
  8
0
 10
8.3553234086000003
 20
28.7872064724999994
 30
0.0
 40
0.0374015748
 50
318.381783020499995
 51
2.2796779793000002
  0
ARC
  5
CB4
  8
0
 10
8.3559021186999978
 20
28.7887957762000006
 30
0.0
 40
0.0367836735
 50
321.1606585170998756
 51
67.2022866862000541
  0
ARC
  5
CB5
  8
0
 10
7.7829513956999996
 20
25.9304177889999998
 30
0.0
 40
0.6707972097
 50
332.9462354523000158
 51
27.0277607329999903
  0
ARC
  5
CB6
  8
0
 10
7.7431186841999988
 20
28.4274302677000001
 30
0.0
 40
0.7086614173000001
 50
19.308482578999989
 51
26.0145925954000212
  0
ARC
  5
CB7
  8
0
 10
7.7431186841999988
 20
28.4274302677000001
 30
0.0
 40
0.7086614173000001
 50
333.9688430905999894
 51
345.7884763956279244
  0
ARC
  5
CB8
  8
0
 10
7.7858829850881923
 20
28.4296309481306793
 30
0.0
 40
0.6678656203119263
 50
332.9225586750696948
 51
26.9718959341258895
  0
ARC
  5
CB9
  8
0
 10
9.2569466780284593
 20
30.9162122230753518
 30
0.0
 40
0.2904725883096836
 50
295.1023565298773974
 51
2.1988963135196231
  0
ARC
  5
CBA
  8
0
 10
9.0870984301252591
 20
31.2787605884195017
 30
0.0
 40
0.6908346051513157
 50
283.5049212261162097
 51
295.1023565298775111
  0
ARC
  5
CBB
  8
0
 10
9.2555036686495349
 20
30.577567613492139
 30
0.0
 40
0.03029777690478
 50
103.5049212261152007
 51
179.5554505274571966
  0
LINE
  5
CBC
  8
0
 10
9.2252068036999972
 20
30.5778026871000002
 30
0.0
 11
9.2252064614090585
 21
30.5156614001191215
 31
0.0
  0
ARC
  5
CBD
  8
0
 10
9.1952071367794623
 20
30.5156644685858112
 30
0.0
 40
0.0299993247865245
 50
275.99606046229718
 51
359.9941395283775023
  0
ARC
  5
CBE
  8
0
 10
9.3996218947600916
 20
28.951153157150511
 30
0.0
 40
1.5478193743919659
 50
97.4720006362787501
 51
111.2228833940605028
  0
ARC
  5
CBF
  8
0
 10
8.9863997766361123
 20
30.0420671555191383
 30
0.0
 40
0.3814304256312013
 50
112.6816662629064041
 51
161.1036645406242087
  0
ARC
  5
CC0
  8
0
 10
9.0555494672631092
 20
30.0565329897532791
 30
0.0
 40
0.4436381572834142
 50
165.7686474666207914
 51
195.9330274385690132
  0
ARC
  5
CC1
  8
0
 10
8.6594058205229612
 20
29.9444916630348601
 30
0.0
 40
0.0319721557575848
 50
197.7428367592206087
 51
259.7928150654552155
  0
ARC
  5
CC2
  8
0
 10
8.6476016226955412
 20
29.8789338603973711
 30
0.0
 40
0.0346398894970453
 50
51.3285360337606065
 51
79.792815065459834
  0
ARC
  5
CC3
  8
0
 10
8.6263608303433443
 20
29.8523939397718614
 30
0.0
 40
0.0686331042105359
 50
309.5789576582179734
 51
51.3285360337591001
  0
ARC
  5
CC4
  8
0
 10
8.6491871351377725
 20
29.8247810355603207
 30
0.0
 40
0.0328069591546733
 50
271.8486947594830099
 51
309.5789576582138238
  0
LINE
  5
CC5
  8
0
 10
8.6537222752300682
 20
29.9130287315647792
 30
0.0
 11
7.4390716960850041
 21
29.913076316041689
 31
0.0
  0
ARC
  5
CC6
  8
0
 10
8.5898400648540303
 20
29.7606591753691987
 30
0.0
 40
0.0318437314473725
 50
100.2724886796786024
 51
177.6003166644024986
  0
ARC
  5
CC7
  8
0
 10
8.5976299187469216
 20
29.7100281686941194
 30
0.0
 40
0.0396070513537276
 50
180.4801946011758105
 51
239.9975236567771901
  0
LINE
  5
CC8
  8
0
 10
8.5778249106000004
 20
29.6757283120000004
 30
0.0
 11
8.5982841413740303
 21
29.663914990569161
 31
0.0
  0
ARC
  5
CC9
  8
0
 10
8.5877983534451694
 20
29.6457548857806685
 30
0.0
 40
0.0209700060662322
 50
359.8528997822472775
 51
59.9975236567846011
  0
LINE
  5
CCA
  8
0
 10
8.6087682904000005
 20
29.6457010477999994
 30
0.0
 11
8.6087682904000005
 21
29.4894185427000011
 31
0.0
  0
ARC
  5
CCB
  8
0
 10
8.5855526045374155
 20
29.4906977695696888
 30
0.0
 40
0.0232509030244924
 50
303.1539124046943243
 51
356.8460868684637148
  0
LINE
  5
CCC
  8
0
 10
8.5982682901881233
 20
29.4712320091199409
 30
0.0
 11
8.5508362196999954
 21
29.4438470904051108
 31
0.0
  0
ARC
  5
CCD
  8
0
 10
8.5409936754282079
 20
29.4608948939215409
 30
0.0
 40
0.0196851030598576
 50
269.961525061827615
 51
299.999975606199996
  0
LINE
  5
CCE
  8
0
 10
7.5345123224999959
 20
29.7619924765999997
 30
0.0
 11
7.5345123224999959
 21
29.7096962267999984
 31
0.0
  0
LINE
  5
CCF
  8
0
 10
7.5541423062000002
 20
29.317194047200001
 30
0.0
 11
7.5541423062000002
 21
29.4412097953000007
 31
0.0
  0
LINE
  5
CD0
  8
0
 10
7.7450871880999976
 20
28.8227058583000009
 30
0.0
 11
7.7450871880999976
 21
29.317194047200001
 31
0.0
  0
ARC
  5
CD1
  8
0
 10
6.8355899028715372
 20
30.9162122230753518
 30
0.0
 40
0.2904725883096836
 50
177.8011036864803884
 51
244.8976434701226026
  0
ARC
  5
CD2
  8
0
 10
7.0054381507747374
 20
31.2787605884195017
 30
0.0
 40
0.6908346051513157
 50
244.8976434701224036
 51
256.4950787738836766
  0
ARC
  5
CD3
  8
0
 10
6.8370329122504607
 20
30.577567613492139
 30
0.0
 40
0.03029777690478
 50
0.4445494725427722
 51
76.4950787738849414
  0
LINE
  5
CD4
  8
0
 10
6.8673297771999993
 20
30.5778026871000002
 30
0.0
 11
6.8673301194909371
 21
30.5156614001191215
 31
0.0
  0
ARC
  5
CD5
  8
0
 10
6.8973294441205342
 20
30.5156644685858112
 30
0.0
 40
0.0299993247865245
 50
180.0058604716224977
 51
264.00393953770282
  0
ARC
  5
CD6
  8
0
 10
6.692914686139904
 20
28.951153157150511
 30
0.0
 40
1.5478193743919659
 50
68.777116605939483
 51
82.5279993637212925
  0
ARC
  5
CD7
  8
0
 10
7.1061368042638842
 20
30.0420671555191383
 30
0.0
 40
0.3814304256312013
 50
18.8963354593757416
 51
67.318333737093397
  0
ARC
  5
CD8
  8
0
 10
7.0369871136368873
 20
30.0565329897532791
 30
0.0
 40
0.4436381572834142
 50
344.0669725614309868
 51
14.2313525333791908
  0
ARC
  5
CD9
  8
0
 10
7.4331307603770327
 20
29.9444916630348601
 30
0.0
 40
0.0319721557575848
 50
280.2071849345448982
 51
342.2571632407793913
  0
ARC
  5
CDA
  8
0
 10
7.4449349582044526
 20
29.8789338603973711
 30
0.0
 40
0.0346398894970453
 50
100.2071849345401944
 51
128.6714639662394006
  0
ARC
  5
CDB
  8
0
 10
7.4661757505566522
 20
29.8523939397718614
 30
0.0
 40
0.0686331042105359
 50
128.671463966240907
 51
230.4210423417821119
  0
ARC
  5
CDC
  8
0
 10
7.443349445762224
 20
29.8247810355603207
 30
0.0
 40
0.0328069591546733
 50
230.4210423417860909
 51
268.080950633854286
  0
ARC
  5
CDD
  8
0
 10
7.5026965160459662
 20
29.7606591753691987
 30
0.0
 40
0.0318437314473725
 50
2.3996833355975009
 51
79.7275113203212697
  0
ARC
  5
CDE
  8
0
 10
7.494906662153074
 20
29.7100281686941194
 30
0.0
 40
0.0396070513537276
 50
300.0024763432227246
 51
359.5198053988241895
  0
LINE
  5
CDF
  8
0
 10
7.5147116702999961
 20
29.6757283120000004
 30
0.0
 11
7.4942524395259662
 21
29.663914990569161
 31
0.0
  0
ARC
  5
CE0
  8
0
 10
7.5047382274548271
 20
29.6457548857806685
 30
0.0
 40
0.0209700060662322
 50
120.002476343215406
 51
180.1471002177526941
  0
LINE
  5
CE1
  8
0
 10
7.483768290499996
 20
29.6457010477999994
 30
0.0
 11
7.483768290499996
 21
29.4894185427000011
 31
0.0
  0
ARC
  5
CE2
  8
0
 10
7.5069839763625801
 20
29.4906977695696888
 30
0.0
 40
0.0232509030244924
 50
183.1539131315363136
 51
236.8460875953057041
  0
LINE
  5
CE3
  8
0
 10
7.4942682907118732
 20
29.4712320091199409
 30
0.0
 11
7.5417003612000011
 21
29.4438470904051108
 31
0.0
  0
ARC
  5
CE4
  8
0
 10
7.5515429054717877
 20
29.4608948939215409
 30
0.0
 40
0.0196851030598576
 50
240.000024393800004
 51
270.0384749381726124
  0
ARC
  5
CE5
  8
0
 10
8.591236645452998
 20
29.6215306281787001
 30
0.0
 40
0.0177786862177888
 50
9.5626162990810037
 51
78.407890160951311
  0
ARC
  5
CE6
  8
0
 10
8.4350766515098208
 20
29.1410944396649789
 30
0.0
 40
0.5228492374134103
 50
72.2115158897299949
 51
107.9121585989859966
  0
ARC
  5
CE7
  8
0
 10
8.046268295924996
 20
28.6209628803381584
 30
0.0
 40
1.042866978295423
 50
77.3714436635545724
 51
102.6285563364452003
  0
ARC
  5
CE8
  8
0
 10
7.6573671246305146
 20
29.1402574746094203
 30
0.0
 40
0.5236742076353832
 50
72.1063427009009246
 51
107.8319592051941953
  0
ARC
  5
CE9
  8
0
 10
7.5009884254710082
 20
29.6213194388349592
 30
0.0
 40
0.01790320921468
 50
102.8581361299786039
 51
164.1219658034999043
  0
ARC
  5
CEA
  8
0
 10
8.591236645452998
 20
29.5135889624213092
 30
0.0
 40
0.0177786862177888
 50
281.5921098390487032
 51
350.4373837009190993
  0
ARC
  5
CEB
  8
0
 10
8.4350766515098208
 20
29.9940251509350198
 30
0.0
 40
0.5228492374134103
 50
252.0878414010140887
 51
287.7884841102700193
  0
ARC
  5
CEC
  8
0
 10
8.046268295924996
 20
30.5141567102618403
 30
0.0
 40
1.042866978295423
 50
257.3714436635547145
 51
282.6285563364455129
  0
ARC
  5
CED
  8
0
 10
7.6573671246305146
 20
29.994862115990589
 30
0.0
 40
0.5236742076353832
 50
252.1680407948057905
 51
287.8936572990991181
  0
ARC
  5
CEE
  8
0
 10
7.5009884254710082
 20
29.5138001517650501
 30
0.0
 40
0.01790320921468
 50
195.8780341965002094
 51
257.1418638700213819
  0
LINE
  5
CEF
  8
0
 10
8.2742699000501272
 20
29.6386007348499803
 30
0.0
 11
8.2742699000499975
 21
29.4965188557500113
 31
0.0
  0
LINE
  5
CF0
  8
0
 10
7.8182666918001278
 20
29.6386007348499589
 30
0.0
 11
7.818266691799999
 21
29.4965188557500113
 31
0.0
  0
LINE
  5
CF1
  8
0
 10
7.7352446794999956
 20
26.6754617638000013
 30
0.0
 11
7.7352446794999956
 21
26.6199802008999988
 31
0.0
  0
LINE
  5
CF2
  8
0
 10
7.7431186841999988
 20
28.0337294803000106
 30
0.0
 11
7.7431186841999988
 21
26.7975090079000005
 31
0.0
  0
LINE
  5
CF3
  8
0
 10
7.7450871880999976
 20
21.3389447532424512
 30
0.0
 11
7.7450871880999976
 21
23.0809735748000016
 31
0.0
  0
LINE
  5
CF4
  8
0
 10
7.7450871880999976
 20
23.8644381416999991
 30
0.0
 11
7.7450871880999976
 21
25.5396349921000017
 31
0.0
  0
LINE
  5
CF5
  8
0
 10
7.7450871880999976
 20
26.3230995589999992
 30
0.0
 11
7.7450871880999976
 21
28.0388475905000014
 31
0.0
  0
LINE
  5
CF6
  8
0
 10
7.7450871880999976
 20
24.9220637499000013
 30
0.0
 11
7.6510724518999957
 21
24.9220637499000013
 31
0.0
  0
LINE
  5
CF7
  8
0
 10
7.6568243355088228
 20
24.9509825043000006
 30
0.0
 11
7.7450871880999976
 21
24.9509825043000006
 31
0.0
  0
LINE
  5
CF8
  8
0
 10
7.7450871880999976
 20
26.6754617638000013
 30
0.0
 11
7.7352446794999956
 21
26.6754617638000013
 31
0.0
  0
LINE
  5
CF9
  8
0
 10
7.7450871880999976
 20
26.7975090079000005
 30
0.0
 11
7.7313076717999971
 21
26.7975090079000005
 31
0.0
  0
LINE
  5
CFA
  8
0
 10
7.7227318310999991
 20
28.0337294803000106
 30
0.0
 11
7.7450871880999976
 21
28.0337294803000106
 31
0.0
  0
ARC
  5
CFB
  8
0
 10
7.6890118113848134
 20
23.1585767864783101
 30
0.0
 40
0.0257604161033852
 50
320.1364937463233105
 51
27.0535187814059199
  0
ARC
  5
CFC
  8
0
 10
7.6915718637133041
 20
23.7896786860838887
 30
0.0
 40
0.0232003637674682
 50
332.8954218680332247
 51
41.0137295940597184
  0
ARC
  5
CFD
  8
0
 10
7.7384183417309922
 20
23.1173199557919986
 30
0.0
 40
0.0386067441289178
 50
140.1364939664680946
 51
250.2967800484169061
  0
ARC
  5
CFE
  8
0
 10
7.7375636608999976
 20
23.8296780981000005
 30
0.0
 40
0.0377520634000003
 50
112.9646822740667034
 51
221.0137292705964001
  0
ARC
  5
CFF
  8
0
 10
7.7774390281999972
 20
24.6770053687999997
 30
0.0
 40
0.0540053739
 50
126.8017843112609029
 51
233.1982156889039004
  0
ARC
  5
D00
  8
0
 10
8.3075176954999961
 20
23.4744359648999996
 30
0.0
 40
0.6687297201
 50
206.3679544088971056
 51
207.0524979003999988
  0
ARC
  5
D01
  8
0
 10
8.3075176954999961
 20
23.4744359648999996
 30
0.0
 40
0.6687297201
 50
152.8965500369000097
 51
162.328924759114301
  0
ARC
  5
D02
  8
0
 10
7.1792629457999979
 20
25.3690818028999985
 30
0.0
 40
0.6347219111
 50
318.7982394839999074
 51
333.0563003774303752
  0
ARC
  5
D03
  8
0
 10
7.758866725899999
 20
24.9585572362000008
 30
0.0
 40
0.1138041339
 50
198.7034037489000013
 51
263.0454958737004176
  0
ARC
  5
D04
  8
0
 10
7.7644231138000004
 20
26.7374901258000008
 30
0.0
 40
0.0685485141
 50
118.8877352166000065
 51
244.8074845154000059
  0
ARC
  5
D05
  8
0
 10
7.7393417335999972
 20
26.2878716284000014
 30
0.0
 40
0.0395301361
 50
116.9798110132998943
 51
219.8299626190998879
  0
ARC
  5
D06
  8
0
 10
7.7356041397999959
 20
25.5751512386999984
 30
0.0
 40
0.0357925423
 50
138.4372350095999877
 51
262.8762580317999777
  0
ARC
  5
D07
  8
0
 10
7.7647722374999981
 20
26.6199802008999988
 30
0.0
 40
0.0295275591
 50
180.0000008224000112
 51
228.044140126600098
  0
ARC
  5
D08
  8
0
 10
7.6790406959999977
 20
24.9315323301999996
 30
0.0
 40
0.0295275591
 50
138.7982401091998952
 51
198.703403753200007
  0
ARC
  5
D09
  8
0
 10
7.6898311524836487
 20
26.2465770838930084
 30
0.0
 40
0.0249410750170273
 50
332.9711941309993222
 51
39.8299626046711381
  0
ARC
  5
D0A
  8
0
 10
7.691143098164968
 20
25.6145739584251402
 30
0.0
 40
0.0236291293268973
 50
318.4372348745349086
 51
27.0548651428083708
  0
ARC
  5
D0B
  8
0
 10
7.7372131722999962
 20
28.0682138035999991
 30
0.0
 40
0.0374015748
 50
175.3698324940964142
 51
247.2205244220000111
  0
ARC
  5
D0C
  8
0
 10
7.7351433781999974
 20
28.074167322200001
 30
0.0
 40
0.0353317806
 50
138.8983379722999985
 51
268.5036221799999794
  0
ARC
  5
D0D
  8
0
 10
7.6840663168999983
 20
28.7464704403000013
 30
0.0
 40
0.0307059105
 50
333.0281040534998738
 51
38.8393414825000818
  0
ARC
  5
D0E
  8
0
 10
7.6894008825000002
 20
28.114073381299999
 30
0.0
 40
0.0253713449999935
 50
318.8983379716988225
 51
27.0774413189117915
  0
ARC
  5
D0F
  8
0
 10
7.692903370299998
 20
28.747841188999999
 30
0.0
 40
0.0218688572
 50
333.9853803701000174
 51
358.3561282629406151
  0
ARC
  5
D10
  8
0
 10
7.692903370299998
 20
28.747841188999999
 30
0.0
 40
0.0218688572
 50
19.0739381095999505
 51
41.6182169796000991
  0
ARC
  5
D11
  8
0
 10
7.6938167649746534
 20
28.1072304124413712
 30
0.0
 40
0.0209554624603422
 50
8.6770607214702906
 51
26.0320995448788288
  0
ARC
  5
D12
  8
0
 10
7.7372131722999962
 20
28.7872064724999994
 30
0.0
 40
0.0374015748
 50
177.7203220206999958
 51
221.6182169795000902
  0
ARC
  5
D13
  8
0
 10
7.7366344621999978
 20
28.7887957762000006
 30
0.0
 40
0.0367836735
 50
112.7977133137999033
 51
218.8393414829000108
  0
ARC
  5
D14
  8
0
 10
8.309585185199996
 20
25.9304177889999998
 30
0.0
 40
0.6707972097
 50
202.1569221607236955
 51
207.0537645477000979
  0
ARC
  5
D15
  8
0
 10
8.309585185199996
 20
25.9304177889999998
 30
0.0
 40
0.6707972097
 50
152.972239266999992
 51
158.3930588434558899
  0
ARC
  5
D16
  8
0
 10
8.3494178966999968
 20
28.4274302677000001
 30
0.0
 40
0.7086614173000001
 50
153.9854074045998971
 51
159.3426891618283889
  0
ARC
  5
D17
  8
0
 10
8.3494178966999968
 20
28.4274302677000001
 30
0.0
 40
0.7086614173000001
 50
200.6573108381716111
 51
206.0311569093998969
  0
ARC
  5
D18
  8
0
 10
8.3066535958118024
 20
28.4296309481306793
 30
0.0
 40
0.6678656203119263
 50
202.1864548736776044
 51
207.0774413249303052
  0
ARC
  5
D19
  8
0
 10
8.3066535958118024
 20
28.4296309481306793
 30
0.0
 40
0.6678656203119263
 50
153.0281040658740039
 51
158.2207407466339077
  0
ARC
  5
D1A
  8
0
 10
7.0187709755539878
 20
23.3764388370692515
 30
0.0
 40
0.7177330695858961
 50
343.9024367764445742
 51
24.7944423915660117
  0
ARC
  5
D1B
  8
0
 10
7.0160993101421054
 20
28.4250450059439785
 30
0.0
 40
0.7162973518101744
 50
339.7762568269102985
 51
20.6309387934021089
  0
ARC
  5
D1C
  8
0
 10
7.0124355307045239
 20
25.9241920848253713
 30
0.0
 40
0.7195247049036823
 50
339.9432242472462917
 51
20.6067567569334393
  0
LINE
  5
D1D
  8
0
 10
6.776583251099999
 20
21.2778239685000017
 30
0.0
 11
6.9138437966999993
 21
21.2778239685000017
 31
0.0
  0
LINE
  5
D1E
  8
0
 10
8.9533996897999977
 20
21.2660129449000017
 30
0.0
 11
8.9925587367999995
 21
21.2660129449000017
 31
0.0
  0
ARC
  5
D1F
  8
0
 10
9.1489605894999961
 20
21.3228322114000015
 30
0.0
 40
0.0888500248
 50
90.0
 51
126.5969739206997957
  0
ARC
  5
D20
  8
0
 10
9.2418864587999998
 20
21.1976935616000013
 30
0.0
 40
0.2447182347
 50
126.5969664550999028
 51
160.5586567332998982
  0
ARC
  5
D21
  8
0
 10
8.9925587367999995
 20
21.2856979841999987
 30
0.0
 40
0.0196850394
 50
270.0
 51
340.5586567335000723
  0
ARC
  5
D22
  8
0
 10
8.9533996897999977
 20
21.2364853857999982
 30
0.0
 40
0.0295275591
 50
90.0
 51
149.872760273099999
  0
ARC
  5
D23
  8
0
 10
8.7961428158999961
 20
21.3277439209000015
 30
0.0
 40
0.1522906045
 50
212.9269585453000104
 51
329.8727602728999955
  0
ARC
  5
D24
  8
0
 10
8.5373258862999997
 20
21.2721972547999982
 30
0.0
 40
0.0196850394
 50
239.1666965468000114
 51
316.8050721290999263
  0
ARC
  5
D25
  8
0
 10
8.6049114935999995
 20
21.2087414032000012
 30
0.0
 40
0.073021268
 50
29.7388303277000112
 51
136.8050721290998126
  0
ARC
  5
D26
  8
0
 10
7.4876363244999986
 20
21.2082629364999988
 30
0.0
 40
0.0735358443
 50
43.9820122217000105
 51
148.7963300647998892
  0
ARC
  5
D27
  8
0
 10
7.5547141431999991
 20
21.2729985480999986
 30
0.0
 40
0.0196850394
 50
223.9820122211999092
 51
300.7398571594000032
  0
ARC
  5
D28
  8
0
 10
8.0453475656999984
 20
20.4479855682
 30
0.0
 40
0.9401938968999999
 50
108.6242283379104947
 51
120.7398571590998984
  0
ARC
  5
D29
  8
0
 10
8.0453475656999984
 20
20.4479855682
 30
0.0
 40
0.9401938968999999
 50
59.1666965462999102
 51
71.2573104218260767
  0
ARC
  5
D2A
  8
0
 10
7.2406315589999988
 20
21.4536519225000006
 30
0.0
 40
0.2781901588
 50
226.7483179040999914
 51
310.3208047014001068
  0
ARC
  5
D2B
  8
0
 10
7.4079016057000002
 20
21.2565589794000012
 30
0.0
 40
0.0196850394
 50
310.3208047008000108
 51
328.7963300645999993
  0
ARC
  5
D2C
  8
0
 10
7.063502720599999
 20
21.2653694981000001
 30
0.0
 40
0.0196850394
 50
186.2677755111998863
 51
226.7483179035999115
  0
ARC
  5
D2D
  8
0
 10
6.9138437966999993
 20
21.2975090079000005
 30
0.0
 40
0.0196850394
 50
270.0
 51
329.4916604213000255
  0
ARC
  5
D2E
  8
0
 10
6.9833312825999974
 20
21.2565641260000007
 30
0.0
 40
0.0609685039
 50
6.267775511199897
 51
149.4916604216998053
  0
ARC
  5
D2F
  8
0
 10
8.0469939188573001
 20
22.0405580195686213
 30
0.0
 40
0.7638120512020157
 50
246.7176151114705078
 51
293.1639236482669162
  0
ATTDEF
  5
10D1
  8
DEFPOINTS
 10
-3.9587277157097081
 20
30.9373572587544388
 30
0.0
 40
0.001
  1
K-72575
  3

  2
MODELNUMBER
 70
     0
1001
ACDBATTR
1070
     0
1070
     1
  0
ATTDEF
  5
10D2
  8
DEFPOINTS
 10
-3.9587277157097081
 20
30.9356905920877701
 30
0.0
 40
0.001
  1
ARTIFACTS
  3

  2
TRADENAME
 70
     0
1001
ACDBATTR
1070
     0
1070
     1
  0
ATTDEF
  5
10D3
  8
DEFPOINTS
 10
-3.9587277157097081
 20
30.9340239254211085
 30
0.0
 40
0.001
  1
HOTELIER
  3

  2
PRODUCT
 70
     0
1001
ACDBATTR
1070
     0
1070
     1
  0
ENDSEC
  0
EOF
