  0
SECTION
  2
HEADER
  9
$ACADVER
  1
AC1009
  9
$INSBASE
 10
-3.9537277317999999
 20
13.3052524204000004
 30
0.0
  9
$EXTMIN
 10
-17.4565961076474814
 20
7.3404846672672832
 30
-0.0000000000112498
  9
$EXTMAX
 10
9.5474951883012267
 20
14.8072967899582508
 30
0.0000000000002956
  9
$LIMMIN
 10
0.0
 20
0.0
  9
$LIMMAX
 10
22.0
 20
17.0
  9
$ORTHOMODE
 70
     0
  9
$REGENMODE
 70
     1
  9
$FILLMODE
 70
     1
  9
$QTEXTMODE
 70
     0
  9
$MIRRTEXT
 70
     0
  9
$DRAGMODE
 70
     2
  9
$LTSCALE
 40
1.2099999999999991
  9
$OSMODE
 70
  4095
  9
$ATTMODE
 70
     1
  9
$TEXTSIZE
 40
0.2
  9
$TRACEWID
 40
0.05
  9
$TEXTSTYLE
  7
STANDARD
  9
$CLAYER
  8
0
  9
$CELTYPE
  6
BYLAYER
  9
$CECOLOR
 62
   256
  9
$DIMSCALE
 40
1.0
  9
$DIMASZ
 40
0.1875
  9
$DIMEXO
 40
0.0625
  9
$DIMDLI
 40
0.8359999999999999
  9
$DIMRND
 40
0.0
  9
$DIMDLE
 40
0.0
  9
$DIMEXE
 40
0.125
  9
$DIMTP
 40
0.0
  9
$DIMTM
 40
0.0
  9
$DIMTXT
 40
0.15625
  9
$DIMCEN
 40
0.198
  9
$DIMTSZ
 40
0.0
  9
$DIMTOL
 70
     0
  9
$DIMLIM
 70
     0
  9
$DIMTIH
 70
     1
  9
$DIMTOH
 70
     1
  9
$DIMSE1
 70
     0
  9
$DIMSE2
 70
     0
  9
$DIMTAD
 70
     0
  9
$DIMZIN
 70
     0
  9
$DIMBLK
  1

  9
$DIMASO
 70
     1
  9
$DIMSHO
 70
     1
  9
$DIMPOST
  1

  9
$DIMAPOST
  1

  9
$DIMALT
 70
     0
  9
$DIMALTD
 70
     2
  9
$DIMALTF
 40
25.3999999999999986
  9
$DIMLFAC
 40
1.0
  9
$DIMTOFL
 70
     0
  9
$DIMTVP
 40
0.0
  9
$DIMTIX
 70
     0
  9
$DIMSOXD
 70
     0
  9
$DIMSAH
 70
     0
  9
$DIMBLK1
  1

  9
$DIMBLK2
  1

  9
$DIMSTYLE
  2
STANDARD
  9
$DIMCLRD
 70
     0
  9
$DIMCLRE
 70
     0
  9
$DIMCLRT
 70
     0
  9
$DIMTFAC
 40
1.0
  9
$DIMGAP
 40
0.09
  9
$LUNITS
 70
     2
  9
$LUPREC
 70
     4
  9
$SKETCHINC
 40
0.1
  9
$FILLETRAD
 40
0.0
  9
$AUNITS
 70
     0
  9
$AUPREC
 70
     0
  9
$MENU
  1
.
  9
$ELEVATION
 40
0.0
  9
$PELEVATION
 40
0.0
  9
$THICKNESS
 40
0.0
  9
$LIMCHECK
 70
     0
  9
$BLIPMODE
 70
     0
  9
$CHAMFERA
 40
0.0
  9
$CHAMFERB
 40
0.0
  9
$SKPOLY
 70
     0
  9
$TDCREATE
 40
2457564.58648148085922
  9
$TDUPDATE
 40
2459590.8880439819768071
  9
$TDINDWG
 40
0.1018716435
  9
$TDUSRTIMER
 40
0.1018716435
  9
$USRTIMER
 70
     1
  9
$ANGBASE
 50
0.0
  9
$ANGDIR
 70
     0
  9
$PDMODE
 70
     0
  9
$PDSIZE
 40
0.3125
  9
$PLINEWID
 40
0.0
  9
$COORDS
 70
     1
  9
$SPLFRAME
 70
     0
  9
$SPLINETYPE
 70
     6
  9
$SPLINESEGS
 70
     8
  9
$ATTDIA
 70
     1
  9
$ATTREQ
 70
     1
  9
$HANDLING
 70
     1
  9
$HANDSEED
  5
12F0
  9
$SURFTAB1
 70
     6
  9
$SURFTAB2
 70
     6
  9
$SURFTYPE
 70
     6
  9
$SURFU
 70
     6
  9
$SURFV
 70
     6
  9
$UCSNAME
  2

  9
$UCSORG
 10
0.0
 20
0.0
 30
0.0
  9
$UCSXDIR
 10
1.0
 20
0.0
 30
0.0
  9
$UCSYDIR
 10
0.0
 20
1.0
 30
0.0
  9
$PUCSNAME
  2

  9
$PUCSORG
 10
0.0
 20
0.0
 30
0.0
  9
$PUCSXDIR
 10
1.0
 20
0.0
 30
0.0
  9
$PUCSYDIR
 10
0.0
 20
1.0
 30
0.0
  9
$USERI1
 70
     0
  9
$USERI2
 70
     0
  9
$USERI3
 70
     0
  9
$USERI4
 70
     0
  9
$USERI5
 70
     0
  9
$USERR1
 40
0.0
  9
$USERR2
 40
0.0
  9
$USERR3
 40
0.0
  9
$USERR4
 40
0.0
  9
$USERR5
 40
0.0
  9
$WORLDVIEW
 70
     1
  9
$SHADEDGE
 70
     3
  9
$SHADEDIF
 70
    70
  9
$TILEMODE
 70
     1
  9
$MAXACTVP
 70
    48
  9
$PLIMCHECK
 70
     0
  9
$PEXTMIN
 10
1.0000000000000000E+20
 20
1.0000000000000000E+20
 30
1.0000000000000000E+20
  9
$PEXTMAX
 10
-1.0000000000000000E+20
 20
-1.0000000000000000E+20
 30
-1.0000000000000000E+20
  9
$PLIMMIN
 10
0.0
 20
0.0
  9
$PLIMMAX
 10
12.0
 20
9.0
  9
$UNITMODE
 70
     0
  9
$VISRETAIN
 70
     1
  9
$PLINEGEN
 70
     0
  9
$PSLTSCALE
 70
     1
  0
ENDSEC
  0
SECTION
  2
TABLES
  0
TABLE
  2
VPORT
 70
     1
  0
VPORT
  2
*ACTIVE
 70
     0
 10
0.0
 20
0.0
 11
1.0
 21
1.0
 12
-7.7367567513231306
 22
-8.0601305774372332
 13
0.0
 23
0.0
 14
1.0
 24
1.0
 15
0.0
 25
0.0
 16
-0.0000000000000289
 26
0.0
 36
129.0603594487805879
 17
3.7822062916500019
 27
19.1340213060499984
 37
0.0
 40
16.2406561508741909
 41
1.67063492063492
 42
50.0
 43
0.0
 44
0.0
 50
0.0
 51
0.0
 71
     0
 72
   100
 73
     1
 74
     1
 75
     0
 76
     0
 77
     0
 78
     0
  0
ENDTAB
  0
TABLE
  2
LTYPE
 70
     1
  0
LTYPE
  2
CONTINUOUS
 70
     0
  3
Solid line
 72
    65
 73
     0
 40
0.0
  0
ENDTAB
  0
TABLE
  2
LAYER
 70
     2
  0
LAYER
  2
0
 70
     0
 62
     7
  6
CONTINUOUS
  0
LAYER
  2
DEFPOINTS
 70
     0
 62
     7
  6
CONTINUOUS
  0
ENDTAB
  0
TABLE
  2
STYLE
 70
     1
  0
STYLE
  2
STANDARD
 70
     0
 40
0.0
 41
0.8
 50
0.0
 71
     0
 42
0.2
  3
txt
  4

  0
ENDTAB
  0
TABLE
  2
VIEW
 70
     0
  0
ENDTAB
  0
TABLE
  2
UCS
 70
     0
  0
ENDTAB
  0
TABLE
  2
APPID
 70
     5
  0
APPID
  2
ACAD
 70
     0
  0
APPID
  2
ACAD_MLEADERVER
 70
     0
  0
APPID
  2
ACAD_EXEMPT_FROM_CAD_STANDARDS
 70
     0
  0
APPID
  2
ACAD_NAV_VCDISPLAY
 70
     0
  0
APPID
  2
ACDBATTR
 70
     0
  0
ENDTAB
  0
TABLE
  2
DIMSTYLE
 70
     1
  0
DIMSTYLE
  2
STANDARD
 70
     0
  3

  4

  5

  6

  7

 40
1.0
 41
0.1875
 42
0.0625
 43
0.38
 44
0.125
 45
0.0
 46
0.0
 47
1.5
 48
1.5
140
0.15625
141
0.09
142
0.0
143
25.3999999999999986
144
1.0
145
0.0
146
1.0
147
0.09
 71
     0
 72
     0
 73
     1
 74
     1
 75
     0
 76
     0
 77
     0
 78
     4
170
     0
171
     2
172
     0
173
     0
174
     0
175
     0
176
     0
177
     0
178
     0
  0
ENDTAB
  0
ENDSEC
  0
SECTION
  2
BLOCKS
  0
BLOCK
  8
0
  2
$MODEL_SPACE
 70
     0
 10
0.0
 20
0.0
 30
0.0
  3
$MODEL_SPACE
  1

  0
ENDBLK
  5
21
  8
0
  0
BLOCK
 67
     1
  8
0
  2
$PAPER_SPACE
 70
     0
 10
0.0
 20
0.0
 30
0.0
  3
$PAPER_SPACE
  1

  0
ENDBLK
  5
1D
 67
     1
  8
0
  0
ENDSEC
  0
SECTION
  2
ENTITIES
  0
LINE
  5
270
  8
0
 10
7.804494320599999
 20
13.8589656237999996
 30
0.0
 11
7.598610413941473
 21
13.65308171714147
 31
0.0
  0
LINE
  5
277
  8
0
 10
7.073764838284113
 20
8.5808446293999996
 30
0.0
 11
8.046276240900001
 21
8.5808429715999992
 31
0.0
  0
LINE
  5
286
  8
0
 10
7.0620177307000001
 20
8.0294017164999971
 30
0.0
 11
7.0620307433000002
 21
8.5805828186999982
 31
0.0
  0
LINE
  5
299
  8
0
 10
7.7962762459999997
 20
12.8786466545000007
 30
0.0
 11
7.7962762459999988
 21
8.6133346534209014
 31
0.0
  0
LINE
  5
29B
  8
0
 10
8.2962762459999997
 20
12.8791509126000001
 30
0.0
 11
8.2962762459999997
 21
8.6133346534209014
 31
0.0
  0
LINE
  5
2D2
  8
0
 10
8.2668449678999991
 20
13.8677524204000004
 30
0.0
 11
7.8257075239999994
 21
13.8677524204000004
 31
0.0
  0
LINE
  5
2DB
  8
0
 10
8.4961316057436331
 20
13.6508921894563606
 30
0.0
 11
8.2880583103000003
 21
13.8589654849000006
 31
0.0
  0
ARC
  5
633
  8
0
 10
7.0737648409
 20
8.5690336292999998
 30
0.0
 40
0.0118110001
 50
90.0000126898000019
 51
173.4684192316067026
  0
ARC
  5
63A
  8
0
 10
8.0462762459999997
 20
8.3052524204000004
 30
0.0
 40
0.5078740157000001
 50
212.9297362600999861
 51
60.5115524304619896
  0
ARC
  5
63C
  8
0
 10
8.0462762459999997
 20
8.3052524204000004
 30
0.0
 40
0.4703294885
 50
122.1097185693755023
 51
144.1296223487412931
  0
ARC
  5
63E
  8
0
 10
8.0462762459999997
 20
8.3052524204000004
 30
0.0
 40
0.4055118110000001
 50
132.8458388573999969
 51
137.041212049100011
  0
ARC
  5
63F
  8
0
 10
8.0462762459999997
 20
8.3052524204000004
 30
0.0
 40
0.4055118110000001
 50
222.9587879464000082
 51
47.1539047168999872
  0
ARC
  5
640
  8
0
 10
8.0462762459999997
 20
8.3052524204000004
 30
0.0
 40
0.3967551667
 50
224.0734061836000137
 51
136.0036656350679891
  0
ARC
  5
642
  8
0
 10
8.0462762459999997
 20
8.3052524204000004
 30
0.0
 40
0.3228346457
 50
238.7941201806000038
 51
121.3880521608267031
  0
ARC
  5
644
  8
0
 10
8.046276240900001
 20
8.3052524204000004
 30
0.0
 40
0.2755905512
 50
270.0
 51
90.0
  0
ARC
  5
660
  8
0
 10
8.0462762459999997
 20
13.3052524204000004
 30
0.0
 40
0.4921259843
 50
60.6848690364776218
 51
119.0950701029042023
  0
ARC
  5
66B
  8
0
 10
7.8257075239999994
 20
13.8377524203999993
 30
0.0
 40
0.03
 50
89.9999999997999964
 51
135.0
  0
ARC
  5
676
  8
0
 10
8.2668449678999991
 20
13.8377524203999993
 30
0.0
 40
0.03
 50
44.9996246539999873
 51
90.0
  0
ARC
  5
F56
  8
0
 10
8.0462763804163675
 20
13.30525255451637
 30
0.0
 40
1.500936953883635
 50
279.5880174078125151
 51
170.4119825805732944
  0
ARC
  5
F57
  8
0
 10
8.0462835487056594
 20
13.30533666635821
 30
0.0
 40
1.178854267464406
 50
282.2433426590289969
 51
335.9512398856292066
  0
ARC
  5
F58
  8
0
 10
8.0466400691499533
 20
13.3050550159140997
 30
0.0
 40
0.6487371288051001
 50
292.6315283645719205
 51
327.0547764142821734
  0
LINE
  5
F91
  8
0
 10
9.3256705242999995
 20
13.6430584899999996
 30
0.0
 11
9.3256705242999995
 21
12.9674450114000006
 31
0.0
  0
LINE
  5
F92
  8
0
 10
9.0111293445000005
 20
13.6569674661999994
 30
0.0
 11
9.0111293445000005
 21
12.9535360352000009
 31
0.0
  0
LINE
  5
F93
  8
0
 10
8.9278688788
 20
13.6291274000999998
 30
0.0
 11
8.9278688788
 21
12.9813761013000004
 31
0.0
  0
LINE
  5
F94
  8
0
 10
8.668323489999997
 20
13.6227848847613799
 30
0.0
 11
8.668323489999997
 21
12.9877186166386291
 31
0.0
  0
LINE
  5
F95
  8
0
 10
8.5516848107999994
 20
13.6365446714152494
 30
0.0
 11
8.5516848108000012
 21
12.9739588299847508
 31
0.0
  0
LINE
  5
F96
  8
0
 10
7.5647837945999976
 20
13.6333227825000005
 30
0.0
 11
7.5647838830604046
 21
12.9766027277205893
 31
0.0
  0
LINE
  5
F97
  8
0
 10
7.540557574100001
 20
13.6371500998999995
 30
0.0
 11
7.540557574100001
 21
12.9733534015000007
 31
0.0
  0
LINE
  5
F98
  8
0
 10
7.4206470940999987
 20
13.6193719304999998
 30
0.0
 11
7.4206470940999987
 21
12.9911315709000004
 31
0.0
  0
LINE
  5
F99
  8
0
 10
7.0439433037000017
 20
13.6410418616999998
 30
0.0
 11
7.0439433037000017
 21
12.9694616398000004
 31
0.0
  0
LINE
  5
F9A
  8
0
 10
6.9138517522000011
 20
13.6556454514999999
 30
0.0
 11
6.9138517522000011
 21
12.9548580499000003
 31
0.0
  0
LINE
  5
F9B
  8
0
 10
6.7765912066
 20
12.9548580499000003
 30
0.0
 11
6.7765912066
 21
13.6556454514999999
 31
0.0
  0
LINE
  5
F9C
  8
0
 10
6.7765912066
 20
12.9548580499000003
 30
0.0
 11
6.9138517522000011
 21
12.9548580499000003
 31
0.0
  0
LINE
  5
F9D
  8
0
 10
8.9534076452999987
 20
12.9666690735000003
 30
0.0
 11
8.9925666923000005
 21
12.9666690735000003
 31
0.0
  0
ARC
  5
F9E
  8
0
 10
9.1489685449999971
 20
12.9098498070000005
 30
0.0
 40
0.0888500248
 50
233.4030260792999059
 51
270.0
  0
ARC
  5
F9F
  8
0
 10
9.2418944143000008
 20
13.0349884568000007
 30
0.0
 40
0.2447182347
 50
199.4413432666999029
 51
233.403033544900012
  0
ARC
  5
FA0
  8
0
 10
9.1489685449999971
 20
13.0008274043000007
 30
0.0
 40
0.1798276221
 50
270.0
 51
349.3018135641999038
  0
ARC
  5
FA1
  8
0
 10
8.9925666923000005
 20
12.9469840341999998
 30
0.0
 40
0.0196850394
 50
19.4413432665000592
 51
90.0
  0
ARC
  5
FA2
  8
0
 10
8.9534076452999987
 20
12.9961966326000002
 30
0.0
 40
0.0295275591
 50
210.127239726900001
 51
270.0
  0
ARC
  5
FA3
  8
0
 10
9.1489685449999971
 20
13.6096760970999995
 30
0.0
 40
0.1798276221
 50
10.6981864358001193
 51
90.0
  0
ARC
  5
FA4
  8
0
 10
8.7961507713999971
 20
12.9049380975000005
 30
0.0
 40
0.1522906045
 50
30.1272397271000791
 51
147.0730414546999896
  0
ARC
  5
FA5
  8
0
 10
8.5373338418000007
 20
12.9604847636000002
 30
0.0
 40
0.0196850394
 50
43.1949278708999032
 51
120.8333034531999033
  0
ARC
  5
FA6
  8
0
 10
8.6049194491000005
 20
13.0239406152000008
 30
0.0
 40
0.073021268
 50
223.1949278708999032
 51
330.2611696722999
  0
ARC
  5
FA7
  8
0
 10
7.4876442799999987
 20
13.0244190818999996
 30
0.0
 40
0.0735358443
 50
211.2036699351999971
 51
316.0179877782999824
  0
ARC
  5
FA8
  8
0
 10
7.5547220986999992
 20
12.9596834702999999
 30
0.0
 40
0.0196850394
 50
59.2601428405999613
 51
136.0179877788000908
  0
ARC
  5
FA9
  8
0
 10
8.0453555211999994
 20
13.7846964502000002
 30
0.0
 40
0.9401938968999999
 50
239.260142840899988
 51
300.833303453699898
  0
ARC
  5
FAA
  8
0
 10
7.5375686437000002
 20
13.3052517507000001
 30
0.0
 40
1.8197312242999999
 50
349.3018135641999038
 51
10.6981864358001193
  0
ARC
  5
FAB
  8
0
 10
7.2406395145000007
 20
12.7790300958999996
 30
0.0
 40
0.2781901588
 50
49.6791952986000709
 51
133.2516820958998949
  0
ARC
  5
FAC
  8
0
 10
7.4079095612000021
 20
12.9761230390000009
 30
0.0
 40
0.0196850394
 50
31.2036699353999083
 51
49.6791952992000603
  0
ARC
  5
FAD
  8
0
 10
7.0635106760999991
 20
12.9673125203000001
 30
0.0
 40
0.0196850394
 50
133.2516820963998896
 51
173.7322244887998863
  0
ARC
  5
FAE
  8
0
 10
6.9138517522000011
 20
12.9351730104999998
 30
0.0
 40
0.0196850394
 50
30.5083395786999887
 51
90.0
  0
ARC
  5
FAF
  8
0
 10
6.9833392380999992
 20
12.9761178923999996
 30
0.0
 40
0.0609685039
 50
210.5083395782999958
 51
353.7322244888001137
  0
LINE
  5
FB0
  8
0
 10
6.7765912066
 20
13.6556454514999999
 30
0.0
 11
6.9138517522000011
 21
13.6556454514999999
 31
0.0
  0
LINE
  5
FB1
  8
0
 10
8.9534076452999987
 20
13.6438344278999999
 30
0.0
 11
8.9925666923000005
 21
13.6438344278999999
 31
0.0
  0
ARC
  5
FB2
  8
0
 10
9.1489685449999971
 20
13.7006536943999997
 30
0.0
 40
0.0888500248
 50
90.0
 51
126.5969739206998952
  0
ARC
  5
FB3
  8
0
 10
9.2418944143000008
 20
13.5755150445999995
 30
0.0
 40
0.2447182347
 50
126.5969664550998033
 51
160.5586567332998129
  0
ARC
  5
FB4
  8
0
 10
8.9925666923000005
 20
13.6635194672000004
 30
0.0
 40
0.0196850394
 50
270.0
 51
340.5586567335000723
  0
ARC
  5
FB5
  8
0
 10
8.9534076452999987
 20
13.6143068688
 30
0.0
 40
0.0295275591
 50
90.0
 51
149.8727602730999138
  0
ARC
  5
FB6
  8
0
 10
8.7961507713999971
 20
13.7055654038999997
 30
0.0
 40
0.1522906045
 50
212.9269585453000104
 51
329.8727602728998818
  0
ARC
  5
FB7
  8
0
 10
8.5373338418000007
 20
13.6500187378
 30
0.0
 40
0.0196850394
 50
239.1666965468000114
 51
316.8050721290999263
  0
ARC
  5
FB8
  8
0
 10
8.6049194491000005
 20
13.5865628861999994
 30
0.0
 40
0.073021268
 50
29.7388303277000396
 51
136.8050721290998126
  0
ARC
  5
FB9
  8
0
 10
7.4876442799999987
 20
13.5860844195000006
 30
0.0
 40
0.0735358443
 50
43.9820122217000105
 51
148.7963300648000029
  0
ARC
  5
FBA
  8
0
 10
7.5547220986999992
 20
13.6508200311000003
 30
0.0
 40
0.0196850394
 50
223.9820122211999092
 51
300.7398571594000032
  0
ARC
  5
FBD
  8
0
 10
7.2406395145000007
 20
13.8314734055000006
 30
0.0
 40
0.2781901588
 50
226.7483179041001051
 51
310.3208047014001068
  0
ARC
  5
FBE
  8
0
 10
7.4079095612000021
 20
13.6343804623999993
 30
0.0
 40
0.0196850394
 50
310.3208047007998971
 51
328.7963300645999993
  0
ARC
  5
FBF
  8
0
 10
7.0635106760999991
 20
13.6431909811000001
 30
0.0
 40
0.0196850394
 50
186.2677755111998863
 51
226.7483179035997978
  0
ARC
  5
FC0
  8
0
 10
6.9138517522000011
 20
13.6753304909000004
 30
0.0
 40
0.0196850394
 50
270.0
 51
329.4916604213000255
  0
ARC
  5
FC1
  8
0
 10
6.9833392380999992
 20
13.6343856090000006
 30
0.0
 40
0.0609685039
 50
6.2677755111998863
 51
149.4916604216998053
  0
ARC
  5
FC4
  8
0
 10
8.0453555211999994
 20
12.8258070512
 30
0.0
 40
0.9401938968999999
 50
59.1666965463002228
 51
120.7398571590998984
  0
ARC
  5
FCE
  8
0
 10
8.0462835487056594
 20
13.30533666635821
 30
0.0
 40
1.178854267464406
 50
197.367706288365099
 51
257.7559309529626148
  0
ARC
  5
FD0
  8
0
 10
8.0466400691499533
 20
13.3050550159140997
 30
0.0
 40
0.6487371288051001
 50
212.9363211267520057
 51
247.2988276977978899
  0
ARC
  5
FD1
  8
0
 10
8.0466400691499533
 20
13.3050550159140997
 30
0.0
 40
0.6487371288051001
 50
32.9819916278609995
 51
147.0270839384074009
  0
ARC
  5
FD3
  8
0
 10
8.0462835487056594
 20
13.30533666635821
 30
0.0
 40
1.178854267464406
 50
24.0408123065725086
 51
162.6421742493679119
  0
LINE
  5
FD4
  8
0
 10
7.7962762459999997
 20
12.7597559522000008
 30
0.0
 11
7.5986104139414756
 21
12.9574217842585302
 31
0.0
  0
LINE
  5
FD6
  8
0
 10
8.496131605743642
 20
12.9596113119436502
 30
0.0
 11
8.2962762459999997
 21
12.7597559522000008
 31
0.0
  0
ARC
  5
FF8
  8
0
 10
8.0462762459999961
 20
8.3052524204000004
 30
0.0
 40
0.9645669290999993
 50
196.6339007829797936
 51
74.9783702602748718
  0
ARC
  5
FF9
  8
0
 10
7.8661984425323874
 20
8.4098457411450624
 30
0.0
 40
0.2151670304370964
 50
108.9635791281460939
 51
116.4032082370722065
  0
ARC
  5
FFA
  8
0
 10
8.2130789542393465
 20
8.3780970153167598
 30
0.0
 40
0.2495166041311129
 50
64.107976933064009
 51
70.5226683282267572
  0
LINE
  5
FFB
  8
0
 10
-14.9694652387999998
 20
8.0294017164999971
 30
0.0
 11
7.0620307433000002
 21
8.0294017164999971
 31
0.0
  0
LINE
  5
FFC
  8
0
 10
7.073764838284113
 20
8.0291399057999993
 30
0.0
 11
8.046276240900001
 21
8.0291415635999996
 31
0.0
  0
ARC
  5
FFE
  8
0
 10
7.0737648409
 20
8.0409509058999991
 30
0.0
 40
0.0118110001
 50
185.9735653199136038
 51
269.9999873102000265
  0
LINE
  5
FFF
  8
0
 10
-14.6840387146999998
 20
13.5552524203999898
 30
0.0
 11
6.7765912066
 21
13.5552524204000004
 31
0.0
  0
LINE
  5
1000
  8
0
 10
-14.6840387146999998
 20
13.0552524203999898
 30
0.0
 11
6.7765912066
 21
13.0552524204000004
 31
0.0
  0
LINE
  5
1052
  8
0
 10
7.0620307433000002
 20
8.5805828186999982
 30
0.0
 11
-14.9694782514
 21
8.5805828186999982
 31
0.0
  0
LINE
  5
1053
  8
0
 10
-15.7119418287000006
 20
13.8589656237999996
 30
0.0
 11
-15.5060579220414692
 21
13.65308171714147
 31
0.0
  0
LINE
  5
1054
  8
0
 10
-14.98121234638411
 20
8.5808446293999996
 30
0.0
 11
-15.9537237489999999
 21
8.5808429715999992
 31
0.0
  0
LINE
  5
1055
  8
0
 10
-14.9694652387999998
 20
8.0294017164999971
 30
0.0
 11
-14.9694782514
 21
8.5805828186999982
 31
0.0
  0
LINE
  5
1056
  8
0
 10
-15.7037237541000003
 20
12.8786466545000007
 30
0.0
 11
-15.7037237541000003
 21
8.6133346534209014
 31
0.0
  0
LINE
  5
1057
  8
0
 10
-16.2037237541000003
 20
12.8791509126000001
 30
0.0
 11
-16.2037237541000003
 21
8.6133346534209014
 31
0.0
  0
LINE
  5
1058
  8
0
 10
-16.1742924760000015
 20
13.8677524204000004
 30
0.0
 11
-15.7331550321000009
 21
13.8677524204000004
 31
0.0
  0
LINE
  5
1059
  8
0
 10
-16.4035791138436302
 20
13.6508921894563606
 30
0.0
 11
-16.1955058184000009
 21
13.8589654849000006
 31
0.0
  0
ARC
  5
105A
  8
0
 10
-14.9812123489999998
 20
8.5690336292999998
 30
0.0
 40
0.0118110001
 50
6.5315807683932787
 51
89.9999873101999839
  0
ARC
  5
105B
  8
0
 10
-15.9537237541000003
 20
8.3052524204000004
 30
0.0
 40
0.5078740157000001
 50
119.4884475695379962
 51
327.0702637399000992
  0
ARC
  5
105C
  8
0
 10
-15.9537237541000003
 20
8.3052524204000004
 30
0.0
 40
0.4703294885
 50
35.8703776512586288
 51
57.8902814306244906
  0
ARC
  5
105D
  8
0
 10
-15.9537237541000003
 20
8.3052524204000004
 30
0.0
 40
0.4055118110000001
 50
42.9587879509000032
 51
47.1541611426000102
  0
ARC
  5
105E
  8
0
 10
-15.9537237541000003
 20
8.3052524204000004
 30
0.0
 40
0.4055118110000001
 50
132.8460952830999986
 51
317.0412120536000202
  0
ARC
  5
105F
  8
0
 10
-15.9537237541000003
 20
8.3052524204000004
 30
0.0
 40
0.3967551667
 50
43.9963343649319611
 51
315.9265938163999863
  0
ARC
  5
1060
  8
0
 10
-15.9537237541000003
 20
8.3052524204000004
 30
0.0
 40
0.3228346457
 50
58.6119478391732898
 51
301.2058798194000246
  0
ARC
  5
1061
  8
0
 10
-15.9537237489999999
 20
8.3052524204000004
 30
0.0
 40
0.2755905512
 50
90.0
 51
270.0
  0
ARC
  5
1062
  8
0
 10
-15.9537237541000003
 20
13.3052524204000004
 30
0.0
 40
0.4921259843
 50
60.904929897095812
 51
119.315130963522293
  0
ARC
  5
1063
  8
0
 10
-15.7331550321000009
 20
13.8377524203999993
 30
0.0
 40
0.03
 50
45.0000000000000213
 51
90.0000000002000036
  0
ARC
  5
1064
  8
0
 10
-16.1742924760000015
 20
13.8377524203999993
 30
0.0
 40
0.03
 50
90.0
 51
135.0003753459999984
  0
ARC
  5
1065
  8
0
 10
-15.9537238885163699
 20
13.30525255451637
 30
0.0
 40
1.500936953883635
 50
279.5880278154418761
 51
350.4119721961719165
  0
ARC
  5
1066
  8
0
 10
-15.9537310568056601
 20
13.30533666635821
 30
0.0
 40
1.178854267464406
 50
204.0487601143707082
 51
257.7566573409711168
  0
ARC
  5
1067
  8
0
 10
-15.9537310568056601
 20
13.30533666635821
 30
0.0
 40
1.178854267464406
 50
17.357825750632049
 51
155.9591876934275092
  0
ARC
  5
1068
  8
0
 10
-15.9537310568056601
 20
13.30533666635821
 30
0.0
 40
1.178854267464406
 50
282.2440690470373852
 51
342.6322937116348726
  0
ARC
  5
1069
  8
0
 10
-15.9540875772499504
 20
13.3050550159140997
 30
0.0
 40
0.6487371288051001
 50
212.9452235857179119
 51
247.3684716354281079
  0
ARC
  5
106A
  8
0
 10
-15.9540875772499504
 20
13.3050550159140997
 30
0.0
 40
0.6487371288051001
 50
32.9729160615926133
 51
147.0180083721390076
  0
ARC
  5
106B
  8
0
 10
-15.9540875772499504
 20
13.3050550159140997
 30
0.0
 40
0.6487371288051001
 50
292.7011723022021101
 51
327.0636788732480795
  0
LINE
  5
106C
  8
0
 10
-17.2331180324000002
 20
13.6430584899999996
 30
0.0
 11
-17.2331180324000002
 21
12.9674450114000006
 31
0.0
  0
LINE
  5
106D
  8
0
 10
-16.9185768526000011
 20
13.6569674661999994
 30
0.0
 11
-16.9185768526000011
 21
12.9535360352000009
 31
0.0
  0
LINE
  5
106E
  8
0
 10
-16.8353163869000007
 20
13.6291274000999998
 30
0.0
 11
-16.8353163869000007
 21
12.9813761013000004
 31
0.0
  0
LINE
  5
106F
  8
0
 10
-16.5757709981000012
 20
13.6227848847613799
 30
0.0
 11
-16.5757709981000012
 21
12.9877186166386291
 31
0.0
  0
LINE
  5
1070
  8
0
 10
-16.4591323189000001
 20
13.6365446714152494
 30
0.0
 11
-16.4591323189000001
 21
12.9739588299847508
 31
0.0
  0
LINE
  5
1071
  8
0
 10
-15.4722313026999991
 20
13.6333227825000005
 30
0.0
 11
-15.4722313911604008
 21
12.9766027277205893
 31
0.0
  0
LINE
  5
1072
  8
0
 10
-15.4480050821999999
 20
13.6371500998999995
 30
0.0
 11
-15.4480050821999999
 21
12.9733534015000007
 31
0.0
  0
LINE
  5
1073
  8
0
 10
-15.3280946022000002
 20
13.6193719304999998
 30
0.0
 11
-15.3280946022000002
 21
12.9911315709000004
 31
0.0
  0
LINE
  5
1074
  8
0
 10
-14.9513908117999996
 20
13.6410418616999998
 30
0.0
 11
-14.9513908117999996
 21
12.9694616398000004
 31
0.0
  0
LINE
  5
1075
  8
0
 10
-14.8212992603
 20
13.6556454514999999
 30
0.0
 11
-14.8212992603
 21
12.9548580499000003
 31
0.0
  0
LINE
  5
1076
  8
0
 10
-14.6840387146999998
 20
12.9548580499000003
 30
0.0
 11
-14.6840387146999998
 21
13.6556454514999999
 31
0.0
  0
LINE
  5
1077
  8
0
 10
-14.6840387146999998
 20
12.9548580499000003
 30
0.0
 11
-14.8212992603
 21
12.9548580499000003
 31
0.0
  0
LINE
  5
1078
  8
0
 10
-16.8608551533999993
 20
12.9666690735000003
 30
0.0
 11
-16.9000142004000011
 21
12.9666690735000003
 31
0.0
  0
ARC
  5
1079
  8
0
 10
-17.0564160531000013
 20
12.9098498070000005
 30
0.0
 40
0.0888500248
 50
270.0
 51
306.5969739207001226
  0
ARC
  5
107A
  8
0
 10
-17.1493419224000014
 20
13.0349884568000007
 30
0.0
 40
0.2447182347
 50
306.5969664550999028
 51
340.5586567333000971
  0
ARC
  5
107B
  8
0
 10
-17.0564160531000013
 20
13.0008274043000007
 30
0.0
 40
0.1798276221
 50
190.6981864358000962
 51
270.0
  0
ARC
  5
107C
  8
0
 10
-16.9000142004000011
 20
12.9469840341999998
 30
0.0
 40
0.0196850394
 50
90.0
 51
160.5586567334999017
  0
ARC
  5
107D
  8
0
 10
-16.8608551533999993
 20
12.9961966326000002
 30
0.0
 40
0.0295275591
 50
270.0
 51
329.8727602731000275
  0
ARC
  5
107E
  8
0
 10
-17.0564160531000013
 20
13.6096760970999995
 30
0.0
 40
0.1798276221
 50
90.0
 51
169.3018135641999038
  0
ARC
  5
107F
  8
0
 10
-16.7035982794999995
 20
12.9049380975000005
 30
0.0
 40
0.1522906045
 50
32.9269585452999465
 51
149.8727602728999102
  0
ARC
  5
1080
  8
0
 10
-16.4447813499000013
 20
12.9604847636000002
 30
0.0
 40
0.0196850394
 50
59.166696546800047
 51
136.8050721291000968
  0
ARC
  5
1081
  8
0
 10
-16.5123669572000011
 20
13.0239406152000008
 30
0.0
 40
0.073021268
 50
209.7388303276999864
 51
316.8050721291002105
  0
ARC
  5
1082
  8
0
 10
-15.3950917881000002
 20
13.0244190818999996
 30
0.0
 40
0.0735358443
 50
223.9820122216999891
 51
328.7963300647999745
  0
ARC
  5
1083
  8
0
 10
-15.4621696067999999
 20
12.9596834702999999
 30
0.0
 40
0.0196850394
 50
43.9820122211998878
 51
120.7398571594000032
  0
ARC
  5
1084
  8
0
 10
-15.9528030293
 20
13.7846964502000002
 30
0.0
 40
0.9401938968999999
 50
239.1666965463001873
 51
300.7398571590999836
  0
ARC
  5
1085
  8
0
 10
-15.4450161518000009
 20
13.3052517507000001
 30
0.0
 40
1.8197312242999999
 50
169.3018135641999038
 51
190.6981864358000962
  0
ARC
  5
1086
  8
0
 10
-15.1480870226000004
 20
12.7790300958999996
 30
0.0
 40
0.2781901588
 50
46.7483179041000767
 51
130.3208047013999078
  0
ARC
  5
1087
  8
0
 10
-15.3153570692999992
 20
12.9761230390000009
 30
0.0
 40
0.0196850394
 50
130.3208047007998971
 51
148.796330064600113
  0
ARC
  5
1088
  8
0
 10
-14.9709581842000006
 20
12.9673125203000001
 30
0.0
 40
0.0196850394
 50
6.2677755112000977
 51
46.7483179036001033
  0
ARC
  5
1089
  8
0
 10
-14.8212992603
 20
12.9351730104999998
 30
0.0
 40
0.0196850394
 50
90.0
 51
149.4916604212999971
  0
ARC
  5
108A
  8
0
 10
-14.8907867461999999
 20
12.9761178923999996
 30
0.0
 40
0.0609685039
 50
186.2677755111998863
 51
329.4916604217000895
  0
LINE
  5
108B
  8
0
 10
-14.6840387146999998
 20
13.6556454514999999
 30
0.0
 11
-14.8212992603
 21
13.6556454514999999
 31
0.0
  0
LINE
  5
108C
  8
0
 10
-16.8608551533999993
 20
13.6438344278999999
 30
0.0
 11
-16.9000142004000011
 21
13.6438344278999999
 31
0.0
  0
ARC
  5
108D
  8
0
 10
-17.0564160531000013
 20
13.7006536943999997
 30
0.0
 40
0.0888500248
 50
53.4030260793000124
 51
90.0
  0
ARC
  5
108E
  8
0
 10
-17.1493419224000014
 20
13.5755150445999995
 30
0.0
 40
0.2447182347
 50
19.4413432667001516
 51
53.403033544900218
  0
ARC
  5
108F
  8
0
 10
-16.9000142004000011
 20
13.6635194672000004
 30
0.0
 40
0.0196850394
 50
199.441343266499814
 51
270.0
  0
ARC
  5
1090
  8
0
 10
-16.8608551533999993
 20
13.6143068688
 30
0.0
 40
0.0295275591
 50
30.1272397269000685
 51
90.0
  0
ARC
  5
1091
  8
0
 10
-16.7035982794999995
 20
13.7055654038999997
 30
0.0
 40
0.1522906045
 50
210.1272397271000898
 51
327.0730414547001033
  0
ARC
  5
1092
  8
0
 10
-16.4447813499000013
 20
13.6500187378
 30
0.0
 40
0.0196850394
 50
223.1949278709001874
 51
300.833303453200017
  0
ARC
  5
1093
  8
0
 10
-16.5123669572000011
 20
13.5865628861999994
 30
0.0
 40
0.073021268
 50
43.1949278709002087
 51
150.2611696723000136
  0
ARC
  5
1094
  8
0
 10
-15.3950917881000002
 20
13.5860844195000006
 30
0.0
 40
0.0735358443
 50
31.20366993519999
 51
136.0179877782998972
  0
ARC
  5
1095
  8
0
 10
-15.4621696067999999
 20
13.6508200311000003
 30
0.0
 40
0.0196850394
 50
239.2601428405999968
 51
316.0179877788002045
  0
ARC
  5
1096
  8
0
 10
-15.1480870226000004
 20
13.8314734055000006
 30
0.0
 40
0.2781901588
 50
229.679195298599808
 51
313.2516820958999801
  0
ARC
  5
1097
  8
0
 10
-15.3153570692999992
 20
13.6343804623999993
 30
0.0
 40
0.0196850394
 50
211.203669935399887
 51
229.6791952992001882
  0
ARC
  5
1098
  8
0
 10
-14.9709581842000006
 20
13.6431909811000001
 30
0.0
 40
0.0196850394
 50
313.2516820964002022
 51
353.7322244888001137
  0
ARC
  5
1099
  8
0
 10
-14.8212992603
 20
13.6753304909000004
 30
0.0
 40
0.0196850394
 50
210.5083395787000029
 51
270.0
  0
ARC
  5
109A
  8
0
 10
-14.8907867461999999
 20
13.6343856090000006
 30
0.0
 40
0.0609685039
 50
30.5083395783002089
 51
173.7322244888001137
  0
ARC
  5
109B
  8
0
 10
-15.9528030293
 20
12.8258070512
 30
0.0
 40
0.9401938968999999
 50
59.2601428409000732
 51
120.833303453699699
  0
LINE
  5
109C
  8
0
 10
-15.7037237541000003
 20
12.7597559522000008
 30
0.0
 11
-15.5060579220414692
 21
12.9574217842585302
 31
0.0
  0
LINE
  5
109D
  8
0
 10
-16.4035791138436409
 20
12.9596113119436502
 30
0.0
 11
-16.2037237541000003
 21
12.7597559522000008
 31
0.0
  0
ARC
  5
109E
  8
0
 10
-15.9537237541000003
 20
8.3052524204000004
 30
0.0
 40
0.9645669290999993
 50
16.6016472705133395
 51
74.9783702602751845
  0
ARC
  5
109F
  8
0
 10
-15.7736459506323907
 20
8.4098457411450624
 30
0.0
 40
0.2151670304370964
 50
63.5967917629277935
 51
71.0364208718538777
  0
ARC
  5
10A0
  8
0
 10
-16.1205264623393383
 20
8.3780970153167598
 30
0.0
 40
0.2495166041311129
 50
109.4773316717732001
 51
115.8920230669360052
  0
LINE
  5
10A1
  8
0
 10
-14.98121234638411
 20
8.0291399057999993
 30
0.0
 11
-15.9537237489999999
 21
8.0291415635999996
 31
0.0
  0
ARC
  5
10A2
  8
0
 10
-14.9812123489999998
 20
8.0409509058999991
 30
0.0
 40
0.0118110001
 50
270.0000126897999735
 51
354.0264346800864246
  0
ARC
  5
10A3
  8
0
 10
-15.9537238885163699
 20
13.30525255451637
 30
0.0
 40
1.500936953883635
 50
9.5880174194264391
 51
260.4119825921874849
  0
ARC
  5
10A4
  8
0
 10
8.0462763804163675
 20
13.30525255451637
 30
0.0
 40
1.500936953883635
 50
189.5880278038276003
 51
260.4119721845581239
  0
ATTDEF
  5
10E7
  8
DEFPOINTS
 10
-3.9587278120555589
 20
13.2982524939647604
 30
0.0
 40
0.001
  1
K-72575
  3

  2
MODELNUMBER
 70
     0
1001
ACDBATTR
1070
     0
1070
     1
  0
ATTDEF
  5
10E8
  8
DEFPOINTS
 10
-3.9587278120555589
 20
13.2965858272980899
 30
0.0
 40
0.001
  1
ARTIFACTS
  3

  2
TRADENAME
 70
     0
1001
ACDBATTR
1070
     0
1070
     1
  0
ATTDEF
  5
10E9
  8
DEFPOINTS
 10
-3.9587278120555589
 20
13.2949191606314301
 30
0.0
 40
0.001
  1
HOTELIER
  3

  2
PRODUCT
 70
     0
1001
ACDBATTR
1070
     0
1070
     1
  0
ARC
  5
11A8
  8
0
 10
-15.9537237541000003
 20
8.3052524204000004
 30
0.0
 40
0.9645669290999993
 50
105.0216297397251992
 51
343.3660992170201212
  0
ARC
  5
11B5
  8
0
 10
8.0462762459999961
 20
8.3052524204000004
 30
0.0
 40
0.9645669290999993
 50
105.0216297397249008
 51
163.3983527294867031
  0
ENDSEC
  0
EOF
