  0
SECTION
  2
HEADER
  9
$ACADVER
  1
AC1009
  9
$INSBASE
 10
3786.3157033440820669
 20
-303.9624584478831935
 30
0.0
  9
$EXTMIN
 10
3780.2355868692438889
 20
-305.2675533835899273
 30
-0.0015258207003583
  9
$EXTMAX
 10
3786.5949437111139559
 20
-302.6594655484614123
 30
0.0000000349246037
  9
$LIMMIN
 10
0.0
 20
0.0
  9
$LIMMAX
 10
11.6929133858000007
 20
8.2677165353999982
  9
$ORTHOMODE
 70
     1
  9
$REGENMODE
 70
     1
  9
$FILLMODE
 70
     1
  9
$QTEXTMODE
 70
     0
  9
$MIRRTEXT
 70
     0
  9
$DRAGMODE
 70
     2
  9
$LTSCALE
 40
0.6431102362
  9
$OSMODE
 70
  4095
  9
$ATTMODE
 70
     1
  9
$TEXTSIZE
 40
0.2
  9
$TRACEWID
 40
0.05
  9
$TEXTSTYLE
  7
STANDARD
  9
$CLAYER
  8
0
  9
$CELTYPE
  6
BYLAYER
  9
$CECOLOR
 62
   256
  9
$DIMSCALE
 40
1.0
  9
$DIMASZ
 40
0.1875
  9
$DIMEXO
 40
0.0625
  9
$DIMDLI
 40
0.4443307087
  9
$DIMRND
 40
0.0
  9
$DIMDLE
 40
0.0
  9
$DIMEXE
 40
0.125
  9
$DIMTP
 40
0.01
  9
$DIMTM
 40
0.01
  9
$DIMTXT
 40
2.0
  9
$DIMCEN
 40
0.1052362205
  9
$DIMTSZ
 40
0.0
  9
$DIMTOL
 70
     1
  9
$DIMLIM
 70
     0
  9
$DIMTIH
 70
     1
  9
$DIMTOH
 70
     1
  9
$DIMSE1
 70
     0
  9
$DIMSE2
 70
     0
  9
$DIMTAD
 70
     0
  9
$DIMZIN
 70
     0
  9
$DIMBLK
  1

  9
$DIMASO
 70
     1
  9
$DIMSHO
 70
     1
  9
$DIMPOST
  1
\X
  9
$DIMAPOST
  1

  9
$DIMALT
 70
     1
  9
$DIMALTD
 70
     2
  9
$DIMALTF
 40
25.3999999999999986
  9
$DIMLFAC
 40
1.0
  9
$DIMTOFL
 70
     0
  9
$DIMTVP
 40
0.0
  9
$DIMTIX
 70
     0
  9
$DIMSOXD
 70
     0
  9
$DIMSAH
 70
     0
  9
$DIMBLK1
  1

  9
$DIMBLK2
  1

  9
$DIMSTYLE
  2
STANDARD
  9
$DIMCLRD
 70
     0
  9
$DIMCLRE
 70
     0
  9
$DIMCLRT
 70
     0
  9
$DIMTFAC
 40
1.0
  9
$DIMGAP
 40
0.09
  9
$LUNITS
 70
     2
  9
$LUPREC
 70
     4
  9
$SKETCHINC
 40
0.1
  9
$FILLETRAD
 40
0.0
  9
$AUNITS
 70
     0
  9
$AUPREC
 70
     0
  9
$MENU
  1
.
  9
$ELEVATION
 40
0.0
  9
$PELEVATION
 40
0.0
  9
$THICKNESS
 40
0.0
  9
$LIMCHECK
 70
     0
  9
$BLIPMODE
 70
     0
  9
$CHAMFERA
 40
0.0
  9
$CHAMFERB
 40
0.0
  9
$SKPOLY
 70
     0
  9
$TDCREATE
 40
2458060.468368056230247
  9
$TDUPDATE
 40
2459571.9195138881914318
  9
$TDINDWG
 40
0.439821875
  9
$TDUSRTIMER
 40
0.439821875
  9
$USRTIMER
 70
     1
  9
$ANGBASE
 50
0.0
  9
$ANGDIR
 70
     0
  9
$PDMODE
 70
     0
  9
$PDSIZE
 40
0.3125
  9
$PLINEWID
 40
0.0
  9
$COORDS
 70
     1
  9
$SPLFRAME
 70
     0
  9
$SPLINETYPE
 70
     6
  9
$SPLINESEGS
 70
     8
  9
$ATTDIA
 70
     1
  9
$ATTREQ
 70
     1
  9
$HANDLING
 70
     1
  9
$HANDSEED
  5
C66A
  9
$SURFTAB1
 70
     6
  9
$SURFTAB2
 70
     6
  9
$SURFTYPE
 70
     6
  9
$SURFU
 70
     6
  9
$SURFV
 70
     6
  9
$UCSNAME
  2

  9
$UCSORG
 10
0.0
 20
0.0
 30
0.0
  9
$UCSXDIR
 10
1.0
 20
0.0
 30
0.0
  9
$UCSYDIR
 10
0.0
 20
1.0
 30
0.0
  9
$PUCSNAME
  2

  9
$PUCSORG
 10
0.0
 20
0.0
 30
0.0
  9
$PUCSXDIR
 10
1.0
 20
0.0
 30
0.0
  9
$PUCSYDIR
 10
0.0
 20
1.0
 30
0.0
  9
$USERI1
 70
     0
  9
$USERI2
 70
     0
  9
$USERI3
 70
     0
  9
$USERI4
 70
     0
  9
$USERI5
 70
     0
  9
$USERR1
 40
0.0
  9
$USERR2
 40
0.0
  9
$USERR3
 40
0.0
  9
$USERR4
 40
0.0
  9
$USERR5
 40
0.0
  9
$WORLDVIEW
 70
     1
  9
$SHADEDGE
 70
     3
  9
$SHADEDIF
 70
    70
  9
$TILEMODE
 70
     1
  9
$MAXACTVP
 70
    64
  9
$PLIMCHECK
 70
     0
  9
$PEXTMIN
 10
1.0000000000000000E+20
 20
1.0000000000000000E+20
 30
1.0000000000000000E+20
  9
$PEXTMAX
 10
-1.0000000000000000E+20
 20
-1.0000000000000000E+20
 30
-1.0000000000000000E+20
  9
$PLIMMIN
 10
0.0
 20
0.0
  9
$PLIMMAX
 10
12.0
 20
9.0
  9
$UNITMODE
 70
     0
  9
$VISRETAIN
 70
     1
  9
$PLINEGEN
 70
     0
  9
$PSLTSCALE
 70
     1
  0
ENDSEC
  0
SECTION
  2
TABLES
  0
TABLE
  2
VPORT
 70
     1
  0
VPORT
  2
*ACTIVE
 70
     0
 10
0.0
 20
0.0
 11
1.0
 21
1.0
 12
-1.1698177176340321
 22
0.0508337956931087
 13
0.0
 23
0.0
 14
1.0
 24
1.0
 15
0.0
 25
0.0
 16
0.0
 26
0.0
 36
32.4639002887380528
 17
3784.5850830078129547
 27
-304.0143432617186932
 37
0.0
 40
3.8246103776504699
 41
1.67063492063492
 42
50.0
 43
0.0
 44
0.0
 50
0.0
 51
0.0
 71
     0
 72
 10000
 73
     1
 74
     1
 75
     0
 76
     0
 77
     0
 78
     0
  0
ENDTAB
  0
TABLE
  2
LTYPE
 70
     2
  0
LTYPE
  2
CONTINUOUS
 70
     0
  3
Solid line
 72
    65
 73
     0
 40
0.0
  0
LTYPE
  2
PHANTOM2
 70
     0
  3
___ _ _ ___ _ _ ___ _ _ ___ _ _
 72
    65
 73
     6
 40
1.25
 49
0.625
 49
-0.125
 49
0.125
 49
-0.125
 49
0.125
 49
-0.125
  0
ENDTAB
  0
TABLE
  2
LAYER
 70
     2
  0
LAYER
  2
0
 70
     0
 62
   255
  6
CONTINUOUS
  0
LAYER
  2
DEFPOINTS
 70
     0
 62
     7
  6
CONTINUOUS
  0
ENDTAB
  0
TABLE
  2
STYLE
 70
     1
  0
STYLE
  2
STANDARD
 70
     0
 40
0.0
 41
0.8
 50
0.0
 71
     0
 42
0.2
  3
txt
  4

  0
ENDTAB
  0
TABLE
  2
VIEW
 70
     0
  0
ENDTAB
  0
TABLE
  2
UCS
 70
     0
  0
ENDTAB
  0
TABLE
  2
APPID
 70
    11
  0
APPID
  2
ACAD
 70
     0
  0
APPID
  2
ACAD_MLEADERVER
 70
     0
  0
APPID
  2
ACAD_EXEMPT_FROM_CAD_STANDARDS
 70
     0
  0
APPID
  2
ACAD_NAV_VCDISPLAY
 70
     0
  0
APPID
  2
ACAECLAYERSTANDARD
 70
     0
  0
APPID
  2
ACCMTRANSPARENCY
 70
     0
  0
APPID
  2
ACAD_DSTYLE_DIMJAG
 70
     0
  0
APPID
  2
ACAD_DSTYLE_DIMTALN
 70
     0
  0
APPID
  2
ACDBATTR
 70
     0
  0
APPID
  2
ACADANNOTATIVE
 70
     0
  0
APPID
  2
ACAD_PSEXT
 70
     0
  0
ENDTAB
  0
TABLE
  2
DIMSTYLE
 70
     1
  0
DIMSTYLE
  2
STANDARD
 70
     0
  3

  4

  5

  6

  7

 40
1.0
 41
0.1875
 42
0.0625
 43
0.38
 44
0.125
 45
0.0
 46
0.0
 47
0.01
 48
0.01
140
0.15625
141
0.09
142
0.0
143
25.3999999999999986
144
1.0
145
0.0
146
1.0
147
0.09
 71
     1
 72
     0
 73
     1
 74
     1
 75
     0
 76
     0
 77
     0
 78
     4
170
     0
171
     2
172
     0
173
     0
174
     0
175
     0
176
     0
177
     0
178
     0
  0
ENDTAB
  0
ENDSEC
  0
SECTION
  2
BLOCKS
  0
BLOCK
  8
0
  2
$MODEL_SPACE
 70
     0
 10
0.0
 20
0.0
 30
0.0
  3
$MODEL_SPACE
  1

  0
ENDBLK
  5
21
  8
0
  0
BLOCK
 67
     1
  8
0
  2
$PAPER_SPACE
 70
     0
 10
0.0
 20
0.0
 30
0.0
  3
$PAPER_SPACE
  1

  0
ENDBLK
  5
1D
 67
     1
  8
0
  0
BLOCK
  8
0
  2
_FILLED
 70
     0
 10
0.0
 20
0.0
 30
0.0
  3
_FILLED
  1

  0
SOLID
  5
B039
  8
0
  6
BYBLOCK
 62
     0
 10
0.0
 20
0.0
 30
0.0
 11
-1.0
 21
0.1666666667
 31
0.0
 12
-1.0
 22
-0.1666666667
 32
0.0
 13
-1.0
 23
-0.1666666667
 33
0.0
  0
ENDBLK
  5
B03A
  8
0
  6
BYBLOCK
 62
     0
  0
ENDSEC
  0
SECTION
  2
ENTITIES
  0
ATTDEF
  5
9DCC
  8
DEFPOINTS
 10
3786.316012663255151
 20
-303.9588530997785938
 30
0.0
 40
0.001
  1
K-72573
  3

  2
MODELNUMBER
 70
     0
1001
ACDBATTR
1070
     0
1070
     1
  0
ATTDEF
  5
9DCD
  8
DEFPOINTS
 10
3786.316012663255151
 20
-303.9605197664453158
 30
0.0
 40
0.001
  1
ARTIFACTS
  3

  2
TRADENAME
 70
     0
1001
ACDBATTR
1070
     0
1070
     1
  0
ATTDEF
  5
9DCE
  8
DEFPOINTS
 10
3786.316012663255151
 20
-303.9621864331119241
 30
0.0
 40
0.001
  1
TOILET TISSUE HOLDER
  3

  2
PRODUCT
 70
     0
1001
ACDBATTR
1070
     0
1070
     1
  0
LINE
  5
C3D2
  8
0
 10
3784.7612768106810108
 20
-303.621420148683228
 30
0.0
 11
3784.7612768106810108
 21
-304.3034967471832033
 31
0.0
  0
LINE
  5
C3D3
  8
0
 10
3786.3157033440820669
 20
-302.6749953145832137
 30
0.0
 11
3786.3157033440820669
 21
-305.2499215811831732
 31
0.0
  0
LINE
  5
C3D4
  8
0
 10
3785.908381701819053
 20
-304.927025376783206
 30
0.0
 11
3785.9591454617398085
 21
-304.927025376783206
 31
0.0
  0
LINE
  5
C3D5
  8
0
 10
3785.9591441742809366
 20
-302.9978915187832058
 30
0.0
 11
3785.9083836859817893
 21
-302.9978915187832058
 31
0.0
  0
ARC
  5
C3D6
  8
0
 10
3801.3956113204330904
 20
-307.9773763709824834
 30
0.0
 40
16.1925115784247708
 50
161.617532904664813
 51
161.9849979499363997
  0
ARC
  5
C3D7
  8
0
 10
3786.3096427761738596
 20
-302.9734316753931012
 30
0.0
 40
0.2984364067269589
 50
89.968216723822934
 51
159.9115531447469891
  0
ARC
  5
C3D8
  8
0
 10
3785.9591441742809366
 20
-302.9585214400831887
 30
0.0
 40
0.0393700786999984
 50
270.0
 51
343.6822396006963913
  0
LINE
  5
C3D9
  8
0
 10
3785.9969283571381311
 20
-302.9695830232776075
 30
0.0
 11
3785.9969283571381311
 21
-304.9553393723832073
 31
0.0
  0
ARC
  5
C3DA
  8
0
 10
3785.9083836861759664
 20
-303.037261597691213
 30
0.0
 40
0.0393700789080489
 50
90.0000002820986111
 51
170.9999998790428037
  0
LINE
  5
C3DB
  8
0
 10
3785.869498318281785
 20
-303.0311027603831917
 30
0.0
 11
3785.869498318281785
 21
-304.8938141354811933
 31
0.0
  0
ARC
  5
C3DC
  8
0
 10
3785.9083817017221918
 20
-304.8876576212562099
 30
0.0
 40
0.0393677555270754
 50
188.9971125471558935
 51
270.0000001412186066
  0
ARC
  5
C3DD
  8
0
 10
3785.9591454617861928
 20
-304.9663915891592865
 30
0.0
 40
0.0393662123760807
 50
16.3052036295110483
 51
90.0000000664405206
  0
ARC
  5
C3DE
  8
0
 10
3790.8425830043788665
 20
-303.3928621036856725
 30
0.0
 40
5.0913346555697574
 50
197.8718783693161924
 51
199.1793442342965932
  0
ARC
  5
C3DF
  8
0
 10
3786.3097844026219718
 20
-304.9513682361950941
 30
0.0
 40
0.298612011934467
 50
202.4702335894423868
 51
268.8642366609782925
  0
LINE
  5
C3E0
  8
0
 10
3785.2948199723809921
 20
-303.4901730515830991
 30
0.0
 11
3785.2948199723809921
 21
-304.434743844376726
 31
0.0
  0
ARC
  5
C3E1
  8
0
 10
3785.3308115377808463
 20
-304.4507003576832176
 30
0.0
 40
0.0393700786999986
 50
109.699718052991301
 51
156.0903578462394137
  0
ARC
  5
C3E2
  8
0
 10
3785.4369818135578498
 20
-304.747227034691889
 30
0.0
 40
0.3543307074081612
 50
69.4807454634319015
 51
109.6997181263000982
  0
ARC
  5
C3E3
  8
0
 10
3785.4024816034821015
 20
-304.8394075918831732
 30
0.0
 40
0.4527559054999998
 50
8.9999999983344825
 51
69.480745529282089
  0
ARC
  5
C3E4
  8
0
 10
1449.1368680137090905
 20
-674.931717129739809
 30
0.0
 40
2365.8502562889539149
 50
8.9984646714237009
 51
9.001535353342339
  0
ARC
  5
C3E5
  8
0
 10
3784.7912912674528343
 20
-304.303496744613085
 30
0.0
 40
0.0300144567713155
 50
180.000004906192288
 51
269.9732324737295244
  0
LINE
  5
C3E6
  8
0
 10
3784.7912772452550598
 20
-304.3335111981089085
 30
0.0
 11
3784.885388383380814
 21
-304.3335111981089085
 31
0.0
  0
ARC
  5
C3E7
  8
0
 10
3784.7912911817270469
 20
-303.6214200655670084
 30
0.0
 40
0.0300143710451299
 50
90.0266000212458977
 51
180.0001586641675999
  0
LINE
  5
C3E8
  8
0
 10
3784.7912772473168843
 20
-303.5914056977564996
 30
0.0
 11
3784.885388383380814
 21
-303.5913617570777774
 31
0.0
  0
LINE
  5
C3E9
  8
0
 10
3784.885388383380814
 20
-303.5814456242832193
 30
0.0
 11
3784.885388383380814
 21
-304.3434675757832224
 31
0.0
  0
ARC
  5
C3EA
  8
0
 10
3784.9050734227821522
 20
-304.3434675757832224
 30
0.0
 40
0.019685039399997
 50
180.0
 51
204.1679355936074955
  0
ARC
  5
C3EB
  8
0
 10
3788.8263852819641215
 20
-302.4580251003274043
 30
0.0
 40
4.3707217793436746
 50
205.6723409546721939
 51
206.2445568512156058
  0
ARC
  5
C3EC
  8
0
 10
3784.9206161996221454
 20
-304.3831998461039916
 30
0.0
 40
0.0162664847280828
 50
207.7489790954591058
 51
269.9253703108321929
  0
ARC
  5
C3ED
  8
0
 10
3785.0469310043149562
 20
-304.3830595998622925
 30
0.0
 40
0.016407060053797
 50
270.3704212727353138
 51
331.968091511932073
  0
ARC
  5
C3EE
  8
0
 10
3785.500514735627803
 20
-304.6096647735535043
 30
0.0
 40
0.4906372048328837
 50
151.1457511221796892
 51
153.5034955612835859
  0
ARC
  5
C3EF
  8
0
 10
3785.0997712299817977
 20
-304.3896238022832108
 30
0.0
 40
0.0334645668999958
 50
90.0
 51
150.0000000001049045
  0
LINE
  5
C3F0
  8
0
 10
3785.0997712299817977
 20
-304.3561592353831884
 30
0.0
 11
3785.1409001944821284
 21
-304.3561592353831884
 31
0.0
  0
ARC
  5
C3F1
  8
0
 10
3785.1409001944821284
 20
-304.3955293140832055
 30
0.0
 40
0.0393700786999984
 50
359.9999999999968168
 51
90.0
  0
LINE
  5
C3F2
  8
0
 10
3785.1802702731820318
 20
-304.4104899439831797
 30
0.0
 11
3785.1802702731820318
 21
-303.5144269518831948
 31
0.0
  0
ARC
  5
C3F3
  8
0
 10
3785.2401127928837923
 20
-304.4104899439793144
 30
0.0
 40
0.0598425197045754
 50
179.9995362185439092
 51
227.375484193873092
  0
ARC
  5
C3F4
  8
0
 10
3785.2401127922548767
 20
-304.4104899433037872
 30
0.0
 40
0.0598425206243312
 50
312.6245158079685211
 51
336.0903574278876249
  0
LINE
  5
C3F5
  8
0
 10
3785.0707900649181283
 20
-304.3728915187189727
 30
0.0
 11
3785.0707900649181283
 21
-303.5520253771305192
 31
0.0
  0
ARC
  5
C3F6
  8
0
 10
3784.9051062106300378
 20
-303.581449093820197
 30
0.0
 40
0.0197178275534281
 50
155.8699568222513108
 51
179.9899182692751936
  0
ARC
  5
C3F7
  8
0
 10
3485.1506527811930027
 20
-157.6388971659420122
 30
0.0
 40
333.3748944885086871
 50
334.0396603503863844
 51
334.0471618548062906
  0
ARC
  5
C3F8
  8
0
 10
3784.9207024253992131
 20
-303.5418484285801242
 30
0.0
 40
0.0164084440231217
 50
91.4824477703759129
 51
151.9944836052223991
  0
ARC
  5
C3F9
  8
0
 10
3785.0470236850778747
 20
-303.5416945438216771
 30
0.0
 40
0.0162490728310399
 50
27.6789889974801397
 51
89.9527809818203963
  0
ARC
  5
C3FA
  8
0
 10
3785.5005011258158447
 20
-303.3152592523834983
 30
0.0
 40
0.4906218438723648
 50
206.4964665472485876
 51
208.8542866567530893
  0
ARC
  5
C3FB
  8
0
 10
3785.0997712300400053
 20
-303.5352930933672155
 30
0.0
 40
0.0334645671159706
 50
210.0000011365314947
 51
269.9999999009124281
  0
LINE
  5
C3FC
  8
0
 10
3785.0997712299817977
 20
-303.5687576604831861
 30
0.0
 11
3785.1409001944821284
 21
-303.5687576604831861
 31
0.0
  0
ARC
  5
C3FD
  8
0
 10
3785.1409001944821284
 20
-303.5293875817832259
 30
0.0
 40
0.0393700786999984
 50
270.0
 51
0.0000000000032569
  0
ARC
  5
C3FE
  8
0
 10
3785.2401127928819733
 20
-303.5144269518831948
 30
0.0
 40
0.0598425197000072
 50
118.2837110773301958
 51
179.9999999999967031
  0
ARC
  5
C3FF
  8
0
 10
3785.2401127927951165
 20
-303.5144269520430953
 30
0.0
 40
0.0598425198816245
 50
23.9096422894827683
 51
61.7162889226697828
  0
ARC
  5
C400
  8
0
 10
3785.3322645780817766
 20
-303.4726528288991858
 30
0.0
 40
0.0413407389738014
 50
205.0747577256136083
 51
251.7812597056000925
  0
ARC
  5
C401
  8
0
 10
3785.4369818134050547
 20
-303.1776898603475843
 30
0.0
 40
0.3543307082363944
 50
250.6090262986550954
 51
290.5192545162311717
  0
ARC
  5
C402
  8
0
 10
3785.4024816034670948
 20
-303.0855093039626809
 30
0.0
 40
0.4527559055243095
 50
290.5192544741394727
 51
350.999999987955789
  0
ARC
  5
C403
  8
0
 10
3788.9290240690061182
 20
-303.579871396940689
 30
0.0
 40
3.1083508225125511
 50
169.8313292405364052
 51
172.1686707399082081
  0
ARC
  5
C404
  8
0
 10
3785.3095735087690628
 20
-303.6594579825073765
 30
0.0
 40
0.4033611447106071
 50
162.1809412441029963
 51
197.8205974458196863
  0
ARC
  5
C405
  8
0
 10
3784.9159365582349892
 20
-303.7853962590239121
 30
0.0
 40
0.0099471870490932
 50
345.4759894175978161
 51
14.5240105824779402
  0
ARC
  5
C406
  8
0
 10
3785.7035642955911499
 20
-303.9624600922326181
 30
0.0
 40
0.7973430752856647
 50
167.3532972108210117
 51
192.6464142982580938
  0
ARC
  5
C407
  8
0
 10
3784.9158424676829782
 20
-304.1395201131073804
 30
0.0
 40
0.0100374731482955
 50
345.6124280483310258
 51
14.3911552158692295
  0
ARC
  5
C408
  8
0
 10
3785.3095971134421234
 20
-304.2654469508088937
 30
0.0
 40
0.4033809587425117
 50
162.1819388310902923
 51
197.817622229127295
  0
ARC
  5
C409
  8
0
 10
3784.6594728661320914
 20
-303.6594594250494197
 30
0.0
 40
0.4020118110119155
 50
342.1182332922493856
 51
17.8807571131750187
  0
ARC
  5
C40A
  8
0
 10
3785.051708609625166
 20
-303.7853951047122791
 30
0.0
 40
0.009962117813009
 50
165.4874042297261099
 51
194.511703696511205
  0
ARC
  5
C40B
  8
0
 10
3784.2642266329489757
 20
-303.9624591116332226
 30
0.0
 40
0.7971858970853845
 50
347.3508728275294857
 51
12.6491271724672494
  0
ARC
  5
C40C
  8
0
 10
3785.0519301625690787
 20
-304.1395231444046772
 30
0.0
 40
0.0101767602050747
 50
165.8007167675930873
 51
194.1992832323593916
  0
ARC
  5
C40D
  8
0
 10
3784.6594835495097868
 20
-304.2654486636665183
 30
0.0
 40
0.4019985251637091
 50
342.1209105071581007
 51
17.8808746339454885
  0
ARC
  5
C40E
  8
0
 10
3784.9237885105931127
 20
-304.3899251103699726
 30
0.0
 40
0.0020571507784135
 50
329.8570505561141886
 51
30.3528957093063987
  0
ARC
  5
C40F
  8
0
 10
3784.9395859767141701
 20
-304.3836638257046161
 30
0.0
 40
0.0158026891668223
 50
207.4895032120276142
 51
269.7133000113205981
  0
ARC
  5
C410
  8
0
 10
3785.0441223693028405
 20
-304.389946428757014
 30
0.0
 40
0.0023210320728226
 50
152.2563989603181085
 51
206.6579639690855004
  0
ARC
  5
C411
  8
0
 10
3785.0280459197069831
 20
-304.3836652781952807
 30
0.0
 40
0.0158012390936401
 50
270.2884595993502899
 51
332.3923836488227153
  0
ARC
  5
C412
  8
0
 10
3785.0440638792451864
 20
-303.5349442049146091
 30
0.0
 40
0.0022719312033083
 50
154.6062751854483963
 51
208.4611375192268952
  0
ARC
  5
C413
  8
0
 10
3785.0280819813588096
 20
-303.5410884029765839
 30
0.0
 40
0.0156429891187844
 50
27.0687362539616103
 51
89.8378407591122539
  0
ARC
  5
C414
  8
0
 10
3784.9237718546428368
 20
-303.5349968776606033
 30
0.0
 40
0.0020646661785697
 50
330.1466475124947237
 51
30.1491081675595005
  0
ARC
  5
C415
  8
0
 10
3784.9396101585880388
 20
-303.5412924269405721
 30
0.0
 40
0.0158509066168888
 50
91.2801412868963666
 51
152.4453880843365141
  0
LINE
  5
C416
  8
0
 10
3785.041746491811864
 20
-303.7853950271589838
 30
0.0
 11
3784.925883745207102
 21
-303.7853950271589838
 31
0.0
  0
LINE
  5
C417
  8
0
 10
3785.0417534023640656
 20
-304.1395231444046772
 30
0.0
 11
3784.9258799403742159
 21
-304.1395231444046772
 31
0.0
  0
LINE
  5
C418
  8
0
 10
3786.3157033440820669
 20
-302.6749953145832137
 30
0.0
 11
3786.3098083256491009
 21
-302.6749953145832137
 31
0.0
  0
LINE
  5
C419
  8
0
 10
3786.3094772266990731
 20
-302.6749953145832137
 30
0.0
 11
3786.3094772266999826
 21
-302.6749953145832137
 31
0.0
  0
LINE
  5
C41A
  8
0
 10
3786.3157033440820669
 20
-305.2499215811831732
 30
0.0
 11
3786.3038654611609672
 21
-305.2499215811831732
 31
0.0
  0
LINE
  5
C41B
  8
0
 10
3784.7612768106810108
 20
-304.2657491500831952
 30
0.0
 11
3784.0769338725817761
 21
-304.2657491500831952
 31
0.0
  0
LINE
  5
C41C
  8
0
 10
3784.0769338725817761
 20
-304.2657491500831952
 30
0.0
 11
3784.0769338723807778
 21
-303.6591677456831917
 31
0.0
  0
LINE
  5
C41D
  8
0
 10
3784.0769338723807778
 20
-303.6591677456831917
 30
0.0
 11
3784.7612768106810108
 21
-303.6591677456831917
 31
0.0
  0
ARC
  5
C41E
  8
0
 10
3783.3883039071320127
 20
-303.9624584477832059
 30
0.0
 40
0.4500333871010711
 50
33.7461485343459984
 51
146.253851465653895
  0
ARC
  5
C41F
  8
0
 10
3783.3883039071320127
 20
-303.9624584477832059
 30
0.0
 40
0.4500333871010711
 50
213.7461485649724011
 51
326.2538514350276841
  0
ARC
  5
C420
  8
0
 10
3783.3883039071320127
 20
-303.9624584478831935
 30
0.0
 40
0.3721418860659847
 50
120.444862527132301
 51
137.7948802947506977
  0
ARC
  5
C421
  8
0
 10
3783.3883039071320127
 20
-303.9624584478831935
 30
0.0
 40
0.3721418860659847
 50
222.2051197052493023
 51
239.5267247323911022
  0
ARC
  5
C422
  8
0
 10
3783.3883039071320127
 20
-303.9624584478831935
 30
0.0
 40
0.3721418860659847
 50
300.4431914461763995
 51
317.7948802947507261
  0
ARC
  5
C423
  8
0
 10
3783.3883039071320127
 20
-303.9624584478831935
 30
0.0
 40
0.3721418860659847
 50
42.2051197052493094
 51
59.5568085538235934
  0
LINE
  5
C424
  8
0
 10
3783.199745637882188
 20
-303.6038893130831866
 30
0.0
 11
3783.1995637509248809
 21
-304.337458448900918
 31
0.0
  0
ARC
  5
C425
  8
0
 10
3783.3882129629878364
 20
-304.0708092479770812
 30
0.0
 40
0.3266348443632264
 50
234.7213229204436971
 51
305.2786770795581788
  0
ARC
  5
C426
  8
0
 10
3783.2304607609730738
 20
-303.6040749476616156
 30
0.0
 40
0.0307156840507953
 50
123.4420248197906034
 51
179.6537227494839044
  0
ARC
  5
C427
  8
0
 10
3783.3881441039720812
 20
-303.8520350040067228
 30
0.0
 40
0.3245622295875239
 50
57.404815762383258
 51
122.5467685176779042
  0
ARC
  5
C428
  8
0
 10
3783.5468595377728889
 20
-303.6038923362453943
 30
0.0
 40
0.030002638760841
 50
0.0057733066183999
 51
57.4868098174394717
  0
LINE
  5
C429
  8
0
 10
3783.5768621763809278
 20
-303.6038893130831866
 30
0.0
 11
3783.5768621763809278
 21
-304.3374584479353757
 31
0.0
  0
ARC
  5
C42A
  8
0
 10
3780.6283039071818166
 20
-303.9624584478831935
 30
0.0
 40
0.25
 50
90.0
 51
270.0
  0
LINE
  5
C42B
  8
0
 10
3783.9283039071819985
 20
-303.6727896928832138
 30
0.0
 11
3783.9283039071819985
 21
-304.2521272028831731
 31
0.0
  0
ARC
  5
C42C
  8
0
 10
3783.959187320998808
 20
-304.2521272028831731
 30
0.0
 40
0.0308834138167242
 50
180.0000000000032117
 51
201.6507027212441017
  0
ARC
  5
C42D
  8
0
 10
3783.9985153416000685
 20
-304.2365158657449911
 30
0.0
 40
0.0731966156768207
 50
201.6507027212441017
 51
238.8485166855319051
  0
ARC
  5
C42E
  8
0
 10
3784.0034659546690818
 20
-304.2253234001320834
 30
0.0
 40
0.0853502542104228
 50
239.8912020135848024
 51
302.4418417901699172
  0
ARC
  5
C42F
  8
0
 10
3784.0053308218812163
 20
-304.2309576959933111
 30
0.0
 40
0.0796080532822217
 50
303.4845271182275042
 51
334.0851862431692894
  0
ARC
  5
C430
  8
0
 10
3783.9590720211122061
 20
-303.6727713919664211
 30
0.0
 40
0.0307681193723298
 50
157.4422656215255074
 51
180.0340796050278129
  0
ARC
  5
C431
  8
0
 10
3784.0000756862032176
 20
-303.6898040929017952
 30
0.0
 40
0.0751687213062813
 50
102.0660209728024057
 51
157.4422656215255074
  0
ARC
  5
C432
  8
0
 10
3784.0021147628917788
 20
-303.6993431330947146
 30
0.0
 40
0.0849232649421715
 50
28.2343276408431016
 51
102.0660209728024057
  0
LINE
  5
C434
  8
0
 10
3780.6283039071818166
 20
-304.2124584478831935
 30
0.0
 11
3783.1995947444179365
 21
-304.2124584478831935
 31
0.0
  0
LINE
  5
C435
  8
0
 10
3783.5768621763809278
 20
-304.2124584478831935
 30
0.0
 11
3783.9283039071819985
 21
-304.2124584478831935
 31
0.0
  0
LINE
  5
C436
  8
0
 10
3780.6283039071818166
 20
-303.7124584478831935
 30
0.0
 11
3783.199718718387885
 21
-303.7124584478831935
 31
0.0
  0
LINE
  5
C437
  8
0
 10
3783.5768621763809278
 20
-303.7124584478831935
 30
0.0
 11
3783.9283039071819985
 21
-303.7124584478831935
 31
0.0
  0
ARC
  5
C438
  8
0
 10
3785.2401127928819733
 20
-303.514424610084518
 30
0.0
 40
0.0598404574939756
 50
61.7152264761906579
 51
118.2847735238078002
  0
ARC
  5
C439
  8
0
 10
3785.2401127928819733
 20
-304.4104910018797909
 30
0.0
 40
0.0598417412960735
 50
227.3747982742544878
 51
312.6252017257197053
  0
LINE
  5
C43A
  8
0
 10
3785.0470370763819119
 20
-304.399466317033216
 30
0.0
 11
3784.9205950119808222
 21
-304.399466317033216
 31
0.0
  0
LINE
  5
C43B
  8
0
 10
3785.0470370763769097
 20
-303.5254454765087075
 30
0.0
 11
3784.9202779273377928
 21
-303.5254454765087075
 31
0.0
  0
ENDSEC
  0
EOF
