  0
SECTION
  2
HEADER
  9
$ACADVER
  1
AC1009
  9
$INSBASE
 10
3803.8796496742961608
 20
-364.1869490881329057
 30
0.0
  9
$EXTMIN
 10
3799.2354564684142133
 20
-370.1358952535409799
 30
-0.0015258207003583
  9
$EXTMAX
 10
3808.5333453875850864
 20
-364.1600078187792064
 30
0.0000000349246037
  9
$LIMMIN
 10
0.0
 20
0.0
  9
$LIMMAX
 10
11.6929133858000007
 20
8.2677165353999982
  9
$ORTHOMODE
 70
     0
  9
$REGENMODE
 70
     1
  9
$FILLMODE
 70
     1
  9
$QTEXTMODE
 70
     0
  9
$MIRRTEXT
 70
     0
  9
$DRAGMODE
 70
     2
  9
$LTSCALE
 40
0.6431102362
  9
$OSMODE
 70
  4095
  9
$ATTMODE
 70
     1
  9
$TEXTSIZE
 40
0.2
  9
$TRACEWID
 40
0.05
  9
$TEXTSTYLE
  7
STANDARD
  9
$CLAYER
  8
0
  9
$CELTYPE
  6
BYLAYER
  9
$CECOLOR
 62
   256
  9
$DIMSCALE
 40
1.0
  9
$DIMASZ
 40
0.1875
  9
$DIMEXO
 40
0.0625
  9
$DIMDLI
 40
0.4443307087
  9
$DIMRND
 40
0.0
  9
$DIMDLE
 40
0.0
  9
$DIMEXE
 40
0.125
  9
$DIMTP
 40
0.01
  9
$DIMTM
 40
0.01
  9
$DIMTXT
 40
2.0
  9
$DIMCEN
 40
0.1052362205
  9
$DIMTSZ
 40
0.0
  9
$DIMTOL
 70
     1
  9
$DIMLIM
 70
     0
  9
$DIMTIH
 70
     1
  9
$DIMTOH
 70
     1
  9
$DIMSE1
 70
     0
  9
$DIMSE2
 70
     0
  9
$DIMTAD
 70
     0
  9
$DIMZIN
 70
     0
  9
$DIMBLK
  1

  9
$DIMASO
 70
     1
  9
$DIMSHO
 70
     1
  9
$DIMPOST
  1
\X
  9
$DIMAPOST
  1

  9
$DIMALT
 70
     1
  9
$DIMALTD
 70
     2
  9
$DIMALTF
 40
25.3999999999999986
  9
$DIMLFAC
 40
1.0
  9
$DIMTOFL
 70
     0
  9
$DIMTVP
 40
0.0
  9
$DIMTIX
 70
     0
  9
$DIMSOXD
 70
     0
  9
$DIMSAH
 70
     0
  9
$DIMBLK1
  1

  9
$DIMBLK2
  1

  9
$DIMSTYLE
  2
STANDARD
  9
$DIMCLRD
 70
     0
  9
$DIMCLRE
 70
     0
  9
$DIMCLRT
 70
     0
  9
$DIMTFAC
 40
1.0
  9
$DIMGAP
 40
0.09
  9
$LUNITS
 70
     2
  9
$LUPREC
 70
     4
  9
$SKETCHINC
 40
0.1
  9
$FILLETRAD
 40
0.0
  9
$AUNITS
 70
     0
  9
$AUPREC
 70
     0
  9
$MENU
  1
.
  9
$ELEVATION
 40
0.0
  9
$PELEVATION
 40
0.0
  9
$THICKNESS
 40
0.0
  9
$LIMCHECK
 70
     0
  9
$BLIPMODE
 70
     0
  9
$CHAMFERA
 40
0.0
  9
$CHAMFERB
 40
0.0
  9
$SKPOLY
 70
     0
  9
$TDCREATE
 40
2458060.468368056230247
  9
$TDUPDATE
 40
2459571.919918981846422
  9
$TDINDWG
 40
0.4534329861
  9
$TDUSRTIMER
 40
0.4534329861
  9
$USRTIMER
 70
     1
  9
$ANGBASE
 50
0.0
  9
$ANGDIR
 70
     0
  9
$PDMODE
 70
     0
  9
$PDSIZE
 40
0.3125
  9
$PLINEWID
 40
0.0
  9
$COORDS
 70
     1
  9
$SPLFRAME
 70
     0
  9
$SPLINETYPE
 70
     6
  9
$SPLINESEGS
 70
     8
  9
$ATTDIA
 70
     1
  9
$ATTREQ
 70
     1
  9
$HANDLING
 70
     1
  9
$HANDSEED
  5
D465
  9
$SURFTAB1
 70
     6
  9
$SURFTAB2
 70
     6
  9
$SURFTYPE
 70
     6
  9
$SURFU
 70
     6
  9
$SURFV
 70
     6
  9
$UCSNAME
  2

  9
$UCSORG
 10
0.0
 20
0.0
 30
0.0
  9
$UCSXDIR
 10
1.0
 20
0.0
 30
0.0
  9
$UCSYDIR
 10
0.0
 20
1.0
 30
0.0
  9
$PUCSNAME
  2

  9
$PUCSORG
 10
0.0
 20
0.0
 30
0.0
  9
$PUCSXDIR
 10
1.0
 20
0.0
 30
0.0
  9
$PUCSYDIR
 10
0.0
 20
1.0
 30
0.0
  9
$USERI1
 70
     0
  9
$USERI2
 70
     0
  9
$USERI3
 70
     0
  9
$USERI4
 70
     0
  9
$USERI5
 70
     0
  9
$USERR1
 40
0.0
  9
$USERR2
 40
0.0
  9
$USERR3
 40
0.0
  9
$USERR4
 40
0.0
  9
$USERR5
 40
0.0
  9
$WORLDVIEW
 70
     1
  9
$SHADEDGE
 70
     3
  9
$SHADEDIF
 70
    70
  9
$TILEMODE
 70
     1
  9
$MAXACTVP
 70
    64
  9
$PLIMCHECK
 70
     0
  9
$PEXTMIN
 10
1.0000000000000000E+20
 20
1.0000000000000000E+20
 30
1.0000000000000000E+20
  9
$PEXTMAX
 10
-1.0000000000000000E+20
 20
-1.0000000000000000E+20
 30
-1.0000000000000000E+20
  9
$PLIMMIN
 10
0.0
 20
0.0
  9
$PLIMMAX
 10
12.0
 20
9.0
  9
$UNITMODE
 70
     0
  9
$VISRETAIN
 70
     1
  9
$PLINEGEN
 70
     0
  9
$PSLTSCALE
 70
     1
  0
ENDSEC
  0
SECTION
  2
TABLES
  0
TABLE
  2
VPORT
 70
     1
  0
VPORT
  2
*ACTIVE
 70
     0
 10
0.0
 20
0.0
 11
1.0
 21
1.0
 12
0.0047019460762383
 22
-0.7990898418241273
 13
0.0
 23
0.0
 14
1.0
 24
1.0
 15
0.0
 25
0.0
 16
0.0
 26
0.0
 36
43.4060767548294066
 17
3803.8796989819229566
 27
-366.3488616943359943
 37
0.0
 40
6.0232524606648301
 41
1.67063492063492
 42
50.0
 43
0.0
 44
0.0
 50
0.0
 51
0.0
 71
     0
 72
 10000
 73
     1
 74
     1
 75
     0
 76
     0
 77
     0
 78
     0
  0
ENDTAB
  0
TABLE
  2
LTYPE
 70
     2
  0
LTYPE
  2
CONTINUOUS
 70
     0
  3
Solid line
 72
    65
 73
     0
 40
0.0
  0
LTYPE
  2
PHANTOM2
 70
     0
  3
___ _ _ ___ _ _ ___ _ _ ___ _ _
 72
    65
 73
     6
 40
1.25
 49
0.625
 49
-0.125
 49
0.125
 49
-0.125
 49
0.125
 49
-0.125
  0
ENDTAB
  0
TABLE
  2
LAYER
 70
     2
  0
LAYER
  2
0
 70
     0
 62
   255
  6
CONTINUOUS
  0
LAYER
  2
DEFPOINTS
 70
     0
 62
     7
  6
CONTINUOUS
  0
ENDTAB
  0
TABLE
  2
STYLE
 70
     1
  0
STYLE
  2
STANDARD
 70
     0
 40
0.0
 41
0.8
 50
0.0
 71
     0
 42
0.2
  3
txt
  4

  0
ENDTAB
  0
TABLE
  2
VIEW
 70
     0
  0
ENDTAB
  0
TABLE
  2
UCS
 70
     0
  0
ENDTAB
  0
TABLE
  2
APPID
 70
    11
  0
APPID
  2
ACAD
 70
     0
  0
APPID
  2
ACAD_MLEADERVER
 70
     0
  0
APPID
  2
ACAD_EXEMPT_FROM_CAD_STANDARDS
 70
     0
  0
APPID
  2
ACAD_NAV_VCDISPLAY
 70
     0
  0
APPID
  2
ACAECLAYERSTANDARD
 70
     0
  0
APPID
  2
ACCMTRANSPARENCY
 70
     0
  0
APPID
  2
ACAD_DSTYLE_DIMJAG
 70
     0
  0
APPID
  2
ACAD_DSTYLE_DIMTALN
 70
     0
  0
APPID
  2
ACDBATTR
 70
     0
  0
APPID
  2
ACADANNOTATIVE
 70
     0
  0
APPID
  2
ACAD_PSEXT
 70
     0
  0
ENDTAB
  0
TABLE
  2
DIMSTYLE
 70
     1
  0
DIMSTYLE
  2
STANDARD
 70
     0
  3

  4

  5

  6

  7

 40
1.0
 41
0.1875
 42
0.0625
 43
0.38
 44
0.125
 45
0.0
 46
0.0
 47
0.01
 48
0.01
140
0.15625
141
0.09
142
0.0
143
25.3999999999999986
144
1.0
145
0.0
146
1.0
147
0.09
 71
     1
 72
     0
 73
     1
 74
     1
 75
     0
 76
     0
 77
     0
 78
     4
170
     0
171
     2
172
     0
173
     0
174
     0
175
     0
176
     0
177
     0
178
     0
  0
ENDTAB
  0
ENDSEC
  0
SECTION
  2
BLOCKS
  0
BLOCK
  8
0
  2
$MODEL_SPACE
 70
     0
 10
0.0
 20
0.0
 30
0.0
  3
$MODEL_SPACE
  1

  0
ENDBLK
  5
21
  8
0
  0
BLOCK
 67
     1
  8
0
  2
$PAPER_SPACE
 70
     0
 10
0.0
 20
0.0
 30
0.0
  3
$PAPER_SPACE
  1

  0
ENDBLK
  5
1D
 67
     1
  8
0
  0
BLOCK
  8
0
  2
_FILLED
 70
     0
 10
0.0
 20
0.0
 30
0.0
  3
_FILLED
  1

  0
SOLID
  5
B73F
  8
0
  6
BYBLOCK
 62
     0
 10
0.0
 20
0.0
 30
0.0
 11
-1.0
 21
0.1666666667
 31
0.0
 12
-1.0
 22
-0.1666666667
 32
0.0
 13
-1.0
 23
-0.1666666667
 33
0.0
  0
ENDBLK
  5
B740
  8
0
  6
BYBLOCK
 62
     0
  0
ENDSEC
  0
SECTION
  2
ENTITIES
  0
ATTDEF
  5
9DCC
  8
DEFPOINTS
 10
3803.8824381051717864
 20
-364.1850276981541015
 30
0.0
 40
0.001
  1
K-72573
  3

  2
MODELNUMBER
 70
     0
1001
ACDBATTR
1070
     0
1070
     1
  0
ATTDEF
  5
9DCD
  8
DEFPOINTS
 10
3803.8824381051717864
 20
-364.1866943648207098
 30
0.0
 40
0.001
  1
ARTIFACTS
  3

  2
TRADENAME
 70
     0
1001
ACDBATTR
1070
     0
1070
     1
  0
ATTDEF
  5
9DCE
  8
DEFPOINTS
 10
3803.8824381051717864
 20
-364.1883610314873749
 30
0.0
 40
0.001
  1
TOILET TISSUE HOLDER
  3

  2
PRODUCT
 70
     0
1001
ACDBATTR
1070
     0
1070
     1
  0
LINE
  5
D139
  8
0
 10
3799.3421865409959537
 20
-364.1928441065649054
 30
0.0
 11
3799.3421865409959537
 21
-364.1869490881329057
 31
0.0
  0
LINE
  5
D13A
  8
0
 10
3808.4171128075959132
 20
-364.1869490881329057
 30
0.0
 11
3808.4171128075959132
 21
-364.1928441065671223
 31
0.0
  0
LINE
  5
D13B
  8
0
 10
3808.4171128075959132
 20
-364.19317520551391
 30
0.0
 11
3808.4171128075959132
 21
-364.1931752055177185
 31
0.0
  0
LINE
  5
D13C
  8
0
 10
3801.9171128075959132
 20
-364.1869490881329057
 30
0.0
 11
3801.9171128075959132
 21
-364.1987869710537211
 31
0.0
  0
LINE
  5
D13D
  8
0
 10
3805.8421865409959537
 20
-364.1869490881329057
 30
0.0
 11
3805.8421865409959537
 21
-364.198786971053778
 31
0.0
  0
LINE
  5
D13E
  8
0
 10
3800.2886113750960249
 20
-365.7413756215328817
 30
0.0
 11
3800.9706879735958864
 21
-365.7413756215328817
 31
0.0
  0
LINE
  5
D13F
  8
0
 10
3800.9329403765959796
 20
-365.741375186732796
 30
0.0
 11
3800.9329403765959796
 21
-366.4255827707328876
 31
0.0
  0
ARC
  5
D140
  8
0
 10
3800.8958891657880486
 20
-366.498723763149826
 30
0.0
 40
0.0819902249909078
 50
359.1963861662616182
 51
63.1344831586136408
  0
ARC
  5
D141
  8
0
 10
3800.9016977769888399
 20
-366.501714560349285
 30
0.0
 40
0.0761957899097576
 50
292.3827438745627774
 51
1.384380968867176
  0
ARC
  5
D142
  8
0
 10
3800.9194989355842154
 20
-366.5444046954323767
 30
0.0
 40
0.0299440547063152
 50
269.7778842017639249
 51
291.9924497169727147
  0
LINE
  5
D143
  8
0
 10
3800.9193828531961117
 20
-366.5743485251329048
 30
0.0
 11
3800.3399164968791411
 21
-366.574349643674509
 31
0.0
  0
ARC
  5
D144
  8
0
 10
3800.3398113518960599
 20
-366.5443498279329901
 30
0.0
 40
0.0299999999999629
 50
248.0292276300390029
 51
270.2008125357032782
  0
ARC
  5
D145
  8
0
 10
3800.3547563126130626
 20
-366.5053102755064174
 30
0.0
 40
0.0717995897486256
 50
220.2825899429307128
 51
248.6248838969723067
  0
ARC
  5
D146
  8
0
 10
3800.3646052731628515
 20
-366.4992679194347147
 30
0.0
 40
0.0832383246032814
 50
166.4140070387796868
 51
219.0721171101099003
  0
ARC
  5
D147
  8
0
 10
3800.3605453776672221
 20
-366.4964038538528257
 30
0.0
 40
0.0786405502281882
 50
115.7673049106049064
 51
167.7475979106962996
  0
LINE
  5
D148
  8
0
 10
3800.9329403765959796
 20
-366.4255827707328876
 30
0.0
 11
3800.3263589720959317
 21
-366.4255827707328876
 31
0.0
  0
LINE
  5
D149
  8
0
 10
3800.3263589720959317
 20
-366.4255827707328876
 30
0.0
 11
3800.3263589720959317
 21
-365.7413756215328817
 31
0.0
  0
LINE
  5
D14A
  8
0
 10
3800.9882196846961051
 20
-366.9257902558329079
 30
0.0
 11
3800.2710796639948967
 21
-366.9257902558329079
 31
0.0
  0
ARC
  5
D14B
  8
0
 10
3800.2710796639948967
 20
-366.9561608023452095
 30
0.0
 40
0.030370546512323
 50
90.0
 51
146.9416850899376925
  0
ARC
  5
D14C
  8
0
 10
3800.5197741477868476
 20
-367.1143485251828906
 30
0.0
 40
0.3251101179485508
 50
147.4847270134654877
 51
212.5152729865316985
  0
ARC
  5
D14D
  8
0
 10
3800.2710806274271818
 20
-367.2725356209659253
 30
0.0
 40
0.0303716960327956
 50
213.0583149100623075
 51
269.9982301559438156
  0
LINE
  5
D14E
  8
0
 10
3800.2710796892570215
 20
-367.3029073169843173
 30
0.0
 11
3800.9882188053088612
 21
-367.3029073170329184
 31
0.0
  0
ARC
  5
D14F
  8
0
 10
3800.9880363876832234
 20
-367.2721994089106943
 30
0.0
 40
0.0307084549723694
 50
270.3419501299562739
 51
326.6015051265891884
  0
ARC
  5
D150
  8
0
 10
3800.7317956911419969
 20
-367.1094051064453083
 30
0.0
 40
0.3342852215120782
 50
327.4823739409491168
 51
331.0003372014841148
  0
ARC
  5
D151
  8
0
 10
3801.0686279929432203
 20
-367.2948720134128848
 30
0.0
 40
0.0502427956341953
 50
91.2921311841374887
 51
152.2369057135232993
  0
LINE
  5
D152
  8
0
 10
3801.0674950162961068
 20
-367.2446419937328983
 30
0.0
 11
3801.2565097259948743
 21
-367.2446335876329044
 31
0.0
  0
ARC
  5
D153
  8
0
 10
3801.2565106129150081
 20
-367.2746322435544926
 30
0.0
 40
0.0299986559347914
 50
3.0110206000225941
 51
90.0016939667733169
  0
ARC
  5
D154
  8
0
 10
3801.5586762997709229
 20
-367.2703367676563175
 30
0.0
 40
0.2722220318775927
 50
180.5724379873662997
 51
206.3219670570393021
  0
ARC
  5
D155
  8
0
 10
3801.4629747332792249
 20
-367.3062517072983724
 30
0.0
 40
0.1708253730304612
 50
209.7600401164966115
 51
250.801001529319791
  0
ARC
  5
D156
  8
0
 10
3801.3950088513479386
 20
-367.4955472029055841
 30
0.0
 40
0.0303542944154304
 50
17.229401002839289
 51
67.1443522813877678
  0
ARC
  5
D157
  8
0
 10
3801.5120888786009345
 20
-367.4595744009600935
 30
0.0
 40
0.0921275779874944
 50
197.0301892244866906
 51
244.4713455064357959
  0
ARC
  5
D158
  8
0
 10
3801.5735006648351373
 20
-367.3325493680948171
 30
0.0
 40
0.2332182845401271
 50
244.3059750866661943
 51
263.0364629119479787
  0
ARC
  5
D159
  8
0
 10
3801.5496406340580506
 20
-367.5343650204140999
 30
0.0
 40
0.0300088227108521
 50
261.5401080590343099
 51
359.9922680717364187
  0
LINE
  5
D15A
  8
0
 10
3801.5796494561350301
 20
-367.5343644131193059
 30
0.0
 11
3801.5796494561350301
 21
-366.6943326371458056
 31
0.0
  0
ARC
  5
D15B
  8
0
 10
3801.5496455420789061
 20
-366.6943326371458056
 30
0.0
 40
0.0300039140549604
 50
0.0
 51
98.4702602048597839
  0
ARC
  5
D15C
  8
0
 10
3801.5939816286240784
 20
-366.9920493302760747
 30
0.0
 40
0.3310037777402627
 50
98.4702602048597839
 51
106.393527538792199
  0
ARC
  5
D15D
  8
0
 10
3801.5228316445350174
 20
-366.7769481086577912
 30
0.0
 40
0.1048385535059339
 50
102.2644475289236965
 51
160.5996073636634094
  0
ARC
  5
D15E
  8
0
 10
3801.3951900608949472
 20
-366.7334055121328902
 30
0.0
 40
0.030048395299998
 50
292.7265980986891236
 51
343.1328953463993798
  0
ARC
  5
D15F
  8
0
 10
3801.4843694038368085
 20
-366.9596686978849789
 30
0.0
 40
0.2131629020179083
 50
111.3400866563787019
 51
129.2398844465107004
  0
ARC
  5
D160
  8
0
 10
3801.4530194015578672
 20
-366.9139289879256012
 30
0.0
 40
0.1579748048874614
 50
130.9276464829939925
 51
155.6993362569351973
  0
ARC
  5
D161
  8
0
 10
3801.5833717190462266
 20
-366.9626923555226199
 30
0.0
 40
0.2969875966115591
 50
157.4745837879015937
 51
178.6394209062029006
  0
LINE
  5
D162
  8
0
 10
3801.286467854195962
 20
-366.9556405771328969
 30
0.0
 11
3801.286467854195962
 21
-367.2730564730329093
 31
0.0
  0
ARC
  5
D163
  8
0
 10
3800.9880378307620958
 20
-366.9564899857144837
 30
0.0
 40
0.0307002684949395
 50
32.9209674053370023
 51
89.6606047981372996
  0
ARC
  5
D164
  8
0
 10
3800.696025802362783
 20
-367.1405625750954869
 30
0.0
 40
0.3758847261276562
 50
29.1983621300607616
 51
32.2824617544002805
  0
ARC
  5
D165
  8
0
 10
3801.068628232111223
 20
-366.933826315318413
 30
0.0
 40
0.0502433228796
 50
207.7147304889919042
 51
268.7084567348271094
  0
LINE
  5
D166
  8
0
 10
3801.0674957589958467
 20
-366.9840568737329249
 30
0.0
 11
3801.2565096872299364
 21
-366.9840464788329086
 31
0.0
  0
ARC
  5
D167
  8
0
 10
3801.2565080372392003
 20
-366.9540441592665729
 30
0.0
 40
0.0300023196116836
 50
270.0031510053420902
 51
356.9498617327774923
  0
ARC
  5
D168
  8
0
 10
3799.8249767603538203
 20
-367.114347008373727
 30
0.0
 40
1.2094249158982171
 50
352.5333953119650801
 51
7.4663359529028961
  0
ARC
  5
D169
  8
0
 10
3801.380285164480938
 20
-369.1228143161075081
 30
0.0
 40
0.5015346116376256
 50
180.1752697363284881
 51
269.9274009919431023
  0
LINE
  5
D16A
  8
0
 10
3801.3796496742947966
 20
-369.6243485251329162
 30
0.0
 11
3806.3796496743962052
 21
-369.6243485251329162
 31
0.0
  0
ARC
  5
D16B
  8
0
 10
3806.3790141842100638
 20
-369.1228143162077799
 30
0.0
 40
0.5015346115372612
 50
270.072599008056784
 51
359.8247302751000234
  0
ARC
  5
D16C
  8
0
 10
3806.379014872020889
 20
-369.1228159766292833
 30
0.0
 40
1.0015327496822919
 50
270.0363158362802096
 51
359.9123257872001886
  0
LINE
  5
D16D
  8
0
 10
3806.3796496743962052
 20
-370.1243485251329162
 30
0.0
 11
3801.3796496742947966
 21
-370.1243485251329162
 31
0.0
  0
ARC
  5
D16E
  8
0
 10
3801.3802844767419629
 20
-369.1228159764581847
 30
0.0
 40
1.001532749853413
 50
180.0876742225736109
 51
269.9636841596812928
  0
LINE
  5
D16F
  8
0
 10
3801.4239457840799332
 20
-366.7421241384146811
 30
0.0
 11
3801.4239457840799332
 21
-367.4863800270293268
 31
0.0
  0
LINE
  5
D170
  8
0
 10
3799.3421865409959537
 20
-364.1869490881329057
 30
0.0
 11
3801.9171128075959132
 21
-364.1869490881329057
 31
0.0
  0
LINE
  5
D171
  8
0
 10
3801.5942166031950364
 20
-364.5942707303948964
 30
0.0
 11
3801.5942166031950364
 21
-364.5435069704745956
 31
0.0
  0
LINE
  5
D172
  8
0
 10
3799.6650827451949226
 20
-364.5435082579328991
 30
0.0
 11
3799.6650827451949226
 21
-364.594268746232899
 31
0.0
  0
LINE
  5
D173
  8
0
 10
3806.1650827453950114
 20
-364.543506970584076
 30
0.0
 11
3806.1650827451949226
 21
-364.594268746232899
 31
0.0
  0
ARC
  5
D174
  8
0
 10
3804.6445675973950529
 20
-349.1070411117810863
 30
0.0
 40
16.1925115784247708
 50
251.6175329046565992
 51
251.984997949929209
  0
ARC
  5
D175
  8
0
 10
3799.6406229018061822
 20
-364.1930096560404877
 30
0.0
 40
0.2984364067269589
 50
179.9682167238196939
 51
249.9115531447455965
  0
ARC
  5
D176
  8
0
 10
3799.6257126664959287
 20
-364.5435082579328991
 30
0.0
 40
0.0393700786999984
 50
0.0
 51
73.6822396006951834
  0
LINE
  5
D177
  8
0
 10
3799.6367742496900064
 20
-364.5057240750771257
 30
0.0
 11
3801.6225305987959473
 21
-364.5057240750771257
 31
0.0
  0
ARC
  5
D178
  8
0
 10
3799.7044528241040098
 20
-364.5942687460391198
 30
0.0
 40
0.0393700789080489
 50
180.0000002820985969
 51
260.9999998790556788
  0
LINE
  5
D179
  8
0
 10
3799.6982939867962159
 20
-364.6331541139331875
 30
0.0
 11
3801.5610053618929669
 21
-364.6331541139331875
 31
0.0
  0
ARC
  5
D17A
  8
0
 10
3801.5548488476679267
 20
-364.594270730491985
 30
0.0
 40
0.0393677555270754
 50
278.9971125471682853
 51
0.0000001412056359
  0
ARC
  5
D17B
  8
0
 10
3801.6335828155720264
 20
-364.5435069704290072
 30
0.0
 40
0.0393662123760807
 50
106.3052036295006957
 51
180.0000000664437039
  0
ARC
  5
D17C
  8
0
 10
3800.0600533300980715
 20
-359.660069427835424
 30
0.0
 40
5.0913346555697574
 50
287.8718783693275896
 51
289.1793442342914204
  0
ARC
  5
D17D
  8
0
 10
3801.6185594626081183
 20
-364.192868029593285
 30
0.0
 40
0.298612011934467
 50
292.4702335894447174
 51
358.8642366609814189
  0
LINE
  5
D17E
  8
0
 10
3800.1573642779949296
 20
-365.2078324598329004
 30
0.0
 11
3801.1019350707888407
 21
-365.2078324598329004
 31
0.0
  0
ARC
  5
D17F
  8
0
 10
3801.1178915840960144
 20
-365.1718408944328758
 30
0.0
 40
0.0393700786999986
 50
199.6997180530003106
 51
246.0903578462470023
  0
ARC
  5
D180
  8
0
 10
3801.4144182611048564
 20
-365.0656706186564975
 30
0.0
 40
0.3543307074081612
 50
159.4807454634272972
 51
199.6997181263033951
  0
ARC
  5
D181
  8
0
 10
3801.50659881829597
 20
-365.1001708287329279
 30
0.0
 40
0.4527559054999998
 50
98.999999998330253
 51
159.4807455292817053
  0
ARC
  5
D182
  8
0
 10
4171.5989083561516964
 20
-2701.3657844185058821
 30
0.0
 40
2365.8502562889539149
 50
98.9984646714145811
 51
99.0015353533408131
  0
ARC
  5
D183
  8
0
 10
3800.9706877818380235
 20
-365.7113610874858978
 30
0.0
 40
0.0300146459948606
 50
269.6541679447636284
 51
359.9730851289119755
  0
LINE
  5
D184
  8
0
 10
3801.0007024245210232
 20
-365.7113751869588896
 30
0.0
 11
3801.0007024245210232
 21
-365.617264048832908
 31
0.0
  0
ARC
  5
D185
  8
0
 10
3800.2886114838411231
 20
-365.7113611710395276
 30
0.0
 40
0.0300145629439546
 50
180.0267515127235924
 51
270.3459914789789877
  0
LINE
  5
D186
  8
0
 10
3800.2585969241690691
 20
-365.711375184897804
 30
0.0
 11
3800.2585529834909721
 21
-365.617264048832908
 31
0.0
  0
LINE
  5
D187
  8
0
 10
3800.2486368506961298
 20
-365.617264048832908
 30
0.0
 11
3801.0106588021958487
 21
-365.617264048832908
 31
0.0
  0
ARC
  5
D188
  8
0
 10
3801.0106588021958487
 20
-365.5975790094328772
 30
0.0
 40
0.019685039399997
 50
270.0
 51
294.1679355936166758
  0
ARC
  5
D189
  8
0
 10
3799.1252163267399737
 20
-361.6762671502506805
 30
0.0
 40
4.3707217793436746
 50
295.6723409546752919
 51
296.2445568512097793
  0
ARC
  5
D18A
  8
0
 10
3801.0503910725160495
 20
-365.5820362325928272
 30
0.0
 40
0.0162664847280688
 50
297.7489790954227828
 51
359.925370310864821
  0
ARC
  5
D18B
  8
0
 10
3801.0502508262748051
 20
-365.4557214278992774
 30
0.0
 40
0.0164070600537956
 50
0.3704212727287293
 51
61.9680915119434275
  0
ARC
  5
D18C
  8
0
 10
3801.2768559999658464
 20
-365.0021376965866011
 30
0.0
 40
0.4906372048328837
 50
241.1457511221802861
 51
243.5034955612763099
  0
ARC
  5
D18D
  8
0
 10
3801.0568150286958371
 20
-365.4028812022328907
 30
0.0
 40
0.0334645668999958
 50
179.9999999999967031
 51
240.0000000000931948
  0
LINE
  5
D18E
  8
0
 10
3801.0233504617958715
 20
-365.4028812022328907
 30
0.0
 11
3801.0233504617958715
 21
-365.361752237732901
 31
0.0
  0
ARC
  5
D18F
  8
0
 10
3801.0627205404948654
 20
-365.361752237732901
 30
0.0
 40
0.0393700786999984
 50
90.0
 51
180.0
  0
LINE
  5
D190
  8
0
 10
3801.0776811703958629
 20
-365.3223821590328839
 30
0.0
 11
3800.1816181782960484
 21
-365.3223821590328839
 31
0.0
  0
ARC
  5
D191
  8
0
 10
3801.0776811703922249
 20
-365.2625396393303276
 30
0.0
 40
0.0598425197045754
 50
269.9995362185504177
 51
317.3754841938709887
  0
ARC
  5
D192
  8
0
 10
3801.0776811697160156
 20
-365.2625396399595843
 30
0.0
 40
0.0598425206243312
 50
42.6245158079752997
 51
66.0903574278856496
  0
LINE
  5
D193
  8
0
 10
3801.0400827451321675
 20
-365.4318623672958211
 30
0.0
 11
3800.2192166035429182
 21
-365.4318623672958211
 31
0.0
  0
ARC
  5
D194
  8
0
 10
3800.2486403202328802
 20
-365.5975462215847074
 30
0.0
 40
0.0197178275534281
 50
245.8699568222469907
 51
269.9899182692655017
  0
ARC
  5
D195
  8
0
 10
3654.3060883923549227
 20
-665.3519996510209467
 30
0.0
 40
333.3748944885086871
 50
64.0396603503821495
 51
64.0471618547989294
  0
ARC
  5
D196
  8
0
 10
3800.209039654992921
 20
-365.5819500068150205
 30
0.0
 40
0.0164084440231217
 50
181.482447770541711
 51
241.9944836052108883
  0
ARC
  5
D197
  8
0
 10
3800.2088857702337918
 20
-365.4556287471364726
 30
0.0
 40
0.0162490728310372
 50
117.6789889974422039
 51
179.9527809818007995
  0
ARC
  5
D198
  8
0
 10
3799.9824504787961814
 20
-365.0021513063991279
 30
0.0
 40
0.4906218438723648
 50
296.4964665472471097
 51
298.8542866567540841
  0
ARC
  5
D199
  8
0
 10
3800.2024843197791597
 20
-365.4028812021750241
 30
0.0
 40
0.0334645671159706
 50
300.0000011365268051
 51
359.9999999009189082
  0
LINE
  5
D19A
  8
0
 10
3800.2359488868951303
 20
-365.4028812022328907
 30
0.0
 11
3800.2359488868951303
 21
-365.361752237732901
 31
0.0
  0
ARC
  5
D19B
  8
0
 10
3800.1965788081961364
 20
-365.361752237732901
 30
0.0
 40
0.0393700786999984
 50
359.9999999999968168
 51
90.0
  0
ARC
  5
D19C
  8
0
 10
3800.1816181782960484
 20
-365.2625396393328856
 30
0.0
 40
0.0598425197000072
 50
208.2837110773392055
 51
270.0
  0
ARC
  5
D19D
  8
0
 10
3800.1816181784561195
 20
-365.2625396394188897
 30
0.0
 40
0.0598425198816245
 50
113.9096422894734957
 51
151.7162889226636082
  0
ARC
  5
D19E
  8
0
 10
3800.1398440553120963
 20
-365.170387854133196
 30
0.0
 40
0.0413407389738014
 50
295.0747577256095155
 51
341.7812597056063169
  0
ARC
  5
D19F
  8
0
 10
3799.8448810867598695
 20
-365.0656706188099179
 30
0.0
 40
0.3543307082363944
 50
340.6090262986502921
 51
20.5192545162262689
  0
ARC
  5
D1A0
  8
0
 10
3799.7527005303750229
 20
-365.1001708287474798
 30
0.0
 40
0.4527559055243095
 50
20.5192544741337493
 51
80.9999999879526769
  0
ARC
  5
D1A1
  8
0
 10
3800.2470626233530311
 20
-361.5736283632086838
 30
0.0
 40
3.1083508225125511
 50
259.8313292405459833
 51
262.1686707399140914
  0
ARC
  5
D1A2
  8
0
 10
3800.326649208919207
 20
-365.1930789234464214
 30
0.0
 40
0.4033611447106071
 50
252.180941244107089
 51
287.8205974458185779
  0
ARC
  5
D1A3
  8
0
 10
3800.4525874854371068
 20
-365.586715873980495
 30
0.0
 40
0.0099471870490932
 50
75.4759894176096395
 51
104.5240105824708934
  0
ARC
  5
D1A4
  8
0
 10
3800.6296513186448465
 20
-364.7990881366227995
 30
0.0
 40
0.7973430752856647
 50
257.3532972108358763
 51
282.6464142982454177
  0
ARC
  5
D1A5
  8
0
 10
3800.8067113395200067
 20
-365.586809964531426
 30
0.0
 40
0.0100374731482955
 50
75.6124280483365681
 51
104.3911552158780012
  0
ARC
  5
D1A6
  8
0
 10
3800.9326381772211789
 20
-365.1930553187726787
 30
0.0
 40
0.4033809587425117
 50
252.1819388310944134
 51
287.8176222291178874
  0
ARC
  5
D1A7
  8
0
 10
3800.3266506514619323
 20
-365.8431795660819716
 30
0.0
 40
0.4020118110119155
 50
72.118233292258779
 51
107.8807571131792002
  0
ARC
  5
D1A8
  8
0
 10
3800.4525863311241665
 20
-365.4509438225891245
 30
0.0
 40
0.009962117813009
 50
255.4874042297346932
 51
284.511703696512825
  0
ARC
  5
D1A9
  8
0
 10
3800.6296503380449394
 20
-366.2384257992654852
 30
0.0
 40
0.7971858970853845
 50
77.3508728275292441
 51
102.6491271724706991
  0
ARC
  5
D1AA
  8
0
 10
3800.8067143708180993
 20
-365.4507222696456097
 30
0.0
 40
0.0101767602050747
 50
255.8007167675883977
 51
284.1992832323587095
  0
ARC
  5
D1AB
  8
0
 10
3800.9326398900789172
 20
-365.8431688827046173
 30
0.0
 40
0.4019985251637091
 50
72.1209105071621934
 51
107.8808746339464051
  0
ARC
  5
D1AC
  8
0
 10
3801.057116336782201
 20
-365.5788639216211777
 30
0.0
 40
0.0020571507784135
 50
59.8570505561303818
 51
120.3528957093058978
  0
ARC
  5
D1AD
  8
0
 10
3801.0508550521171856
 20
-365.5630664555009162
 30
0.0
 40
0.015802689166795
 50
297.489503211989927
 51
359.7133000113793173
  0
ARC
  5
D1AE
  8
0
 10
3801.0571376551702087
 20
-365.4585300629111089
 30
0.0
 40
0.0023210320728226
 50
242.2563989603193875
 51
296.6579639690899057
  0
ARC
  5
D1AF
  8
0
 10
3801.0508565046079639
 20
-365.4746065125081032
 30
0.0
 40
0.0158012390936401
 50
0.2884596035029403
 51
62.392383648830041
  0
ARC
  5
D1B0
  8
0
 10
3800.2021354313269512
 20
-365.4585885529696156
 30
0.0
 40
0.0022719312033083
 50
244.6062751854526027
 51
298.4611375192192781
  0
ARC
  5
D1B1
  8
0
 10
3800.208279629388926
 20
-365.474570450855424
 30
0.0
 40
0.0156429891187749
 50
117.0687362539513003
 51
179.8378407591285111
  0
ARC
  5
D1B2
  8
0
 10
3800.2021881040727749
 20
-365.5788805775720789
 30
0.0
 40
0.0020646661785697
 50
60.1466475124982978
 51
120.1491081675521997
  0
ARC
  5
D1B3
  8
0
 10
3800.2084836533531416
 20
-365.5630422736261949
 30
0.0
 40
0.0158509066168888
 50
181.2801412875579103
 51
242.4453880843333877
  0
LINE
  5
D1B4
  8
0
 10
3800.452586253572008
 20
-365.4609059404018012
 30
0.0
 11
3800.452586253572008
 21
-365.5767686870075863
 31
0.0
  0
LINE
  5
D1B5
  8
0
 10
3800.8067143708180993
 20
-365.4608990298506228
 30
0.0
 11
3800.8067143708180993
 21
-365.5767724918409272
 31
0.0
  0
LINE
  5
D1B6
  8
0
 10
3807.4706879734949325
 20
-365.7413756215328817
 30
0.0
 11
3806.7886113749959804
 21
-365.7413756215328817
 31
0.0
  0
LINE
  5
D1B7
  8
0
 10
3806.8263589719958873
 20
-365.741375186732796
 30
0.0
 11
3806.8263589719958873
 21
-366.4255827707328876
 31
0.0
  0
ARC
  5
D1B8
  8
0
 10
3806.8634101828029088
 20
-366.498723763149826
 30
0.0
 40
0.0819902249909078
 50
116.8655168413862953
 51
180.8036138337384102
  0
ARC
  5
D1B9
  8
0
 10
3806.8576015716021175
 20
-366.501714560349285
 30
0.0
 40
0.0761957899097576
 50
178.6156190311328089
 51
247.6172561254371942
  0
ARC
  5
D1BA
  8
0
 10
3806.8398004130071968
 20
-366.5444046954323767
 30
0.0
 40
0.0299440547063152
 50
248.007550283027399
 51
270.2221157982360751
  0
LINE
  5
D1BB
  8
0
 10
3806.8399164953948457
 20
-366.5743485251329048
 30
0.0
 11
3807.4193828517131806
 21
-366.574349643674509
 31
0.0
  0
ARC
  5
D1BC
  8
0
 10
3807.4194879966948974
 20
-366.5443498279329901
 30
0.0
 40
0.0299999999999629
 50
269.7991874642966081
 51
291.9707723699610824
  0
ARC
  5
D1BD
  8
0
 10
3807.4045430359778948
 20
-366.5053102755064174
 30
0.0
 40
0.0717995897486256
 50
291.3751161030277217
 51
319.7174100570692872
  0
ARC
  5
D1BE
  8
0
 10
3807.3946940754281059
 20
-366.4992679194347147
 30
0.0
 40
0.0832383246032814
 50
320.9278828898900997
 51
13.5859929612203008
  0
ARC
  5
D1BF
  8
0
 10
3807.3987539709241901
 20
-366.4964038538528257
 30
0.0
 40
0.0786405502281882
 50
12.2524020893036205
 51
64.2326950893950368
  0
LINE
  5
D1C0
  8
0
 10
3806.8263589719958873
 20
-366.4255827707328876
 30
0.0
 11
3807.4329403764959352
 21
-366.4255827707328876
 31
0.0
  0
LINE
  5
D1C1
  8
0
 10
3807.4329403764959352
 20
-366.4255827707328876
 30
0.0
 11
3807.4329403764959352
 21
-365.7413756215328817
 31
0.0
  0
LINE
  5
D1C2
  8
0
 10
3806.7710796638962165
 20
-366.9257902558329079
 30
0.0
 11
3807.4882196845960607
 21
-366.9257902558329079
 31
0.0
  0
ARC
  5
D1C3
  8
0
 10
3807.4882196845960607
 20
-366.9561608023452095
 30
0.0
 40
0.030370546512323
 50
33.0583149100623217
 51
90.0
  0
ARC
  5
D1C4
  8
0
 10
3807.2395252008050193
 20
-367.1143485251828906
 30
0.0
 40
0.3251101179485532
 50
327.4847270134682731
 51
32.5152729865344199
  0
ARC
  5
D1C5
  8
0
 10
3807.4882187211637756
 20
-367.2725356209659253
 30
0.0
 40
0.0303716960327956
 50
270.0017698440562981
 51
326.9416850899377209
  0
LINE
  5
D1C6
  8
0
 10
3807.4882196593348453
 20
-367.3029073169843173
 30
0.0
 11
3806.7710805432820962
 21
-367.3029073170329184
 31
0.0
  0
ARC
  5
D1C7
  8
0
 10
3806.7712629609090982
 20
-367.2721994089106943
 30
0.0
 40
0.0307084549723694
 50
213.3984948734108116
 51
269.6580498700437261
  0
ARC
  5
D1C8
  8
0
 10
3807.0275036574498699
 20
-367.1094051064453083
 30
0.0
 40
0.3342852215120782
 50
208.9996627985159137
 51
212.5176260590507979
  0
ARC
  5
D1C9
  8
0
 10
3806.6906713556481918
 20
-367.2948720134128848
 30
0.0
 40
0.0502427956341953
 50
27.7630942864767185
 51
88.7078688158625255
  0
LINE
  5
D1CA
  8
0
 10
3806.6918043322962149
 20
-367.2446419937328983
 30
0.0
 11
3806.5027896225960831
 21
-367.2446335876329044
 31
0.0
  0
ARC
  5
D1CB
  8
0
 10
3806.5027887356759493
 20
-367.2746322435544926
 30
0.0
 40
0.0299986559347914
 50
89.9983060332266831
 51
176.9889793999774099
  0
ARC
  5
D1CC
  8
0
 10
3806.2006230488209439
 20
-367.2703367676563175
 30
0.0
 40
0.2722220318775927
 50
333.6780329429606127
 51
359.4275620126337003
  0
ARC
  5
D1CD
  8
0
 10
3806.2963246153121872
 20
-367.3062517072983724
 30
0.0
 40
0.1708253730304612
 50
289.1989984706801238
 51
330.2399598835033885
  0
ARC
  5
D1CE
  8
0
 10
3806.3642904972421093
 20
-367.4955472029055841
 30
0.0
 40
0.0303542944154304
 50
112.8556477186122038
 51
162.7705989971607039
  0
ARC
  5
D1CF
  8
0
 10
3806.2472104699900228
 20
-367.4595744009600935
 30
0.0
 40
0.0921275779874944
 50
295.5286544935642041
 51
342.969810775513281
  0
ARC
  5
D1D0
  8
0
 10
3806.1857986837558201
 20
-367.3325493680948171
 30
0.0
 40
0.2332182845401271
 50
276.9635370880520213
 51
295.694024913333692
  0
ARC
  5
D1D1
  8
0
 10
3806.2096587145329067
 20
-367.5343650204140999
 30
0.0
 40
0.0300088227108521
 50
180.007731928263496
 51
278.4598919409655764
  0
LINE
  5
D1D2
  8
0
 10
3806.1796498924568368
 20
-367.5343644131193059
 30
0.0
 11
3806.1796498924568368
 21
-366.6943326371458056
 31
0.0
  0
ARC
  5
D1D3
  8
0
 10
3806.2096538065120512
 20
-366.6943326371458056
 30
0.0
 40
0.0300039140549604
 50
81.5297397951402303
 51
180.0
  0
ARC
  5
D1D4
  8
0
 10
3806.1653177199668789
 20
-366.9920493302760747
 30
0.0
 40
0.3310037777402627
 50
73.6064724612077868
 51
81.5297397951402303
  0
ARC
  5
D1D5
  8
0
 10
3806.2364677040568495
 20
-366.7769481086577912
 30
0.0
 40
0.1048385535059339
 50
19.4003926363365693
 51
77.7355524710763177
  0
ARC
  5
D1D6
  8
0
 10
3806.3641092876951006
 20
-366.7334055121328902
 30
0.0
 40
0.030048395299998
 50
196.8671046536005917
 51
247.2734019013109901
  0
ARC
  5
D1D7
  8
0
 10
3806.2749299447550584
 20
-366.9596686978849789
 30
0.0
 40
0.2131629020179083
 50
50.7601155534892428
 51
68.6599133436212696
  0
ARC
  5
D1D8
  8
0
 10
3806.3062799470339996
 20
-366.9139289879256012
 30
0.0
 40
0.1579748048874614
 50
24.3006637430647885
 51
49.0723535170059506
  0
ARC
  5
D1D9
  8
0
 10
3806.175927629546095
 20
-366.9626923555226199
 30
0.0
 40
0.2969875966115591
 50
1.3605790937971161
 51
22.5254162120984383
  0
LINE
  5
D1DA
  8
0
 10
3806.4728314943959049
 20
-366.9556405771328969
 30
0.0
 11
3806.4728314943959049
 21
-367.2730564730329093
 31
0.0
  0
ARC
  5
D1DB
  8
0
 10
3806.7712615178288615
 20
-366.9564899857144837
 30
0.0
 40
0.0307002684949395
 50
90.3393952018627147
 51
147.0790325946630048
  0
ARC
  5
D1DC
  8
0
 10
3807.0632735462290839
 20
-367.1405625750954869
 30
0.0
 40
0.3758847261276562
 50
147.7175382455997124
 51
150.8016378699392135
  0
ARC
  5
D1DD
  8
0
 10
3806.6906711164810986
 20
-366.933826315318413
 30
0.0
 40
0.0502433228796
 50
271.291543265172777
 51
332.2852695110079821
  0
LINE
  5
D1DE
  8
0
 10
3806.6918035895960202
 20
-366.9840568737329249
 30
0.0
 11
3806.5027896613619305
 21
-366.9840464788329086
 31
0.0
  0
ARC
  5
D1DF
  8
0
 10
3806.5027913113522118
 20
-366.9540441592665729
 30
0.0
 40
0.0300023196116836
 50
183.050138267222394
 51
269.9968489946579098
  0
ARC
  5
D1E0
  8
0
 10
3807.9343225882380466
 20
-367.114347008373727
 30
0.0
 40
1.2094249158982171
 50
172.5336640470970906
 51
187.4666046880348063
  0
LINE
  5
D1E1
  8
0
 10
3806.3353535645119337
 20
-366.7421241384146811
 30
0.0
 11
3806.3353535645119337
 21
-367.4863800270293268
 31
0.0
  0
LINE
  5
D1E2
  8
0
 10
3808.4171128075959132
 20
-364.1869490881329057
 30
0.0
 11
3805.8421865409959537
 21
-364.1869490881329057
 31
0.0
  0
ARC
  5
D1E3
  8
0
 10
3803.114731751196814
 20
-349.1070411117810863
 30
0.0
 40
16.1925115784247708
 50
288.015002050070791
 51
288.3824670953433724
  0
ARC
  5
D1E4
  8
0
 10
3808.1186764467861394
 20
-364.1930096560404877
 30
0.0
 40
0.2984364067269589
 50
290.0884468552545172
 51
0.0317832761803103
  0
ARC
  5
D1E5
  8
0
 10
3808.1335866820959382
 20
-364.5435082579328991
 30
0.0
 40
0.0393700786999984
 50
106.3177603993048024
 51
180.0
  0
LINE
  5
D1E6
  8
0
 10
3808.122525098900951
 20
-364.5057240750771257
 30
0.0
 11
3806.1367687497959196
 21
-364.5057240750771257
 31
0.0
  0
ARC
  5
D1E7
  8
0
 10
3808.0548465244878571
 20
-364.5942687460391198
 30
0.0
 40
0.0393700789080488
 50
279.0000001209436959
 51
359.9999878355982901
  0
LINE
  5
D1E8
  8
0
 10
3808.0610053617961057
 20
-364.6331541139331875
 30
0.0
 11
3806.1982939866979905
 21
-364.6331541139331875
 31
0.0
  0
ARC
  5
D1E9
  8
0
 10
3806.2044505011940601
 20
-364.5942707300068832
 30
0.0
 40
0.0393677560487074
 50
179.9971128179907964
 51
261.0028871727582782
  0
ARC
  5
D1EA
  8
0
 10
3806.1257165330198404
 20
-364.5435069704290072
 30
0.0
 40
0.0393662123760807
 50
359.9999999335561824
 51
73.6947963704992333
  0
ARC
  5
D1EB
  8
0
 10
3807.6992460184928859
 20
-359.660069427835424
 30
0.0
 40
5.0913346555697574
 50
250.820655765708608
 51
252.1281216306722968
  0
ARC
  5
D1EC
  8
0
 10
3806.1407398859842033
 20
-364.192868029593285
 30
0.0
 40
0.298612011934467
 50
181.1357633390186095
 51
247.529766410555311
  0
LINE
  5
D1ED
  8
0
 10
3807.6019350705960278
 20
-365.2078324598329004
 30
0.0
 11
3806.6573642778021167
 21
-365.2078324598329004
 31
0.0
  0
ARC
  5
D1EE
  8
0
 10
3806.6414077644958525
 20
-365.1718408944328758
 30
0.0
 40
0.0393700786999986
 50
293.909642153752884
 51
340.3002819469996894
  0
ARC
  5
D1EF
  8
0
 10
3806.34488108748792
 20
-365.0656706186564975
 30
0.0
 40
0.3543307074081612
 50
340.3002818736965764
 51
20.5192545365726708
  0
ARC
  5
D1F0
  8
0
 10
3806.2527005302958969
 20
-365.1001708287329279
 30
0.0
 40
0.4527559054999998
 50
20.5192544707182911
 51
81.000000001669747
  0
ARC
  5
D1F1
  8
0
 10
3436.1603909924378968
 20
-2701.3657844185058821
 30
0.0
 40
2365.8502562889539149
 50
80.9984646466591869
 51
81.0015353285854474
  0
ARC
  5
D1F2
  8
0
 10
3806.7886115667529339
 20
-365.7113610874858978
 30
0.0
 40
0.0300146459948606
 50
180.0269148710879108
 51
270.3458320552363716
  0
LINE
  5
D1F3
  8
0
 10
3806.7585969240708437
 20
-365.7113751869588896
 30
0.0
 11
3806.7585969240708437
 21
-365.617264048832908
 31
0.0
  0
ARC
  5
D1F4
  8
0
 10
3807.4706878647498343
 20
-365.7113611710395276
 30
0.0
 40
0.0300145629439546
 50
269.6540085210211259
 51
359.9732484872762939
  0
LINE
  5
D1F5
  8
0
 10
3807.5007024244218883
 20
-365.711375184897804
 30
0.0
 11
3807.5007463651008948
 21
-365.617264048832908
 31
0.0
  0
LINE
  5
D1F6
  8
0
 10
3807.5106624978948275
 20
-365.617264048832908
 30
0.0
 11
3806.7486405463960182
 21
-365.617264048832908
 31
0.0
  0
ARC
  5
D1F7
  8
0
 10
3806.7486405463960182
 20
-365.5975790094328772
 30
0.0
 40
0.019685039399997
 50
245.8320644063832958
 51
270.0
  0
ARC
  5
D1F8
  8
0
 10
3808.6340830218518931
 20
-361.6762671502506805
 30
0.0
 40
4.3707217793436746
 50
243.755443148790107
 51
244.3276590453247934
  0
ARC
  5
D1F9
  8
0
 10
3806.7089082760749079
 20
-365.5820362325928272
 30
0.0
 40
0.0162664847280687
 50
180.0746296891352074
 51
242.251020904552604
  0
ARC
  5
D1FA
  8
0
 10
3806.7090485223170617
 20
-365.4557214278992774
 30
0.0
 40
0.0164070600537952
 50
118.0319084880795941
 51
179.6295787272711948
  0
ARC
  5
D1FB
  8
0
 10
3806.482443348625111
 20
-365.0021376965866011
 30
0.0
 40
0.4906372048328837
 50
296.4965044387236048
 51
298.8542488778197139
  0
ARC
  5
D1FC
  8
0
 10
3806.7024843198960298
 20
-365.4028812022328907
 30
0.0
 40
0.0334645668999958
 50
299.9999999999067768
 51
0.0000000000032569
  0
LINE
  5
D1FD
  8
0
 10
3806.7359488867959953
 20
-365.4028812022328907
 30
0.0
 11
3806.7359488867959953
 21
-365.361752237732901
 31
0.0
  0
ARC
  5
D1FE
  8
0
 10
3806.696578808096092
 20
-365.361752237732901
 30
0.0
 40
0.0393700786999984
 50
0.0
 51
90.0
  0
LINE
  5
D1FF
  8
0
 10
3806.681618178196004
 20
-365.3223821590328839
 30
0.0
 11
3807.577681170294909
 21
-365.3223821590328839
 31
0.0
  0
ARC
  5
D200
  8
0
 10
3806.6816181781991872
 20
-365.2625396393303276
 30
0.0
 40
0.0598425197045754
 50
222.6245158061290113
 51
270.0004637814495823
  0
ARC
  5
D201
  8
0
 10
3806.6816181788749418
 20
-365.2625396399595843
 30
0.0
 40
0.0598425206243312
 50
113.9096425721142936
 51
137.3754841920246861
  0
LINE
  5
D202
  8
0
 10
3806.7192166034601541
 20
-365.4318623672958211
 30
0.0
 11
3807.5400827450480392
 21
-365.4318623672958211
 31
0.0
  0
ARC
  5
D203
  8
0
 10
3807.5106590283589867
 20
-365.5975462215847074
 30
0.0
 40
0.0197178275534281
 50
270.0100817307346119
 51
294.1300431777530093
  0
ARC
  5
D204
  8
0
 10
3953.4532109562369442
 20
-665.3519996510209467
 30
0.0
 40
333.3748944885086871
 50
115.9528381452009995
 51
115.9603396496177936
  0
ARC
  5
D205
  8
0
 10
3807.5502596935989459
 20
-365.5819500068150205
 30
0.0
 40
0.0164084440231217
 50
298.0055163947890264
 51
358.5175522291613106
  0
ARC
  5
D206
  8
0
 10
3807.550413578358075
 20
-365.4556287471364726
 30
0.0
 40
0.0162490728310361
 50
0.0472190181861501
 51
62.3210110025316695
  0
ARC
  5
D207
  8
0
 10
3807.7768488697961402
 20
-365.0021513063991279
 30
0.0
 40
0.4906218438723648
 50
241.1457133432458875
 51
243.503533452752805
  0
ARC
  5
D208
  8
0
 10
3807.5568150288117977
 20
-365.4028812021750241
 30
0.0
 40
0.0334645671159706
 50
180.0000000990810065
 51
239.9999988634731949
  0
LINE
  5
D209
  8
0
 10
3807.5233504616949176
 20
-365.4028812022328907
 30
0.0
 11
3807.5233504616949176
 21
-365.361752237732901
 31
0.0
  0
ARC
  5
D20A
  8
0
 10
3807.5627205403961852
 20
-365.361752237732901
 30
0.0
 40
0.0393700786999984
 50
90.0
 51
180.0000000000032117
  0
ARC
  5
D20B
  8
0
 10
3807.577681170294909
 20
-365.2625396393328856
 30
0.0
 40
0.0598425197000072
 50
270.0
 51
293.9096421989511896
  0
ARC
  5
D20C
  8
0
 10
3807.6194552932802253
 20
-365.170387854133196
 30
0.0
 40
0.0413407389738014
 50
198.2187402943935979
 51
244.9252422743905129
  0
ARC
  5
D20D
  8
0
 10
3807.9144182618319974
 20
-365.0656706188099179
 30
0.0
 40
0.3543307082363944
 50
159.4807454837736884
 51
199.3909737013497079
  0
ARC
  5
D20E
  8
0
 10
3808.0065988182168439
 20
-365.1001708287474798
 30
0.0
 40
0.4527559055243095
 50
99.0000000120473658
 51
159.4807455258662117
  0
ARC
  5
D20F
  8
0
 10
3807.5122367252388358
 20
-361.5736283632086838
 30
0.0
 40
3.1083508225125511
 50
277.8313292600857949
 51
280.168670759453903
  0
ARC
  5
D210
  8
0
 10
3807.4326501396708409
 20
-365.1930789234464214
 30
0.0
 40
0.4033611447106071
 50
252.1794025541813085
 51
287.819058755892911
  0
ARC
  5
D211
  8
0
 10
3807.3067118631552148
 20
-365.586715873980495
 30
0.0
 40
0.0099471870490932
 50
75.4759894175290782
 51
104.5240105823903036
  0
ARC
  5
D212
  8
0
 10
3807.1296480299461109
 20
-364.7990881366227995
 30
0.0
 40
0.7973430752856647
 50
257.3535857017545823
 51
282.6467027891641237
  0
ARC
  5
D213
  8
0
 10
3806.9525880090709506
 20
-365.586809964531426
 30
0.0
 40
0.0100374731482955
 50
75.608844784122013
 51
104.3875719516634035
  0
ARC
  5
D214
  8
0
 10
3806.8266611713697785
 20
-365.1930553187726787
 30
0.0
 40
0.4033809587425117
 50
252.1823777708821126
 51
287.818061168905615
  0
ARC
  5
D215
  8
0
 10
3807.4326486971299346
 20
-365.8431795660819716
 30
0.0
 40
0.4020118110119155
 50
72.1192428868207855
 51
107.8817667077412068
  0
ARC
  5
D216
  8
0
 10
3807.3067130174658814
 20
-365.4509438225891245
 30
0.0
 40
0.009962117813009
 50
255.4882963034872034
 51
284.5125957702651931
  0
ARC
  5
D217
  8
0
 10
3807.129649010546018
 20
-366.2384257992654852
 30
0.0
 40
0.7971858970853845
 50
77.3508728275292441
 51
102.6491271724706991
  0
ARC
  5
D218
  8
0
 10
3806.9525849777742224
 20
-365.4507222696456097
 30
0.0
 40
0.0101767602050747
 50
255.8007167676412905
 51
284.1992832324115739
  0
ARC
  5
D219
  8
0
 10
3806.8266594585120401
 20
-365.8431688827046173
 30
0.0
 40
0.4019985251637091
 50
72.1191253660536233
 51
107.8790894928378066
  0
ARC
  5
D21A
  8
0
 10
3806.7021830118092112
 20
-365.5788639216211777
 30
0.0
 40
0.0020571507784135
 50
59.647104290694088
 51
120.1429494438695968
  0
ARC
  5
D21B
  8
0
 10
3806.7084442964742266
 20
-365.5630664555009162
 30
0.0
 40
0.0158026891667907
 50
180.2866999886140889
 51
242.5104967880130005
  0
ARC
  5
D21C
  8
0
 10
3806.7021616934221129
 20
-365.4585300629111089
 30
0.0
 40
0.0023210320728226
 50
243.3420360309100943
 51
297.7436010396805841
  0
ARC
  5
D21D
  8
0
 10
3806.708442843983903
 20
-365.4746065125081032
 30
0.0
 40
0.0158012390936401
 50
117.6076163511699946
 51
179.7115403968130067
  0
ARC
  5
D21E
  8
0
 10
3807.5571639172649157
 20
-365.4585885529696156
 30
0.0
 40
0.0022719312033083
 50
241.5388624807806934
 51
295.393724814547511
  0
ARC
  5
D21F
  8
0
 10
3807.5510197192020314
 20
-365.474570450855424
 30
0.0
 40
0.0156429891187676
 50
0.1621592408518941
 51
62.9312637460762829
  0
ARC
  5
D220
  8
0
 10
3807.5571112445181825
 20
-365.5788805775720789
 30
0.0
 40
0.0020646661785697
 50
59.8508918324477719
 51
119.8533524875016951
  0
ARC
  5
D221
  8
0
 10
3807.5508156952378158
 20
-365.5630422736261949
 30
0.0
 40
0.0158509066168888
 50
297.5546119156664986
 51
358.7198587122239246
  0
LINE
  5
D222
  8
0
 10
3807.3067130950198589
 20
-365.4609059404018012
 30
0.0
 11
3807.3067130950198589
 21
-365.5767686870075863
 31
0.0
  0
LINE
  5
D223
  8
0
 10
3806.9525849777742224
 20
-365.4608990298506228
 30
0.0
 11
3806.9525849777742224
 21
-365.5767724918409272
 31
0.0
  0
LINE
  5
D224
  8
0
 10
3808.0942166033960348
 20
-364.5435082579328991
 30
0.0
 11
3808.0942166033960348
 21
-364.5942687543977172
 31
0.0
  0
LINE
  5
D225
  8
0
 10
3801.5796496743960233
 20
-366.7206477377328042
 30
0.0
 11
3806.1796498924568368
 21
-366.7206477377328042
 31
0.0
  0
LINE
  5
D226
  8
0
 10
3801.5796496743960233
 20
-367.5080493125328758
 30
0.0
 11
3806.1796498924568368
 21
-367.5080493125328758
 31
0.0
  0
LINE
  5
D228
  8
0
 10
3807.3805464491470048
 20
-367.3029073169915932
 30
0.0
 11
3807.3805464491470048
 21
-369.1243485251325183
 31
0.0
  0
LINE
  5
D229
  8
0
 10
3807.3805464491470048
 20
-366.9257902558329079
 30
0.0
 11
3807.3805464491470048
 21
-366.574349568708783
 31
0.0
  0
ARC
  5
D22A
  8
0
 10
3807.578568437812919
 20
-365.2625396393120241
 30
0.0
 40
0.0594884443748391
 50
293.1283877237734146
 51
66.8716122762253065
  0
ARC
  5
D22B
  8
0
 10
3806.6838910522828883
 20
-365.2625396393327719
 30
0.0
 40
0.0615341700944402
 50
138.8087873377563994
 51
221.1912126622436006
  0
LINE
  5
D22C
  8
0
 10
3806.8805464491470048
 20
-366.9257902558329079
 30
0.0
 11
3806.8805464491470048
 21
-366.5743486035606793
 31
0.0
  0
LINE
  5
D22D
  8
0
 10
3806.8805464491470048
 20
-367.3029073170254719
 30
0.0
 11
3806.8805464491470048
 21
-369.1243485251326888
 31
0.0
  0
LINE
  5
D22E
  8
0
 10
3800.3787528994439526
 20
-366.574349568708783
 30
0.0
 11
3800.3787528994439526
 21
-366.9257902558329079
 31
0.0
  0
LINE
  5
D22F
  8
0
 10
3800.3787528994439526
 20
-367.3029073169915932
 30
0.0
 11
3800.3787528994439526
 21
-369.124348525132973
 31
0.0
  0
ARC
  5
D230
  8
0
 10
3800.177443769643105
 20
-365.2625396393328856
 30
0.0
 40
0.0562013032399816
 50
149.6993596082020872
 51
210.3006403917950138
  0
ARC
  5
D231
  8
0
 10
3801.0754082963089786
 20
-365.2625396393327719
 30
0.0
 40
0.0615341700944428
 50
318.8087873377588721
 51
41.1912126622435935
  0
LINE
  5
D232
  8
0
 10
3800.8787528994448621
 20
-366.5743486035606793
 30
0.0
 11
3800.8787528994448621
 21
-366.9257902558329079
 31
0.0
  0
LINE
  5
D233
  8
0
 10
3800.8787528994448621
 20
-367.3029073170254719
 30
0.0
 11
3800.8787528994448621
 21
-369.1243485251328025
 31
0.0
  0
LINE
  5
D234
  8
0
 10
3807.5666626456700214
 20
-365.5823745048770093
 30
0.0
 11
3807.5666626456700214
 21
-365.4556153558328901
 31
0.0
  0
LINE
  5
D235
  8
0
 10
3806.6926418051448309
 20
-365.4556153558331744
 30
0.0
 11
3806.6926418051448309
 21
-365.5820574202328999
 31
0.0
  0
LINE
  5
D236
  8
0
 10
3800.1926367029218454
 20
-365.4556153558266942
 30
0.0
 11
3800.1926367029218454
 21
-365.5823745048767819
 31
0.0
  0
LINE
  5
D237
  8
0
 10
3801.0666575434461265
 20
-365.5820574202356283
 30
0.0
 11
3801.0666575434461265
 21
-365.4556153558328901
 31
0.0
  0
ENDSEC
  0
EOF
