  0
SECTION
  2
HEADER
  9
$ACADVER
  1
AC1009
  9
$INSBASE
 10
3784.2586962608729664
 20
-309.2971861872538852
 30
0.0
  9
$EXTMIN
 10
3781.8109240042699639
 20
-312.00293781644109
 30
0.0
  9
$EXTMAX
 10
3786.7064683615490139
 20
-309.2922616322528029
 30
0.0
  9
$LIMMIN
 10
0.0
 20
0.0
  9
$LIMMAX
 10
11.6929133858000007
 20
8.2677165353999982
  9
$ORTHOMODE
 70
     0
  9
$REGENMODE
 70
     1
  9
$FILLMODE
 70
     1
  9
$QTEXTMODE
 70
     0
  9
$MIRRTEXT
 70
     0
  9
$DRAGMODE
 70
     2
  9
$LTSCALE
 40
0.6431102362
  9
$OSMODE
 70
  4095
  9
$ATTMODE
 70
     1
  9
$TEXTSIZE
 40
0.2
  9
$TRACEWID
 40
0.05
  9
$TEXTSTYLE
  7
STANDARD
  9
$CLAYER
  8
0
  9
$CELTYPE
  6
BYLAYER
  9
$CECOLOR
 62
   256
  9
$DIMSCALE
 40
1.0
  9
$DIMASZ
 40
0.1875
  9
$DIMEXO
 40
0.0625
  9
$DIMDLI
 40
0.4443307087
  9
$DIMRND
 40
0.0
  9
$DIMDLE
 40
0.0
  9
$DIMEXE
 40
0.125
  9
$DIMTP
 40
0.01
  9
$DIMTM
 40
0.01
  9
$DIMTXT
 40
2.0
  9
$DIMCEN
 40
0.1052362205
  9
$DIMTSZ
 40
0.0
  9
$DIMTOL
 70
     1
  9
$DIMLIM
 70
     0
  9
$DIMTIH
 70
     1
  9
$DIMTOH
 70
     1
  9
$DIMSE1
 70
     0
  9
$DIMSE2
 70
     0
  9
$DIMTAD
 70
     0
  9
$DIMZIN
 70
     0
  9
$DIMBLK
  1

  9
$DIMASO
 70
     1
  9
$DIMSHO
 70
     1
  9
$DIMPOST
  1
\X
  9
$DIMAPOST
  1

  9
$DIMALT
 70
     1
  9
$DIMALTD
 70
     2
  9
$DIMALTF
 40
25.3999999999999986
  9
$DIMLFAC
 40
1.0
  9
$DIMTOFL
 70
     0
  9
$DIMTVP
 40
0.0
  9
$DIMTIX
 70
     0
  9
$DIMSOXD
 70
     0
  9
$DIMSAH
 70
     0
  9
$DIMBLK1
  1

  9
$DIMBLK2
  1

  9
$DIMSTYLE
  2
STANDARD
  9
$DIMCLRD
 70
     0
  9
$DIMCLRE
 70
     0
  9
$DIMCLRT
 70
     0
  9
$DIMTFAC
 40
1.0
  9
$DIMGAP
 40
0.09
  9
$LUNITS
 70
     2
  9
$LUPREC
 70
     4
  9
$SKETCHINC
 40
0.1
  9
$FILLETRAD
 40
0.0
  9
$AUNITS
 70
     0
  9
$AUPREC
 70
     0
  9
$MENU
  1
.
  9
$ELEVATION
 40
0.0
  9
$PELEVATION
 40
0.0
  9
$THICKNESS
 40
0.0
  9
$LIMCHECK
 70
     0
  9
$BLIPMODE
 70
     0
  9
$CHAMFERA
 40
0.0
  9
$CHAMFERB
 40
0.0
  9
$SKPOLY
 70
     0
  9
$TDCREATE
 40
2458060.468368056230247
  9
$TDUPDATE
 40
2459571.9147569448687136
  9
$TDINDWG
 40
0.4231320602
  9
$TDUSRTIMER
 40
0.4231320602
  9
$USRTIMER
 70
     1
  9
$ANGBASE
 50
0.0
  9
$ANGDIR
 70
     0
  9
$PDMODE
 70
     0
  9
$PDSIZE
 40
0.3125
  9
$PLINEWID
 40
0.0
  9
$COORDS
 70
     1
  9
$SPLFRAME
 70
     0
  9
$SPLINETYPE
 70
     6
  9
$SPLINESEGS
 70
     8
  9
$ATTDIA
 70
     1
  9
$ATTREQ
 70
     1
  9
$HANDLING
 70
     1
  9
$HANDSEED
  5
CAE3
  9
$SURFTAB1
 70
     6
  9
$SURFTAB2
 70
     6
  9
$SURFTYPE
 70
     6
  9
$SURFU
 70
     6
  9
$SURFV
 70
     6
  9
$UCSNAME
  2

  9
$UCSORG
 10
0.0
 20
0.0
 30
0.0
  9
$UCSXDIR
 10
1.0
 20
0.0
 30
0.0
  9
$UCSYDIR
 10
0.0
 20
1.0
 30
0.0
  9
$PUCSNAME
  2

  9
$PUCSORG
 10
0.0
 20
0.0
 30
0.0
  9
$PUCSXDIR
 10
1.0
 20
0.0
 30
0.0
  9
$PUCSYDIR
 10
0.0
 20
1.0
 30
0.0
  9
$USERI1
 70
     0
  9
$USERI2
 70
     0
  9
$USERI3
 70
     0
  9
$USERI4
 70
     0
  9
$USERI5
 70
     0
  9
$USERR1
 40
0.0
  9
$USERR2
 40
0.0
  9
$USERR3
 40
0.0
  9
$USERR4
 40
0.0
  9
$USERR5
 40
0.0
  9
$WORLDVIEW
 70
     1
  9
$SHADEDGE
 70
     3
  9
$SHADEDIF
 70
    70
  9
$TILEMODE
 70
     1
  9
$MAXACTVP
 70
    64
  9
$PLIMCHECK
 70
     0
  9
$PEXTMIN
 10
1.0000000000000000E+20
 20
1.0000000000000000E+20
 30
1.0000000000000000E+20
  9
$PEXTMAX
 10
-1.0000000000000000E+20
 20
-1.0000000000000000E+20
 30
-1.0000000000000000E+20
  9
$PLIMMIN
 10
0.0
 20
0.0
  9
$PLIMMAX
 10
12.0
 20
9.0
  9
$UNITMODE
 70
     0
  9
$VISRETAIN
 70
     1
  9
$PLINEGEN
 70
     0
  9
$PSLTSCALE
 70
     1
  0
ENDSEC
  0
SECTION
  2
TABLES
  0
TABLE
  2
VPORT
 70
     1
  0
VPORT
  2
*ACTIVE
 70
     0
 10
0.0
 20
0.0
 11
1.0
 21
1.0
 12
-0.0002149499032384
 22
-0.7403579030579124
 13
0.0
 23
0.0
 14
1.0
 24
1.0
 15
0.0
 25
0.0
 16
0.0
 26
0.0
 36
23.6945210729503906
 17
3784.2589111328129547
 27
-309.9072418212891193
 37
0.0
 40
2.944252102637575
 41
1.67063492063492
 42
50.0
 43
0.0
 44
0.0
 50
0.0
 51
0.0
 71
     0
 72
 10000
 73
     1
 74
     1
 75
     0
 76
     0
 77
     0
 78
     0
  0
ENDTAB
  0
TABLE
  2
LTYPE
 70
     2
  0
LTYPE
  2
CONTINUOUS
 70
     0
  3
Solid line
 72
    65
 73
     0
 40
0.0
  0
LTYPE
  2
PHANTOM2
 70
     0
  3
___ _ _ ___ _ _ ___ _ _ ___ _ _
 72
    65
 73
     6
 40
1.25
 49
0.625
 49
-0.125
 49
0.125
 49
-0.125
 49
0.125
 49
-0.125
  0
ENDTAB
  0
TABLE
  2
LAYER
 70
     2
  0
LAYER
  2
0
 70
     0
 62
   255
  6
CONTINUOUS
  0
LAYER
  2
DEFPOINTS
 70
     0
 62
     7
  6
CONTINUOUS
  0
ENDTAB
  0
TABLE
  2
STYLE
 70
     1
  0
STYLE
  2
STANDARD
 70
     0
 40
0.0
 41
0.8
 50
0.0
 71
     0
 42
0.2
  3
txt
  4

  0
ENDTAB
  0
TABLE
  2
VIEW
 70
     0
  0
ENDTAB
  0
TABLE
  2
UCS
 70
     0
  0
ENDTAB
  0
TABLE
  2
APPID
 70
    11
  0
APPID
  2
ACAD
 70
     0
  0
APPID
  2
ACAD_MLEADERVER
 70
     0
  0
APPID
  2
ACAD_EXEMPT_FROM_CAD_STANDARDS
 70
     0
  0
APPID
  2
ACAD_NAV_VCDISPLAY
 70
     0
  0
APPID
  2
ACAECLAYERSTANDARD
 70
     0
  0
APPID
  2
ACCMTRANSPARENCY
 70
     0
  0
APPID
  2
ACAD_DSTYLE_DIMJAG
 70
     0
  0
APPID
  2
ACAD_DSTYLE_DIMTALN
 70
     0
  0
APPID
  2
ACDBATTR
 70
     0
  0
APPID
  2
ACADANNOTATIVE
 70
     0
  0
APPID
  2
ACAD_PSEXT
 70
     0
  0
ENDTAB
  0
TABLE
  2
DIMSTYLE
 70
     1
  0
DIMSTYLE
  2
STANDARD
 70
     0
  3

  4

  5

  6

  7

 40
1.0
 41
0.1875
 42
0.0625
 43
0.38
 44
0.125
 45
0.0
 46
0.0
 47
0.01
 48
0.01
140
0.15625
141
0.09
142
0.0
143
25.3999999999999986
144
1.0
145
0.0
146
1.0
147
0.09
 71
     1
 72
     0
 73
     1
 74
     1
 75
     0
 76
     0
 77
     0
 78
     4
170
     0
171
     2
172
     0
173
     0
174
     0
175
     0
176
     0
177
     0
178
     0
  0
ENDTAB
  0
ENDSEC
  0
SECTION
  2
BLOCKS
  0
BLOCK
  8
0
  2
$MODEL_SPACE
 70
     0
 10
0.0
 20
0.0
 30
0.0
  3
$MODEL_SPACE
  1

  0
ENDBLK
  5
21
  8
0
  0
BLOCK
 67
     1
  8
0
  2
$PAPER_SPACE
 70
     0
 10
0.0
 20
0.0
 30
0.0
  3
$PAPER_SPACE
  1

  0
ENDBLK
  5
1D
 67
     1
  8
0
  0
BLOCK
  8
0
  2
_FILLED
 70
     0
 10
0.0
 20
0.0
 30
0.0
  3
_FILLED
  1

  0
SOLID
  5
B73F
  8
0
  6
BYBLOCK
 62
     0
 10
0.0
 20
0.0
 30
0.0
 11
-1.0
 21
0.1666666667
 31
0.0
 12
-1.0
 22
-0.1666666667
 32
0.0
 13
-1.0
 23
-0.1666666667
 33
0.0
  0
ENDBLK
  5
B740
  8
0
  6
BYBLOCK
 62
     0
  0
ENDSEC
  0
SECTION
  2
ENTITIES
  0
ATTDEF
  5
9DCC
  8
DEFPOINTS
 10
3784.2637951728352164
 20
-309.2932616322527792
 30
0.0
 40
0.001
  1
K-72572
  3

  2
MODELNUMBER
 70
     0
1001
ACDBATTR
1070
     0
1070
     1
  0
ATTDEF
  5
9DCD
  8
DEFPOINTS
 10
3784.2637951728352164
 20
-309.2949282989195012
 30
0.0
 40
0.001
  1
ARTIFACTS
  3

  2
TRADENAME
 70
     0
1001
ACDBATTR
1070
     0
1070
     1
  0
ATTDEF
  5
9DCE
  8
DEFPOINTS
 10
3784.2637951728352164
 20
-309.2965949655861095
 30
0.0
 40
0.001
  1
ROBE HOOK
  3

  2
PRODUCT
 70
     0
1001
ACDBATTR
1070
     0
1070
     1
  0
LINE
  5
C6EB
  8
0
 10
3784.784155095072947
 20
-311.8418878990539156
 30
0.0
 11
3784.784155095072947
 21
-311.2683710970538868
 31
0.0
  0
LINE
  5
C6EC
  8
0
 10
3783.7328380057729191
 20
-311.268371091353913
 30
0.0
 11
3783.7328380057729191
 21
-311.8418830610539203
 31
0.0
  0
LINE
  5
C6ED
  8
0
 10
3782.6302621657191594
 20
-311.3051339030777172
 30
0.0
 11
3783.7328380057729191
 21
-311.3051339030777172
 31
0.0
  0
LINE
  5
C6EE
  8
0
 10
3784.784155095072947
 20
-311.3051339030777172
 30
0.0
 11
3785.8871302001170989
 21
-311.3051339030777172
 31
0.0
  0
LINE
  5
C6EF
  8
0
 10
3782.630300737836933
 20
-311.805067823502327
 30
0.0
 11
3783.7328380057729191
 21
-311.805067823502327
 31
0.0
  0
LINE
  5
C6F0
  8
0
 10
3784.784155095072947
 20
-311.805067823502327
 30
0.0
 11
3785.88709162799978
 21
-311.805067823502327
 31
0.0
  0
LINE
  5
C6F1
  8
0
 10
3783.9176841119729033
 20
-310.8600119230537757
 30
0.0
 11
3784.6001164549129498
 21
-310.8600119230537757
 31
0.0
  0
ARC
  5
C6F2
  8
0
 10
3784.5996223319671117
 20
-310.8300863259627818
 30
0.0
 40
0.0299296762217482
 50
270.9459656494090041
 51
0.1425368743999341
  0
LINE
  5
C6F3
  8
0
 10
3784.6295519155728471
 20
-310.8300118688537736
 30
0.0
 11
3784.6295519114728449
 21
-310.7373436675538869
 31
0.0
  0
LINE
  5
C6F4
  8
0
 10
3784.6295519114728449
 20
-310.7373436675538869
 30
0.0
 11
3783.8878404554739063
 21
-310.7373436675538869
 31
0.0
  0
LINE
  5
C6F5
  8
0
 10
3783.8878404554739063
 20
-310.7373436675538869
 30
0.0
 11
3783.8878404554739063
 21
-310.830010296753926
 31
0.0
  0
ARC
  5
C6F6
  8
0
 10
3783.9178424998590344
 20
-310.830010296753926
 30
0.0
 40
0.0300020443864662
 50
180.0
 51
269.6975206270086005
  0
LINE
  5
C6F7
  8
0
 10
3782.9712330501729411
 20
-309.2971861872538852
 30
0.0
 11
3785.5461593167729006
 21
-309.2971861872538852
 31
0.0
  0
ARC
  5
C6F8
  8
0
 10
3783.7910645853389724
 20
-311.820657424178421
 30
0.0
 40
0.061974690227024
 50
200.0285775452645964
 51
254.9441460224784919
  0
ARC
  5
C6F9
  8
0
 10
3783.7861825422260154
 20
-311.8337913713194212
 30
0.0
 40
0.0480410966872455
 50
256.498080894663417
 51
292.6222759739189883
  0
ARC
  5
C6FA
  8
0
 10
3783.7811486979207984
 20
-311.8217115767856171
 30
0.0
 40
0.0611277702320458
 50
292.6222759739189883
 51
319.9329332541007034
  0
ARC
  5
C6FB
  8
0
 10
3783.8508426663388491
 20
-311.8803309149869278
 30
0.0
 40
0.0299407536669036
 50
65.2916962474568123
 51
139.9329332541005897
  0
ARC
  5
C6FC
  8
0
 10
3784.2584947840678069
 20
-310.9943698874412803
 30
0.0
 40
0.9453064926339514
 50
245.2916962474567981
 51
294.7083037333246125
  0
ARC
  5
C6FD
  8
0
 10
3784.6661484361538896
 20
-311.8803342504317015
 30
0.0
 40
0.0299444251036219
 50
40.0762278227562732
 51
114.7083037333245983
  0
ARC
  5
C6FE
  8
0
 10
3784.7338813799478885
 20
-311.8233458288660813
 30
0.0
 40
0.0585735497241325
 50
220.0762278227562945
 51
264.5029825996929844
  0
ARC
  5
C6FF
  8
0
 10
3784.7286186129567795
 20
-311.8229860586778841
 30
0.0
 40
0.0586649845777074
 50
269.6599014621388051
 51
341.2039943595548266
  0
ARC
  5
C700
  8
0
 10
3783.7967944791771515
 20
-311.2934760804400867
 30
0.0
 40
0.0687072846738873
 50
130.4524551879190142
 51
158.5683833006582972
  0
ARC
  5
C701
  8
0
 10
3783.7867671650219563
 20
-311.2817158571301093
 30
0.0
 40
0.0532525157834048
 50
96.4852016836870945
 51
130.4524551879190142
  0
ARC
  5
C702
  8
0
 10
3783.7865812344020924
 20
-311.2800802091589958
 30
0.0
 40
0.0516063339948923
 50
36.75321221825034
 51
96.4852016836870945
  0
ARC
  5
C703
  8
0
 10
3783.8508589241741902
 20
-311.2298554957538954
 30
0.0
 40
0.0299999999999998
 50
220.1533205931374937
 51
294.6204033819915935
  0
LINE
  5
C704
  8
0
 10
3784.008685518573202
 20
-310.8600119230537757
 30
0.0
 11
3784.008685518573202
 21
-311.5551295299538879
 31
0.0
  0
LINE
  5
C705
  8
0
 10
3784.5087068671728048
 20
-310.8600119230537757
 30
0.0
 11
3784.5087068671728048
 21
-311.5551295299538879
 31
0.0
  0
ARC
  5
C706
  8
0
 10
3784.2580725869020171
 20
-312.118372885096619
 30
0.0
 40
0.9473873941486521
 50
105.262199569731095
 51
114.6223348903252059
  0
ARC
  5
C707
  8
0
 10
3784.2585429654877771
 20
-312.1192492019009137
 30
0.0
 40
0.9483364398020105
 50
65.3790472470752917
 51
74.7047933845830698
  0
ARC
  5
C708
  8
0
 10
3784.6661390048388967
 20
-311.229841704883313
 30
0.0
 40
0.030019439745721
 50
245.3790472470753059
 51
319.7817728194348774
  0
ARC
  5
C709
  8
0
 10
3784.7351435384548495
 20
-311.2881926957931
 30
0.0
 40
0.0603490492303609
 50
104.1583308923136002
 51
139.7817728194349058
  0
ARC
  5
C70A
  8
0
 10
3784.7297469708400968
 20
-311.2861424187087209
 30
0.0
 40
0.0572369099085976
 50
18.0885872989464289
 51
99.4169187281449354
  0
ARC
  5
C70B
  8
0
 10
3784.258696192872776
 20
-311.5551295299538879
 30
0.0
 40
0.2500106743000012
 50
180.0
 51
0.0
  0
LINE
  5
C70C
  8
0
 10
3785.2232631126230444
 20
-309.6537433728370843
 30
0.0
 11
3785.2232631126230444
 21
-309.7045058452537774
 31
0.0
  0
LINE
  5
C70D
  8
0
 10
3783.2941292543227974
 20
-309.6537453570538787
 30
0.0
 11
3783.2941292543227974
 21
-309.7045058452537774
 31
0.0
  0
LINE
  5
C70E
  8
0
 10
3783.2658262581730924
 20
-309.6159627845926821
 30
0.0
 11
3785.2515661088727938
 21
-309.6159627845926821
 31
0.0
  0
ARC
  5
C70F
  8
0
 10
3785.2626331917049356
 20
-309.6537453573312177
 30
0.0
 40
0.0393700791319643
 50
106.3094210308026959
 51
179.9971119741506129
  0
ARC
  5
C710
  8
0
 10
3785.1838943816869687
 20
-309.7045069964444224
 30
0.0
 40
0.0393687309533312
 50
278.9983246601673841
 51
0.0016753996945225
  0
ARC
  5
C711
  8
0
 10
3778.7580214662129947
 20
-289.7781937841534159
 30
0.0
 40
20.8735051207670388
 50
288.1249801344090997
 51
288.4197387011371916
  0
ARC
  5
C712
  8
0
 10
3785.2496747140480693
 20
-309.304500976798181
 30
0.0
 40
0.2965748232722325
 50
290.5018268495080065
 51
358.5867004216931946
  0
ARC
  5
C713
  8
0
 10
3783.2543722513491957
 20
-309.6538814525624161
 30
0.0
 40
0.039757235914222
 50
0.1961331893605489
 51
76.9180370308686321
  0
ARC
  5
C714
  8
0
 10
6571.600469221619278
 20
8171.9041693848148498
 30
0.0
 40
8928.1013569584411016
 50
251.8008410914910939
 51
251.8014909947690967
  0
ARC
  5
C715
  8
0
 10
3783.2683924632538037
 20
-309.3040564334442024
 30
0.0
 40
0.2972388215984428
 50
181.3244271604878008
 51
250.0892079979456071
  0
LINE
  5
C716
  8
0
 10
3785.1900518710740471
 20
-309.7433912129541795
 30
0.0
 11
3783.3273377450918815
 21
-309.7434121612964759
 31
0.0
  0
ARC
  5
C717
  8
0
 10
3783.3335434438431548
 20
-309.7044895727472067
 30
0.0
 40
0.039414192829047
 50
180.0236550824197934
 51
260.9411810529099967
  0
LINE
  5
C718
  8
0
 10
3783.8106646874730359
 20
-310.4326192581539203
 30
0.0
 11
3784.7067276795728503
 21
-310.4326192581539203
 31
0.0
  0
ARC
  5
C719
  8
0
 10
3784.7067276795728503
 20
-310.372776738453922
 30
0.0
 40
0.0598425197000001
 50
270.0
 51
327.5517959535766863
  0
ARC
  5
C71A
  8
0
 10
3784.7067276795169164
 20
-310.3727767384182812
 30
0.0
 40
0.0598425197661764
 50
327.5517959535766863
 51
66.0903576726496027
  0
ARC
  5
C71B
  8
0
 10
3784.7469380934949186
 20
-310.2820779933476842
 30
0.0
 40
0.039370078978363
 50
199.6997182941767903
 51
246.0903576726495885
  0
ARC
  5
C71C
  8
0
 10
3785.0434647676188433
 20
-310.1759077176774895
 30
0.0
 40
0.3543307049350317
 50
159.480745329300305
 51
199.6997182941767903
  0
ARC
  5
C71D
  8
0
 10
3785.1356453293801678
 20
-310.2104079302657738
 30
0.0
 40
0.4527559081872277
 50
99.0000002003997537
 51
159.480745329300305
  0
ARC
  5
C71E
  8
0
 10
3691.9847695285561713
 20
278.3263346939343137
 30
0.0
 40
595.4101335925946614
 50
278.9938994076359791
 51
279.0061007008487763
  0
LINE
  5
C71F
  8
0
 10
3784.7309815799899297
 20
-310.318069558964396
 30
0.0
 11
3783.7864107872428576
 21
-310.318069558964396
 31
0.0
  0
ARC
  5
C720
  8
0
 10
3783.8106646874730359
 20
-310.372776738453922
 30
0.0
 40
0.0598425197000072
 50
216.7519364211626964
 51
270.0
  0
ARC
  5
C721
  8
0
 10
3783.8106646874730359
 20
-310.372776738453922
 30
0.0
 40
0.0598425196999961
 50
158.4326316125608969
 51
216.7519364211601101
  0
ARC
  5
C722
  8
0
 10
3783.8106646874730359
 20
-310.372776738453922
 30
0.0
 40
0.0598425197000083
 50
113.9096421254222946
 51
158.4326316125608969
  0
ARC
  5
C723
  8
0
 10
3783.7704542740461875
 20
-310.2820779937628117
 30
0.0
 40
0.0393700784743776
 50
293.9096421254222946
 51
340.3002820847589192
  0
ARC
  5
C724
  8
0
 10
3783.4807075402281953
 20
-310.1758592281877895
 30
0.0
 40
0.34797173286506
 50
339.916447270955814
 51
20.9030891547211013
  0
ARC
  5
C725
  8
0
 10
3783.3817472041791916
 20
-310.2104077263952036
 30
0.0
 40
0.4527556807783629
 50
20.5192378927810601
 51
81.000016582323795
  0
ARC
  5
C726
  8
0
 10
3783.917132881912039
 20
-306.4212613066085282
 30
0.0
 40
3.3740990804540241
 50
259.9329352984780144
 51
262.0861527833314994
  0
LINE
  5
C727
  8
0
 10
3783.8776890968729276
 20
-310.7275011478539
 30
0.0
 11
3784.6397053113728361
 21
-310.7275011479537739
 31
0.0
  0
ARC
  5
C728
  8
0
 10
3784.6397053113760194
 20
-310.707816099545596
 30
0.0
 40
0.0196850484082827
 50
269.9999999924701228
 51
294.1509713270025941
  0
LINE
  5
C729
  8
0
 10
3784.6477592987730532
 20
-310.7257781266537791
 30
0.0
 11
3784.6869773334838101
 21
-310.7066855567213111
 31
0.0
  0
ARC
  5
C72A
  8
0
 10
3784.6793624833840113
 20
-310.6922264463485135
 30
0.0
 40
0.0163417200689632
 50
297.773408363735598
 51
359.7498245251064191
  0
ARC
  5
C72B
  8
0
 10
3784.6793385705691435
 20
-310.5659335778507852
 30
0.0
 40
0.0163656778034874
 50
0.2837556290614236
 51
62.0540114234419633
  0
ARC
  5
C72C
  8
0
 10
3784.906805758253995
 20
-310.1106527126131027
 30
0.0
 40
0.4925813860082583
 50
241.1503965493238866
 51
243.4988490479925929
  0
ARC
  5
C72D
  8
0
 10
3784.6848742113547814
 20
-310.5136883345859928
 30
0.0
 40
0.0324822425448421
 50
178.9944605892397078
 51
241.0055395407264029
  0
LINE
  5
C72E
  8
0
 10
3784.652396970972859
 20
-310.5131183013539271
 30
0.0
 11
3784.652396970972859
 21
-310.4719893368538806
 31
0.0
  0
ARC
  5
C72F
  8
0
 10
3784.6917670496732171
 20
-310.4719893368538806
 30
0.0
 40
0.0393700786999993
 50
90.0
 51
180.0
  0
ARC
  5
C730
  8
0
 10
3783.8776833650608751
 20
-310.7078160926944861
 30
0.0
 40
0.0196850559938699
 50
245.8552389828319917
 51
270.0166831461141896
  0
LINE
  5
C731
  8
0
 10
3783.8696313215182272
 20
-310.7257789995936719
 30
0.0
 11
3783.8303817737728423
 21
-310.7066743194537821
 31
0.0
  0
ARC
  5
C732
  8
0
 10
3783.838059907708157
 20
-310.6922146219957881
 30
0.0
 40
0.0163718230903442
 50
180.3035776145229079
 51
242.0315910196746927
  0
ARC
  5
C733
  8
0
 10
3783.8379198171678581
 20
-310.5658525420902265
 30
0.0
 40
0.0162315027446756
 50
117.6622901363623015
 51
179.9999496366370124
  0
ARC
  5
C734
  8
0
 10
3783.611493671819062
 20
-310.112382225897079
 30
0.0
 40
0.4906288566213142
 50
296.496476525353728
 51
298.8542775513458878
  0
ARC
  5
C735
  8
0
 10
3783.8315308289570567
 20
-310.5131183012960037
 30
0.0
 40
0.0334645671159792
 50
300.0000007281716989
 51
359.999999900915725
  0
LINE
  5
C736
  8
0
 10
3783.8649953960730272
 20
-310.5131183013539271
 30
0.0
 11
3783.8649953960730272
 21
-310.4719893368538806
 31
0.0
  0
ARC
  5
C737
  8
0
 10
3783.8256253173731238
 20
-310.4719893368538806
 30
0.0
 40
0.0393700786999993
 50
0.0
 51
90.0
  0
LINE
  5
C738
  8
0
 10
3783.9890111441741283
 20
-310.7275011478685087
 30
0.0
 11
3783.9890111441741283
 21
-310.7373436675538869
 31
0.0
  0
LINE
  5
C739
  8
0
 10
3784.5283812228722127
 20
-310.7275011479392788
 30
0.0
 11
3784.5283812228722127
 21
-310.7373436675538869
 31
0.0
  0
LINE
  5
C73A
  8
0
 10
3784.4707927710719559
 20
-310.7275011479317186
 30
0.0
 11
3784.4707927710719559
 21
-310.7373436675538869
 31
0.0
  0
LINE
  5
C73B
  8
0
 10
3784.6691292543628151
 20
-310.5420994663841725
 30
0.0
 11
3783.8482631127899367
 21
-310.5420994663841725
 31
0.0
  0
ARC
  5
C73C
  8
0
 10
3783.9556967526527842
 20
-310.9548731330132227
 30
0.0
 40
0.4033987363993383
 50
72.1816488328730372
 51
107.816844325654202
  0
ARC
  5
C73D
  8
0
 10
3784.0816335678750875
 20
-310.5611842716554065
 30
0.0
 40
0.009958633878344
 50
255.4806249252945065
 51
284.5131170849455202
  0
ARC
  5
C73E
  8
0
 10
3784.258701287148142
 20
-311.3487055479420746
 30
0.0
 40
0.7972285458975708
 50
77.3519448173343562
 51
102.6487595014200025
  0
ARC
  5
C73F
  8
0
 10
3784.4357259734051695
 20
-310.5612357812163964
 30
0.0
 40
0.0098983208704341
 50
255.5966118873355981
 51
284.7668787112036739
  0
ARC
  5
C740
  8
0
 10
3784.5616569856210845
 20
-310.9549733522184738
 30
0.0
 40
0.4035011839755722
 50
72.1823404490402112
 51
107.8088951590142983
  0
ARC
  5
C741
  8
0
 10
3784.6861463010300213
 20
-310.5690349911228054
 30
0.0
 40
0.0020623736042862
 50
240.2785585077529902
 51
299.9735137846275279
  0
ARC
  5
C742
  8
0
 10
3784.6798570875607766
 20
-310.5848773759976211
 30
0.0
 40
0.0158474862872014
 50
0.4668997426657243
 51
62.4917674269402426
  0
ARC
  5
C743
  8
0
 10
3784.6798237523198623
 20
-310.6732460835495999
 30
0.0
 40
0.0158883595315117
 50
297.6168701174609055
 51
358.1744382474295776
  0
ARC
  5
C744
  8
0
 10
3784.6861546943450776
 20
-310.6890963262795253
 30
0.0
 40
0.0020518058703042
 50
59.7315391869933379
 51
120.1060939254685991
  0
ARC
  5
C745
  8
0
 10
3784.5616910174830991
 20
-310.3033405236105864
 30
0.0
 40
0.4033327643288374
 50
252.179476179542803
 51
287.820523820457197
  0
ARC
  5
C746
  8
0
 10
3784.435768344771077
 20
-310.6971594654800128
 30
0.0
 40
0.0101479220014067
 50
75.8068308742260228
 51
104.1931691256926058
  0
ARC
  5
C747
  8
0
 10
3784.25869738891015
 20
-309.9092995407411877
 30
0.0
 40
0.797368811237166
 50
257.3537633337904253
 51
282.6472855234613917
  0
ARC
  5
C748
  8
0
 10
3784.0816334814298898
 20
-310.6969641540555926
 30
0.0
 40
0.0099573937398817
 50
75.4866319365870169
 51
104.502467927400005
  0
ARC
  5
C749
  8
0
 10
3783.9556914959889582
 20
-310.3032870883877763
 30
0.0
 40
0.4033904963837099
 50
252.184105244692006
 51
287.8199694795468986
  0
ARC
  5
C74A
  8
0
 10
3783.8312379432918533
 20
-310.6891232952198152
 30
0.0
 40
0.002066817174954
 50
60.0314229682333576
 51
120.0020464967898022
  0
ARC
  5
C74B
  8
0
 10
3783.8375632567408502
 20
-310.6732670668474157
 30
0.0
 40
0.0158749459244974
 50
180.0386218077078126
 51
242.3837633351838008
  0
ARC
  5
C74C
  8
0
 10
3783.8311837978908443
 20
-310.5688130334351058
 30
0.0
 40
0.0022810172002297
 50
244.7570201818560065
 51
298.4925729840043118
  0
ARC
  5
C74D
  8
0
 10
3783.8373930160141754
 20
-310.5848425561429167
 30
0.0
 40
0.0157047455920649
 50
117.2138215007339994
 51
180.1356284403364896
  0
LINE
  5
C74E
  8
0
 10
3784.4357259734051695
 20
-310.5711341020867735
 30
0.0
 11
3784.4357259734051695
 21
-310.6870116319370823
 31
0.0
  0
LINE
  5
C74F
  8
0
 10
3784.0816335678750875
 20
-310.5711429055336907
 30
0.0
 11
3784.0816335678750875
 21
-310.6870067603160805
 31
0.0
  0
LINE
  5
C750
  8
0
 10
3785.5461593167729006
 20
-309.2971861872538852
 30
0.0
 11
3785.5461593167729006
 21
-309.3118157663424768
 31
0.0
  0
LINE
  5
C751
  8
0
 10
3782.9712330501729411
 20
-309.2971861872538852
 30
0.0
 11
3782.9712330501729411
 21
-309.3109266796344059
 31
0.0
  0
CIRCLE
  5
C753
  8
0
 10
3782.2587446887960141
 20
-311.5551295299538879
 30
0.0
 40
0.3375607041485733
  0
CIRCLE
  5
C754
  8
0
 10
3786.2586476689248229
 20
-311.5551295299538879
 30
0.0
 40
0.337560704148574
  0
LINE
  5
C755
  8
0
 10
3783.8216883144241365
 20
-310.5658525278225852
 30
0.0
 11
3783.8216883144241365
 21
-310.692301366530728
 31
0.0
  0
LINE
  5
C756
  8
0
 10
3783.8216883144241365
 20
-311.242255526202996
 30
0.0
 11
3783.8216883144241365
 21
-311.8674624651637828
 31
0.0
  0
LINE
  5
C757
  8
0
 10
3784.6957040476731891
 20
-310.5658525276538739
 30
0.0
 11
3784.6957040476731891
 21
-310.692297800375286
 31
0.0
  0
LINE
  5
C758
  8
0
 10
3784.6957040476731891
 20
-311.2425140978522791
 30
0.0
 11
3784.6957040476731891
 21
-311.8677682559460891
 31
0.0
  0
CIRCLE
  5
C759
  8
0
 10
3786.2586600750701109
 20
-311.5551295299538879
 30
0.0
 40
0.4478082864789524
  0
CIRCLE
  5
C75A
  8
0
 10
3782.2587322907570524
 20
-311.5551295299538879
 30
0.0
 40
0.4478082864872554
  0
ENDSEC
  0
EOF
