  0
SECTION
  2
HEADER
  9
$ACADVER
  1
AC1009
  9
$INSBASE
 10
3783.3517043664478479
 20
-305.1456422776878981
 30
0.0
  9
$EXTMIN
 10
3779.0643027916480605
 20
-308.1159937928878776
 30
0.0
  9
$EXTMAX
 10
3787.6391059411480455
 20
-305.1407730856263925
 30
0.0
  9
$LIMMIN
 10
0.0
 20
0.0
  9
$LIMMAX
 10
11.6929133858000007
 20
8.2677165353999982
  9
$ORTHOMODE
 70
     0
  9
$REGENMODE
 70
     1
  9
$FILLMODE
 70
     1
  9
$QTEXTMODE
 70
     0
  9
$MIRRTEXT
 70
     0
  9
$DRAGMODE
 70
     2
  9
$LTSCALE
 40
0.6431102362
  9
$OSMODE
 70
  4095
  9
$ATTMODE
 70
     1
  9
$TEXTSIZE
 40
0.2
  9
$TRACEWID
 40
0.05
  9
$TEXTSTYLE
  7
STANDARD
  9
$CLAYER
  8
0
  9
$CELTYPE
  6
BYLAYER
  9
$CECOLOR
 62
   256
  9
$DIMSCALE
 40
1.0
  9
$DIMASZ
 40
0.1875
  9
$DIMEXO
 40
0.0625
  9
$DIMDLI
 40
0.4443307087
  9
$DIMRND
 40
0.0
  9
$DIMDLE
 40
0.0
  9
$DIMEXE
 40
0.125
  9
$DIMTP
 40
0.01
  9
$DIMTM
 40
0.01
  9
$DIMTXT
 40
2.0
  9
$DIMCEN
 40
0.1052362205
  9
$DIMTSZ
 40
0.0
  9
$DIMTOL
 70
     1
  9
$DIMLIM
 70
     0
  9
$DIMTIH
 70
     1
  9
$DIMTOH
 70
     1
  9
$DIMSE1
 70
     0
  9
$DIMSE2
 70
     0
  9
$DIMTAD
 70
     0
  9
$DIMZIN
 70
     0
  9
$DIMBLK
  1

  9
$DIMASO
 70
     1
  9
$DIMSHO
 70
     1
  9
$DIMPOST
  1
\X
  9
$DIMAPOST
  1

  9
$DIMALT
 70
     1
  9
$DIMALTD
 70
     2
  9
$DIMALTF
 40
25.3999999999999986
  9
$DIMLFAC
 40
1.0
  9
$DIMTOFL
 70
     0
  9
$DIMTVP
 40
0.0
  9
$DIMTIX
 70
     0
  9
$DIMSOXD
 70
     0
  9
$DIMSAH
 70
     0
  9
$DIMBLK1
  1

  9
$DIMBLK2
  1

  9
$DIMSTYLE
  2
STANDARD
  9
$DIMCLRD
 70
     0
  9
$DIMCLRE
 70
     0
  9
$DIMCLRT
 70
     0
  9
$DIMTFAC
 40
1.0
  9
$DIMGAP
 40
0.09
  9
$LUNITS
 70
     2
  9
$LUPREC
 70
     4
  9
$SKETCHINC
 40
0.1
  9
$FILLETRAD
 40
0.0
  9
$AUNITS
 70
     0
  9
$AUPREC
 70
     0
  9
$MENU
  1
.
  9
$ELEVATION
 40
0.0
  9
$PELEVATION
 40
0.0
  9
$THICKNESS
 40
0.0
  9
$LIMCHECK
 70
     0
  9
$BLIPMODE
 70
     0
  9
$CHAMFERA
 40
0.0
  9
$CHAMFERB
 40
0.0
  9
$SKPOLY
 70
     0
  9
$TDCREATE
 40
2458060.468368056230247
  9
$TDUPDATE
 40
2459578.6558217601850629
  9
$TDINDWG
 40
0.4216390046
  9
$TDUSRTIMER
 40
0.4216390046
  9
$USRTIMER
 70
     1
  9
$ANGBASE
 50
0.0
  9
$ANGDIR
 70
     0
  9
$PDMODE
 70
     0
  9
$PDSIZE
 40
0.3125
  9
$PLINEWID
 40
0.0
  9
$COORDS
 70
     1
  9
$SPLFRAME
 70
     0
  9
$SPLINETYPE
 70
     6
  9
$SPLINESEGS
 70
     8
  9
$ATTDIA
 70
     1
  9
$ATTREQ
 70
     1
  9
$HANDLING
 70
     1
  9
$HANDSEED
  5
CEBD
  9
$SURFTAB1
 70
     6
  9
$SURFTAB2
 70
     6
  9
$SURFTYPE
 70
     6
  9
$SURFU
 70
     6
  9
$SURFV
 70
     6
  9
$UCSNAME
  2

  9
$UCSORG
 10
0.0
 20
0.0
 30
0.0
  9
$UCSXDIR
 10
1.0
 20
0.0
 30
0.0
  9
$UCSYDIR
 10
0.0
 20
1.0
 30
0.0
  9
$PUCSNAME
  2

  9
$PUCSORG
 10
0.0
 20
0.0
 30
0.0
  9
$PUCSXDIR
 10
1.0
 20
0.0
 30
0.0
  9
$PUCSYDIR
 10
0.0
 20
1.0
 30
0.0
  9
$USERI1
 70
     0
  9
$USERI2
 70
     0
  9
$USERI3
 70
     0
  9
$USERI4
 70
     0
  9
$USERI5
 70
     0
  9
$USERR1
 40
0.0
  9
$USERR2
 40
0.0
  9
$USERR3
 40
0.0
  9
$USERR4
 40
0.0
  9
$USERR5
 40
0.0
  9
$WORLDVIEW
 70
     1
  9
$SHADEDGE
 70
     3
  9
$SHADEDIF
 70
    70
  9
$TILEMODE
 70
     1
  9
$MAXACTVP
 70
    64
  9
$PLIMCHECK
 70
     0
  9
$PEXTMIN
 10
1.0000000000000000E+20
 20
1.0000000000000000E+20
 30
1.0000000000000000E+20
  9
$PEXTMAX
 10
-1.0000000000000000E+20
 20
-1.0000000000000000E+20
 30
-1.0000000000000000E+20
  9
$PLIMMIN
 10
0.0
 20
0.0
  9
$PLIMMAX
 10
12.0
 20
9.0
  9
$UNITMODE
 70
     0
  9
$VISRETAIN
 70
     1
  9
$PLINEGEN
 70
     0
  9
$PSLTSCALE
 70
     1
  0
ENDSEC
  0
SECTION
  2
TABLES
  0
TABLE
  2
VPORT
 70
     1
  0
VPORT
  2
*ACTIVE
 70
     0
 10
0.0
 20
0.0
 11
1.0
 21
1.0
 12
-0.076073966027252
 22
-0.8321617143080857
 13
0.0
 23
0.0
 14
1.0
 24
1.0
 15
0.0
 25
0.0
 16
0.0
 26
0.0
 36
35.8446389479700329
 17
3783.3516845703129547
 27
-305.7969207763671875
 37
0.0
 40
5.3882561819226851
 41
1.67063492063492
 42
50.0
 43
0.0
 44
0.0
 50
0.0
 51
0.0
 71
     0
 72
 10000
 73
     1
 74
     1
 75
     0
 76
     0
 77
     0
 78
     0
  0
ENDTAB
  0
TABLE
  2
LTYPE
 70
     2
  0
LTYPE
  2
CONTINUOUS
 70
     0
  3
Solid line
 72
    65
 73
     0
 40
0.0
  0
LTYPE
  2
PHANTOM2
 70
     0
  3
___ _ _ ___ _ _ ___ _ _ ___ _ _
 72
    65
 73
     6
 40
1.25
 49
0.625
 49
-0.125
 49
0.125
 49
-0.125
 49
0.125
 49
-0.125
  0
ENDTAB
  0
TABLE
  2
LAYER
 70
     2
  0
LAYER
  2
0
 70
     0
 62
   255
  6
CONTINUOUS
  0
LAYER
  2
DEFPOINTS
 70
     0
 62
     7
  6
CONTINUOUS
  0
ENDTAB
  0
TABLE
  2
STYLE
 70
     1
  0
STYLE
  2
STANDARD
 70
     0
 40
0.0
 41
0.8
 50
0.0
 71
     0
 42
0.2
  3
txt
  4

  0
ENDTAB
  0
TABLE
  2
VIEW
 70
     0
  0
ENDTAB
  0
TABLE
  2
UCS
 70
     0
  0
ENDTAB
  0
TABLE
  2
APPID
 70
    11
  0
APPID
  2
ACAD
 70
     0
  0
APPID
  2
ACAD_MLEADERVER
 70
     0
  0
APPID
  2
ACAD_EXEMPT_FROM_CAD_STANDARDS
 70
     0
  0
APPID
  2
ACAD_NAV_VCDISPLAY
 70
     0
  0
APPID
  2
ACAECLAYERSTANDARD
 70
     0
  0
APPID
  2
ACCMTRANSPARENCY
 70
     0
  0
APPID
  2
ACAD_DSTYLE_DIMJAG
 70
     0
  0
APPID
  2
ACAD_DSTYLE_DIMTALN
 70
     0
  0
APPID
  2
ACDBATTR
 70
     0
  0
APPID
  2
ACADANNOTATIVE
 70
     0
  0
APPID
  2
ACAD_PSEXT
 70
     0
  0
ENDTAB
  0
TABLE
  2
DIMSTYLE
 70
     1
  0
DIMSTYLE
  2
STANDARD
 70
     0
  3

  4

  5

  6

  7

 40
1.0
 41
0.1875
 42
0.0625
 43
0.38
 44
0.125
 45
0.0
 46
0.0
 47
0.01
 48
0.01
140
0.15625
141
0.09
142
0.0
143
25.3999999999999986
144
1.0
145
0.0
146
1.0
147
0.09
 71
     1
 72
     0
 73
     1
 74
     1
 75
     0
 76
     0
 77
     0
 78
     4
170
     0
171
     2
172
     0
173
     0
174
     0
175
     0
176
     0
177
     0
178
     0
  0
ENDTAB
  0
ENDSEC
  0
SECTION
  2
BLOCKS
  0
BLOCK
  8
0
  2
$MODEL_SPACE
 70
     0
 10
0.0
 20
0.0
 30
0.0
  3
$MODEL_SPACE
  1

  0
ENDBLK
  5
21
  8
0
  0
BLOCK
 67
     1
  8
0
  2
$PAPER_SPACE
 70
     0
 10
0.0
 20
0.0
 30
0.0
  3
$PAPER_SPACE
  1

  0
ENDBLK
  5
1D
 67
     1
  8
0
  0
BLOCK
  8
0
  2
_FILLED
 70
     0
 10
0.0
 20
0.0
 30
0.0
  3
_FILLED
  1

  0
SOLID
  5
B73F
  8
0
  6
BYBLOCK
 62
     0
 10
0.0
 20
0.0
 30
0.0
 11
-1.0
 21
0.1666666667
 31
0.0
 12
-1.0
 22
-0.1666666667
 32
0.0
 13
-1.0
 23
-0.1666666667
 33
0.0
  0
ENDBLK
  5
B740
  8
0
  6
BYBLOCK
 62
     0
  0
ENDSEC
  0
SECTION
  2
ENTITIES
  0
ATTDEF
  5
9DCC
  8
0
 10
3783.3563458716271271
 20
-305.1417730856264257
 30
0.0
 40
0.001
  1
K-72571
  3

  2
MODELNUMBER
 70
     0
1001
ACDBATTR
1070
     0
1070
     1
  0
ATTDEF
  5
9DCD
  8
0
 10
3783.3563458716271271
 20
-305.1434397522929771
 30
0.0
 40
0.001
  1
ARTIFACTS
  3

  2
TRADENAME
 70
     0
1001
ACDBATTR
1070
     0
1070
     1
  0
ATTDEF
  5
9DCE
  8
0
 10
3783.3563458716271271
 20
-305.1451064189596991
 30
0.0
 40
0.001
  1
TOWEL RING
  3

  2
PRODUCT
 70
     0
1001
ACDBATTR
1070
     0
1070
     1
  0
LINE
  5
C8CA
  8
0
 10
3782.0643029827738246
 20
-305.1456422776506088
 30
0.0
 11
3784.6391057500218267
 21
-305.1456422777250737
 31
0.0
  0
ARC
  5
C8CB
  8
0
 10
3784.3407318426720849
 20
-305.1517035202501802
 30
0.0
 40
0.2984354658014621
 50
290.086888379030313
 51
1.1637607965088621
  0
ARC
  5
C8CC
  8
0
 10
-17630.637435468921467
 20
64834.1117690756072989
 30
0.0
 40
68569.4235096208140021
 50
288.1985545818025116
 51
288.1986413514048877
  0
ARC
  5
C8CD
  8
0
 10
3784.3556411830741126
 20
-305.5022014474506022
 30
0.0
 40
0.0393700787000055
 50
106.3177603994962936
 51
180.0000000000065086
  0
LINE
  5
C8CE
  8
0
 10
3784.3162711043742092
 20
-305.5022014474506022
 30
0.0
 11
3784.316271114113988
 21
-305.5529619358280797
 31
0.0
  0
ARC
  5
C8CF
  8
0
 10
3784.2769010461752259
 20
-305.5529619433826838
 30
0.0
 40
0.0393700679387477
 50
278.9999721348157209
 51
0.0000109942800576
  0
ARC
  5
C8D0
  8
0
 10
1455.9183326876559477
 20
14394.7191916463707457
 30
0.0
 40
14883.5623069419507374
 50
278.9997559590016749
 51
279.0002440661817218
  0
ARC
  5
C8D1
  8
0
 10
3784.2286533191741
 20
-306.0588640182505742
 30
0.0
 40
0.4527559054999982
 50
98.999999998330253
 51
159.4807455267049079
  0
ARC
  5
C8D2
  8
0
 10
3784.136472668325041
 20
-306.0243638074725254
 30
0.0
 40
0.3543306195026647
 50
159.4807402645874959
 51
199.6997241757981101
  0
ARC
  5
C8D3
  8
0
 10
3783.8399460832929435
 20
-306.1305340855855093
 30
0.0
 40
0.0393700766002721
 50
199.6997241757981101
 51
246.0903592276033862
  0
ARC
  5
C8D4
  8
0
 10
3783.7996490025730054
 20
-306.221428323111013
 30
0.0
 40
0.060056364198771
 50
263.3066038254460182
 51
66.0903592276034431
  0
ARC
  5
C8D5
  8
0
 10
3783.7926490570039277
 20
-306.3283194428798879
 30
0.0
 40
0.0472440943292902
 50
89.9999999142526548
 51
180.0000002070306095
  0
LINE
  5
C8D6
  8
0
 10
3783.7454049625739572
 20
-306.3283194430505887
 30
0.0
 11
3783.7454049626740016
 21
-306.3615743919513079
 31
0.0
  0
ARC
  5
C8D7
  8
0
 10
3783.7788695295739672
 20
-306.3615743918505814
 30
0.0
 40
0.0334645669000029
 50
180.0000001722958984
 51
240.0000000000916032
  0
ARC
  5
C8D8
  8
0
 10
3783.9988557687738648
 20
-305.9609352443832222
 30
0.0
 40
0.490519389936035
 50
241.1454679359885063
 51
243.5037787474647075
  0
ARC
  5
C8D9
  8
0
 10
3783.7723509732059028
 20
-306.4143870181720786
 30
0.0
 40
0.01636126934317
 50
0.2784948386619193
 51
62.0637654755483368
  0
LINE
  5
C8DA
  8
0
 10
3783.7887120492741815
 20
-306.4143074920506251
 30
0.0
 11
3783.7886737724329578
 21
-306.5414592232438054
 31
0.0
  0
ARC
  5
C8DB
  8
0
 10
3783.772529078271873
 20
-306.5407971315789268
 30
0.0
 40
0.0161582646021
 50
299.3348338519920731
 51
357.6516239575997247
  0
LINE
  5
C8DC
  8
0
 10
3783.7804452148739074
 20
-306.5548834475005719
 30
0.0
 11
3783.7407690634740902
 21
-306.5742334214505718
 31
0.0
  0
ARC
  5
C8DD
  8
0
 10
3783.7332469175630649
 20
-306.5587821985226924
 30
0.0
 40
0.017184963458605
 50
268.052759820831227
 51
295.9582896670319201
  0
LINE
  5
C8DE
  8
0
 10
3783.7326629860740468
 20
-306.5759572383506111
 30
0.0
 11
3782.9706913515738052
 21
-306.5759572383506111
 31
0.0
  0
ARC
  5
C8DF
  8
0
 10
3782.9706948211692179
 20
-306.5562394105592148
 30
0.0
 40
0.0197178280966623
 50
245.8699573933006945
 51
269.9899181025127746
  0
LINE
  5
C8E0
  8
0
 10
3782.9626375371622089
 20
-306.5742342937505782
 30
0.0
 11
3782.9233926283741312
 21
-306.5551244872506231
 31
0.0
  0
ARC
  5
C8E1
  8
0
 10
3782.9301259183521324
 20
-306.5412966470241258
 30
0.0
 40
0.0153800636948926
 50
184.0354774956971937
 51
244.0368257373270922
  0
LINE
  5
C8E2
  8
0
 10
3782.9147839869738164
 20
-306.5423790059506928
 30
0.0
 11
3782.9147388567248527
 21
-306.4135091345006003
 31
0.0
  0
ARC
  5
C8E3
  8
0
 10
3782.9308475822531364
 20
-306.4142302343224742
 30
0.0
 40
0.0161248573059112
 50
117.5386898935384039
 51
177.4368914381755928
  0
ARC
  5
C8E4
  8
0
 10
3782.7045603028627738
 20
-305.9609499792305769
 30
0.0
 40
0.4905027583019387
 50
296.4961801818665776
 51
298.8545727598223039
  0
ARC
  5
C8E5
  8
0
 10
3782.9241341450178879
 20
-306.3613407521372096
 30
0.0
 40
0.033870048603175
 50
300.3952366004731971
 51
359.604763611995395
  0
LINE
  5
C8E6
  8
0
 10
3782.9580033877741698
 20
-306.3615743918505814
 30
0.0
 11
3782.9580033878651193
 21
-306.3283185200241974
 31
0.0
  0
ARC
  5
C8E7
  8
0
 10
3782.9107592934419699
 20
-306.3283194428876755
 30
0.0
 40
0.0472440943371506
 50
359.9992000801431118
 51
90.0000000818130417
  0
ARC
  5
C8E8
  8
0
 10
3782.9039636371189772
 20
-306.2213724300792137
 30
0.0
 40
0.0600884299840511
 50
114.1093200185456027
 51
276.493716803330301
  0
ARC
  5
C8E9
  8
0
 10
3782.863462244485163
 20
-306.1305340644047988
 30
0.0
 40
0.0393701051513667
 50
293.9096584400977008
 51
340.3003075355745182
  0
ARC
  5
C8EA
  8
0
 10
3782.5602890938921519
 20
-306.0219841966871854
 30
0.0
 40
0.3613903421261123
 50
340.3003075355745182
 51
19.6996924644254712
  0
ARC
  5
C8EB
  8
0
 10
3782.4721874483639112
 20
-306.0645897209782902
 30
0.0
 40
0.458815705799656
 50
21.0002441319758404
 51
80.7951661155350394
  0
ARC
  5
C8EC
  8
0
 10
3782.3622622700418106
 20
-305.1518309241118914
 30
0.0
 40
0.298023932029164
 50
178.8101331167752903
 51
251.9530156423597873
  0
ARC
  5
C8ED
  8
0
 10
7410.2290389951722318
 20
10729.7794122345003416
 30
0.0
 40
11616.2837705902402377
 50
251.8011004209697887
 51
251.8015619621675114
  0
ARC
  5
C8EE
  8
0
 10
3782.3477671673740588
 20
-305.5022014474506022
 30
0.0
 40
0.0393700786999931
 50
359.9999999999902229
 51
73.6822396006951834
  0
LINE
  5
C8EF
  8
0
 10
3782.3871372460739622
 20
-305.5022014474506022
 30
0.0
 11
3782.3871372461740066
 21
-305.5529619357506022
 31
0.0
  0
ARC
  5
C8F0
  8
0
 10
3782.4265073249639499
 20
-305.5529619356730109
 30
0.0
 40
0.0393700787904523
 50
180.0000001128740053
 51
260.9999998778690724
  0
ARC
  5
C8F1
  8
0
 10
3242.7279263634559356
 20
-3713.4809528824521294
 30
0.0
 40
3450.3588315452579991
 50
80.9989472304572047
 51
81.0010527429377163
  0
LINE
  5
C8F2
  8
0
 10
3782.358828750569046
 20
-305.4644172645952835
 30
0.0
 11
3784.344579599878216
 21
-305.4644172645952835
 31
0.0
  0
LINE
  5
C8F3
  8
0
 10
3782.8794187787430019
 20
-306.1665256494505911
 30
0.0
 11
3783.8239895717051695
 21
-306.1665256494505911
 31
0.0
  0
LINE
  5
C8F4
  8
0
 10
3782.9107592934419699
 20
-306.281075348550587
 30
0.0
 11
3783.7926490570739588
 21
-306.281075348550587
 31
0.0
  0
LINE
  5
C8F5
  8
0
 10
3782.937525061830911
 20
-306.3925984206505859
 30
0.0
 11
3783.765883293664956
 21
-306.3925984206505859
 31
0.0
  0
ARC
  5
C8F6
  8
0
 10
3783.048701615347909
 20
-306.8096851150992848
 30
0.0
 40
0.4094548656932015
 50
72.453438370041269
 51
107.5437228298944063
  0
ARC
  5
C8F7
  8
0
 10
3783.1746351307110672
 20
-306.4096817753361961
 30
0.0
 40
0.0099173542871899
 50
255.4543355900331107
 51
284.6107173883899009
  0
ARC
  5
C8F8
  8
0
 10
3783.351701587379921
 20
-307.1972084671489824
 30
0.0
 40
0.7972753754486526
 50
77.3520764779011074
 51
102.647468878846297
  0
ARC
  5
C8F9
  8
0
 10
3783.528767898274964
 20
-306.4094704712887278
 30
0.0
 40
0.0101217481532008
 50
255.7275954799237923
 51
284.2711691587298901
  0
ARC
  5
C8FA
  8
0
 10
3783.6546951210261795
 20
-306.8032487633602159
 30
0.0
 40
0.4033207163922864
 50
72.1780708892759151
 51
107.8207175623082037
  0
ARC
  5
C8FB
  8
0
 10
3783.7797072016451239
 20
-306.4151513003249079
 30
0.0
 40
0.0044201055514759
 50
249.1687349908405906
 51
272.3576837254428824
  0
ARC
  5
C8FC
  8
0
 10
3783.7798509637550524
 20
-306.4192130316246221
 30
0.0
 40
0.0003566702387797
 50
276.1274288070903822
 51
348.4460912429727273
  0
ARC
  5
C8FD
  8
0
 10
3783.7729380533019139
 20
-306.4332808316685259
 30
0.0
 40
0.0157683208692722
 50
0.1072230847594104
 51
62.576359824440992
  0
ARC
  5
C8FE
  8
0
 10
3782.923618834188801
 20
-306.4148673347626755
 30
0.0
 40
0.0047098041439048
 50
268.9702262389077987
 51
290.6294071464478748
  0
ARC
  5
C8FF
  8
0
 10
3782.9235305755018999
 20
-306.4192549138132904
 30
0.0
 40
0.0003214847340937
 50
183.8064819755880137
 51
270.64414580271972
  0
ARC
  5
C900
  8
0
 10
3782.9305334475689051
 20
-306.4333255674659995
 30
0.0
 40
0.0158435779585835
 50
117.532202570747998
 51
175.2044395154831875
  0
ARC
  5
C901
  8
0
 10
3783.0487026033902112
 20
-306.1517791746445027
 30
0.0
 40
0.4033540832230896
 50
252.1807839073645141
 51
287.821054203767801
  0
ARC
  5
C902
  8
0
 10
3783.1746392277268569
 20
-306.5454086043632174
 30
0.0
 40
0.0099467272763331
 50
75.457946348272273
 51
104.5095097545466984
  0
ARC
  5
C903
  8
0
 10
3783.3517081177860746
 20
-305.7577309648449955
 30
0.0
 40
0.7973934365752756
 50
257.3539515781238265
 51
282.6452636517540213
  0
ARC
  5
C904
  8
0
 10
3783.5287391455540273
 20
-306.5452057417361971
 30
0.0
 40
0.0097412508041135
 50
75.0254561461666469
 51
104.6902940233629948
  0
ARC
  5
C905
  8
0
 10
3783.654663128374068
 20
-306.1516188891505976
 30
0.0
 40
0.4035105768000496
 50
252.1917000707142051
 51
287.8148985213051105
  0
ARC
  5
C906
  8
0
 10
3783.7799383790797947
 20
-306.5408366956822874
 30
0.0
 40
0.0053746110300715
 50
91.991171684022504
 51
109.8394356352785053
  0
ARC
  5
C907
  8
0
 10
3783.7798139559331503
 20
-306.5358571309117792
 30
0.0
 40
0.0003967264595669
 50
11.99791342976404
 51
99.0378362338955327
  0
ARC
  5
C908
  8
0
 10
3783.7729043490840013
 20
-306.521746876604027
 30
0.0
 40
0.0158124848253932
 50
297.4847800731532743
 51
356.0556326537084146
  0
ARC
  5
C909
  8
0
 10
3782.9233641853847985
 20
-306.5409325412097132
 30
0.0
 40
0.0054805826604539
 50
69.6653996174487276
 51
84.9082293055550394
  0
ARC
  5
C90A
  8
0
 10
3782.9236973717438559
 20
-306.535979412274628
 30
0.0
 40
0.0005285237384705
 50
73.1476802144582621
 51
158.3785497066735104
  0
ARC
  5
C90B
  8
0
 10
3782.9305363542098348
 20
-306.5217336321293828
 30
0.0
 40
0.0158481896650241
 50
186.0811581983396081
 51
242.4492895592439083
  0
LINE
  5
C90C
  8
0
 10
3783.1746407607370202
 20
-306.4195991280253111
 30
0.0
 11
3783.174642052587842
 21
-306.5354618774878759
 31
0.0
  0
LINE
  5
C90D
  8
0
 10
3783.528767898274964
 20
-306.4195922194418813
 30
0.0
 11
3783.5287391455540273
 21
-306.5354644909320996
 31
0.0
  0
LINE
  5
C90E
  8
0
 10
3784.4321364201477991
 20
-307.2767446398877951
 30
0.0
 11
3784.5918618467480883
 21
-307.2767446398877951
 31
0.0
  0
ARC
  5
C90F
  8
0
 10
3784.5918618467480883
 20
-307.2885556634877844
 30
0.0
 40
0.0118110236
 50
359.9999999999902229
 51
90.0
  0
LINE
  5
C910
  8
0
 10
3784.6036728703479639
 20
-307.2885556634878981
 30
0.0
 11
3784.6036728703479639
 21
-308.0050910965878757
 31
0.0
  0
ARC
  5
C911
  8
0
 10
3784.5918618467480883
 20
-308.0050910965878757
 30
0.0
 40
0.0118110236000009
 50
270.0000000005210836
 51
359.9999999999869829
  0
LINE
  5
C912
  8
0
 10
3784.5918618467480883
 20
-308.0169021201879218
 30
0.0
 11
3784.4321364201477991
 21
-308.0169021201892861
 31
0.0
  0
ARC
  5
C913
  8
0
 10
3784.4321364201477991
 20
-307.987374561043282
 30
0.0
 40
0.0295275591460254
 50
210.7726988036916111
 51
270.0000000005210836
  0
ARC
  5
C914
  8
0
 10
3784.200537484439792
 20
-308.1252857059379267
 30
0.0
 40
0.240023087128912
 50
30.7726988036916396
 51
65.5715187129076895
  0
ARC
  5
C915
  8
0
 10
3784.200537485734003
 20
-308.1252857030888208
 30
0.0
 40
0.2400230839995735
 50
65.5715187129076895
 51
107.8716934955086941
  0
ARC
  5
C916
  8
0
 10
3784.2004559384449749
 20
-308.1250328006984773
 30
0.0
 40
0.239757359368823
 50
107.8716934955086941
 51
135.3931061302066894
  0
LINE
  5
C917
  8
0
 10
3784.6036728703479639
 20
-307.9566658996878914
 30
0.0
 11
3787.3280823191480522
 21
-307.9566658996878914
 31
0.0
  0
LINE
  5
C918
  8
0
 10
3784.6036728703479639
 20
-307.3346186556879047
 30
0.0
 11
3787.3280823191480522
 21
-307.3346186556879047
 31
0.0
  0
ARC
  5
C919
  8
0
 10
3787.3280823191480522
 20
-307.6456422776878981
 30
0.0
 40
0.3110236220000004
 50
270.0
 51
90.0
  0
ARC
  5
C91A
  8
0
 10
3784.2155737853349819
 20
-308.1372017613143726
 30
0.0
 40
0.2590732576115885
 50
135.8249736168914126
 51
148.3707462745142891
  0
ARC
  5
C91B
  8
0
 10
3783.9383185396482077
 20
-307.9657210178879154
 30
0.0
 40
0.0669291338999981
 50
212.7477135175992942
 51
327.8481276524285022
  0
ARC
  5
C91C
  8
0
 10
3783.8721367792159072
 20
-308.0081600318195001
 30
0.0
 40
0.0116912223680144
 50
32.2250948955075316
 51
116.386435355394994
  0
ARC
  5
C91D
  8
0
 10
3784.4321364259258189
 20
-307.3062722092009835
 30
0.0
 40
0.0295275693131642
 50
90.0000112113288395
 51
149.2273095825991049
  0
ARC
  5
C91E
  8
0
 10
3784.2005374857499191
 20
-307.1683610556673898
 30
0.0
 40
0.2400230852204585
 50
211.3212234676884123
 51
329.227298938427225
  0
LINE
  5
C91F
  8
0
 10
3784.3736494668478372
 20
-307.3346186556879047
 30
0.0
 11
3784.0274204965899116
 21
-307.3346186556879047
 31
0.0
  0
ARC
  5
C920
  8
0
 10
3783.9383185396241061
 20
-307.3279257422432238
 30
0.0
 40
0.0669291338553399
 50
31.3212235154661087
 51
147.2522865032624111
  0
ARC
  5
C921
  8
0
 10
3783.8720929500768761
 20
-307.2853307408328192
 30
0.0
 40
0.0118119789891457
 50
244.1361743878960056
 51
327.2481782424763992
  0
LINE
  5
C922
  8
0
 10
3784.4321364201477991
 20
-307.2767446398877951
 30
0.0
 11
3784.4321364201477991
 21
-308.0169021201892861
 31
0.0
  0
LINE
  5
C923
  8
0
 10
3783.9954938452478928
 20
-307.2931335967879249
 30
0.0
 11
3783.9954938452478928
 21
-308.0005131634691793
 31
0.0
  0
LINE
  5
C924
  8
0
 10
3783.8820270820478981
 20
-307.291721035787873
 30
0.0
 11
3783.8820270820478981
 21
-308.0019257242927893
 31
0.0
  0
LINE
  5
C925
  8
0
 10
3784.3712551509479454
 20
-307.9566658996878914
 30
0.0
 11
3784.029762710650175
 21
-307.9566658996864135
 31
0.0
  0
LINE
  5
C926
  8
0
 10
3782.2712723126478522
 20
-307.2767446398877951
 30
0.0
 11
3782.1115468860480178
 21
-307.2767446398877951
 31
0.0
  0
ARC
  5
C927
  8
0
 10
3782.1115468860480178
 20
-307.2885556634877844
 30
0.0
 40
0.0118110236
 50
90.0
 51
180.0000000000098055
  0
LINE
  5
C928
  8
0
 10
3782.0997358624467779
 20
-307.2885556634878981
 30
0.0
 11
3782.0997358624481421
 21
-308.0050910965878757
 31
0.0
  0
ARC
  5
C929
  8
0
 10
3782.1115468860480178
 20
-308.0050910965878757
 30
0.0
 40
0.0118110236000009
 50
180.0000000000129887
 51
269.9999999994789164
  0
LINE
  5
C92A
  8
0
 10
3782.1115468860480178
 20
-308.0169021201879218
 30
0.0
 11
3782.2712723126478522
 21
-308.0169021201892861
 31
0.0
  0
ARC
  5
C92B
  8
0
 10
3782.2712723126492165
 20
-307.987374561043282
 30
0.0
 40
0.0295275591460254
 50
269.9999999994789164
 51
329.2273011963084173
  0
ARC
  5
C92C
  8
0
 10
3782.5028712483572235
 20
-308.1252857059379267
 30
0.0
 40
0.240023087128912
 50
114.4284812870922963
 51
149.2273011963083036
  0
ARC
  5
C92D
  8
0
 10
3782.5028712470621031
 20
-308.1252857030888208
 30
0.0
 40
0.2400230839995735
 50
72.128306504491249
 51
114.4284812870922963
  0
ARC
  5
C92E
  8
0
 10
3782.5029527943511312
 20
-308.1250328006984773
 30
0.0
 40
0.239757359368823
 50
44.6068938697932609
 51
72.128306504491249
  0
LINE
  5
C92F
  8
0
 10
3782.0997358624467779
 20
-307.9566658996878914
 30
0.0
 11
3779.3753264136480539
 21
-307.9566658996878914
 31
0.0
  0
LINE
  5
C930
  8
0
 10
3782.0997358624467779
 20
-307.3346186556879047
 30
0.0
 11
3779.3753264136480539
 21
-307.3346186556879047
 31
0.0
  0
ARC
  5
C931
  8
0
 10
3779.3753264136480539
 20
-307.6456422776878981
 30
0.0
 40
0.3110236220000004
 50
89.9999998114652868
 51
270.0
  0
ARC
  5
C932
  8
0
 10
3782.4878349474611241
 20
-308.1372017613143726
 30
0.0
 40
0.2590732576115885
 50
31.6292537254857109
 51
44.1750263831085874
  0
ARC
  5
C933
  8
0
 10
3782.7650901931478984
 20
-307.9657210178879154
 30
0.0
 40
0.0669291338999981
 50
212.1518723475714125
 51
327.2522864824006206
  0
ARC
  5
C934
  8
0
 10
3782.8312719535788347
 20
-308.0081600318195001
 30
0.0
 40
0.0116912223680144
 50
63.6135646446049918
 51
147.7749051044924045
  0
ARC
  5
C935
  8
0
 10
3782.2712723068698324
 20
-307.3062722092009835
 30
0.0
 40
0.0295275693131642
 50
30.7726904174008915
 51
89.9999887886711463
  0
ARC
  5
C936
  8
0
 10
3782.5028712470461869
 20
-307.1683610556673898
 30
0.0
 40
0.2400230852204585
 50
210.7727010615728034
 51
328.6787765323115877
  0
LINE
  5
C937
  8
0
 10
3782.3297592659478141
 20
-307.3346186556879047
 30
0.0
 11
3782.6759882362061944
 21
-307.3346186556879047
 31
0.0
  0
ARC
  5
C938
  8
0
 10
3782.7650901931729095
 20
-307.3279257422432238
 30
0.0
 40
0.0669291338553399
 50
32.7477134967375179
 51
148.6787764845338984
  0
ARC
  5
C939
  8
0
 10
3782.8313157827201394
 20
-307.2853307408328192
 30
0.0
 40
0.0118119789891457
 50
212.7518217575236861
 51
295.8638256121038808
  0
LINE
  5
C93A
  8
0
 10
3782.2712723126478522
 20
-307.2767446398877951
 30
0.0
 11
3782.2712723126478522
 21
-308.0169021201892861
 31
0.0
  0
LINE
  5
C93B
  8
0
 10
3782.7079148875482133
 20
-307.2931335967879249
 30
0.0
 11
3782.7079148875482133
 21
-308.0005131634691793
 31
0.0
  0
LINE
  5
C93C
  8
0
 10
3782.8213816507482079
 20
-307.291721035787873
 30
0.0
 11
3782.8213816507482079
 21
-308.0019257242927893
 31
0.0
  0
LINE
  5
C93D
  8
0
 10
3782.3321535818481607
 20
-307.9566658996878914
 30
0.0
 11
3782.6736460221459311
 21
-307.9566658996864135
 31
0.0
  0
ARC
  5
C93E
  8
0
 10
3783.3517044889999852
 20
-306.9348919647894718
 30
0.0
 40
1.181101828098414
 50
244.1355615062155948
 51
295.863823232863183
  0
LINE
  5
C93F
  8
0
 10
3783.7217831065481732
 20
-306.5759572383506111
 30
0.0
 11
3783.7217831065481732
 21
-306.6625714115879191
 31
0.0
  0
ARC
  5
C940
  8
0
 10
3783.6824130278869234
 20
-306.6625714115879191
 30
0.0
 40
0.0393700786611113
 50
286.2602046598235006
 51
0.0
  0
ARC
  5
C941
  8
0
 10
3783.7099720828819045
 20
-306.7570596004379126
 30
0.0
 40
0.0590551180333732
 50
106.2602046598234011
 51
180.0000000484820077
  0
LINE
  5
C942
  8
0
 10
3783.6509169648479656
 20
-306.757059600487878
 30
0.0
 11
3783.6509169651180855
 21
-307.0762883924555808
 31
0.0
  0
ARC
  5
C943
  8
0
 10
3783.8482832565728131
 20
-307.0727954389503793
 30
0.0
 40
0.1973971978700788
 50
181.0139046629730899
 51
248.8003918307815923
  0
ARC
  5
C944
  8
0
 10
3783.4827517995390735
 20
-308.0569237066881101
 30
0.0
 40
0.8524477362244463
 50
63.2121359005954204
 51
69.8142964452569288
  0
LINE
  5
C945
  8
0
 10
3782.9816256262479328
 20
-306.5759572382879128
 30
0.0
 11
3782.9816256262479328
 21
-306.6625714115879191
 31
0.0
  0
ARC
  5
C946
  8
0
 10
3783.0209957049091827
 20
-306.6625714115879191
 30
0.0
 40
0.0393700786611131
 50
180.0
 51
253.7397957352092988
  0
ARC
  5
C947
  8
0
 10
3782.9934366508191488
 20
-306.7570595997593159
 30
0.0
 40
0.0590551171285844
 50
359.9999992931412862
 51
73.7397957352093556
  0
LINE
  5
C948
  8
0
 10
3783.0524917679481405
 20
-306.757059600487878
 30
0.0
 11
3783.0524917640482272
 21
-307.0731910115878804
 31
0.0
  0
ARC
  5
C949
  8
0
 10
3782.8556414629661049
 20
-307.0731910091594159
 30
0.0
 40
0.1968503010817147
 50
291.1004179958342206
 51
359.9999992931412862
  0
ARC
  5
C94A
  8
0
 10
3783.3505703106588953
 20
-308.3561396489312187
 30
0.0
 40
1.17825397825511
 50
111.0944937173926945
 51
115.8696398513728951
  0
LINE
  5
C94B
  8
0
 10
3783.0099720829480248
 20
-306.7003666871879091
 30
0.0
 11
3783.6934366496188886
 21
-306.7003666871879091
 31
0.0
  0
ARC
  5
C94C
  8
0
 10
3783.3516914410679419
 20
-306.1260076192720021
 30
0.0
 40
1.208126087971009
 50
249.3942198424828121
 51
290.6070285205991013
  0
LINE
  5
C94E
  8
0
 10
3782.42034848766707
 20
-305.5918473034495264
 30
0.0
 11
3784.2830598627811014
 21
-305.5918473034495264
 31
0.0
  0
ENDSEC
  0
EOF
